  0
SECTION
  2
HEADER
  9
$ACADVER
  1
AC1006
  9
$EXTMIN
 10
1.041920
 20
0.613800
  9
$EXTMAX
 10
7.662600
 20
9.116800
  9
$LTSCALE
 40
0.044000
  9
$PDMODE
 70
    35
  9
$PDSIZE
 40
0.035200
  0
ENDSEC
  0
SECTION
  2
TABLES
  0
TABLE
  2
LTYPE
 70
     9
  0
LTYPE
  2
CONTINUOUS
 70
    64
  3
Solid line
 72
    65
 73
     0
 40
0.000000
  0
LTYPE
  2
DASHED
 70
    64
  3
__ __ __ __ __ __ __ __ __ __ __ __ __ __ __
 72
    65
 73
     2
 40
0.000330
 49
0.000220
 49
-0.000110
  0
LTYPE
  2
HIDDEN
 70
    64
  3
 _ _ _ _ _ _ _ _ _ _ _ _ _ _ _ _ _ _ _ _ _ _
 72
    65
 73
     2
 40
0.000165
 49
0.000110
 49
-0.000055
  0
LTYPE
  2
CENTER
 70
    64
  3
____ _ ____ _ ____ _ ____ _ ____ _ ____ _ ____
 72
    65
 73
     4
 40
0.000880
 49
0.000550
 49
-0.000110
 49
0.000110
 49
-0.000110
  0
LTYPE
  2
PHANTOM
 70
    64
  3
_____ _ _ _____ _ _ _____ _ _ _____ _ _ ____
 72
    65
 73
     6
 40
0.001100
 49
0.000550
 49
-0.000110
 49
0.000110
 49
-0.000110
 49
0.000110
 49
-0.000110
  0
LTYPE
  2
DOT
 70
    64
  3
...............................................
 72
    65
 73
     2
 40
0.000110
 49
0.000000
 49
-0.000110
  0
LTYPE
  2
DASHDOT
 70
    64
  3
__ . __ . __ . __ . __ . __ . __ . __ . __ . __
 72
    65
 73
     4
 40
0.000440
 49
0.000220
 49
-0.000110
 49
0.000000
 49
-0.000110
  0
LTYPE
  2
BORDER
 70
    64
  3
__ __ . __ __ . __ __ . __ __ . __ __ . __ __
 72
    65
 73
     6
 40
0.000770
 49
0.000220
 49
-0.000110
 49
0.000220
 49
-0.000110
 49
0.000000
 49
-0.000110
  0
LTYPE
  2
DIVIDE
 70
    64
  3
__ . . __ . . __ . . __ . . __ . . __ . . __
 72
    65
 73
     6
 40
0.000550
 49
0.000220
 49
-0.000110
 49
0.000000
 49
-0.000110
 49
0.000000
 49
-0.000110
  0
LTYPE
  2
DOTDOT
 70
    64
  3
 . .  . .  . .  . .  . .  . . 
 72
    65
 73
     5
 40
0.000242
 49
-0.000110
 49
0.000000
 49
-0.000110
 49
0.000000
 49
-0.000110
  0
ENDTAB
  0
TABLE
  2
STYLE
 70
     2
  0
STYLE
 70
     0
  2
SN0
 40
0.000000
 41
0.000440
 50
0.000000
 71
     0
 42
0.000000
  3
ROMAND
  0
STYLE
 70
    68
  2
SV0
 40
0.000000
 41
0.000440
 50
0.000000
 71
     0
 42
0.000000
  3
ROMAND
  0
ENDTAB
  0
TABLE
  2
LAYER
 70
     3
  0
LAYER
  2
FOREGROUND
 70
    64
 62
     7
  6
CONTINUOUS
  0
LAYER
  2
BACKGROUND
 70
    65
 62
    -7
  6
CONTINUOUS
  0
LAYER
  2
0
 70
    64
 62
     7
  6
CONTINUOUS
  0
ENDTAB
  0
ENDSEC
  0
SECTION
  2
ENTITIES
  0
POLYLINE
  8
FOREGROUND
  6
CONTINUOUS
 66
     1
 40
0.000000
 41
0.000000
  0
VERTEX
  8
FOREGROUND
  6
CONTINUOUS
 10
0.000000
 20
9.730600
  0
VERTEX
  8
FOREGROUND
  6
CONTINUOUS
 10
8.499920
 20
9.730600
  0
VERTEX
  8
FOREGROUND
  6
CONTINUOUS
 10
8.499920
 20
-1.269400
  0
VERTEX
  8
FOREGROUND
  6
CONTINUOUS
 10
0.000000
 20
-1.269400
  0
VERTEX
  8
FOREGROUND
  6
CONTINUOUS
 10
0.000000
 20
9.730600
  0
SEQEND
  8
0
  0
POLYLINE
  8
FOREGROUND
  6
CONTINUOUS
 66
     1
 40
0.000000
 41
0.000000
  0
VERTEX
  8
FOREGROUND
  6
CONTINUOUS
 10
0.000000
 20
9.730600
  0
VERTEX
  8
FOREGROUND
  6
CONTINUOUS
 10
8.499920
 20
9.730600
  0
VERTEX
  8
FOREGROUND
  6
CONTINUOUS
 10
8.499920
 20
-1.269400
  0
VERTEX
  8
FOREGROUND
  6
CONTINUOUS
 10
0.000000
 20
-1.269400
  0
VERTEX
  8
FOREGROUND
  6
CONTINUOUS
 10
0.000000
 20
9.730600
  0
SEQEND
  8
0
  0
SOLID
  8
0
 62
    15
 10
1.973840
 20
6.762360
 11
2.611400
 21
6.400680
 12
2.005520
 22
6.732880
 13
2.642640
 23
6.371640
  0
POLYLINE
  8
0
  6
CONTINUOUS
 66
     1
 40
0.000000
 41
0.000000
  0
VERTEX
  8
0
  6
CONTINUOUS
 10
1.973840
 20
6.762360
  0
VERTEX
  8
0
  6
CONTINUOUS
 10
2.611400
 20
6.400680
  0
VERTEX
  8
0
  6
CONTINUOUS
 10
2.642640
 20
6.371640
  0
VERTEX
  8
0
  6
CONTINUOUS
 10
2.005520
 20
6.732880
  0
VERTEX
  8
0
  6
CONTINUOUS
 10
1.973840
 20
6.762360
  0
SEQEND
  8
0
  0
SOLID
  8
0
 62
    15
 10
4.385480
 20
8.780640
 11
5.023040
 21
8.418960
 12
4.244680
 22
8.765680
 13
4.881800
 23
8.404440
  0
POLYLINE
  8
0
  6
CONTINUOUS
 66
     1
 40
0.000000
 41
0.000000
  0
VERTEX
  8
0
  6
CONTINUOUS
 10
4.385480
 20
8.780640
  0
VERTEX
  8
0
  6
CONTINUOUS
 10
5.023040
 20
8.418960
  0
VERTEX
  8
0
  6
CONTINUOUS
 10
4.881800
 20
8.404440
  0
VERTEX
  8
0
  6
CONTINUOUS
 10
4.244680
 20
8.765680
  0
VERTEX
  8
0
  6
CONTINUOUS
 10
4.385480
 20
8.780640
  0
SEQEND
  8
0
  0
SOLID
  8
0
 62
    15
 10
4.244680
 20
8.765680
 11
4.881800
 21
8.404440
 12
4.125440
 22
8.725640
 13
4.762560
 23
8.364400
  0
POLYLINE
  8
0
  6
CONTINUOUS
 66
     1
 40
0.000000
 41
0.000000
  0
VERTEX
  8
0
  6
CONTINUOUS
 10
4.244680
 20
8.765680
  0
VERTEX
  8
0
  6
CONTINUOUS
 10
4.881800
 20
8.404440
  0
VERTEX
  8
0
  6
CONTINUOUS
 10
4.762560
 20
8.364400
  0
VERTEX
  8
0
  6
CONTINUOUS
 10
4.125440
 20
8.725640
  0
VERTEX
  8
0
  6
CONTINUOUS
 10
4.244680
 20
8.765680
  0
SEQEND
  8
0
  0
SOLID
  8
0
 62
    15
 10
4.125440
 20
8.725640
 11
4.762560
 21
8.364400
 12
4.018960
 22
8.655240
 13
4.656080
 23
8.293560
  0
POLYLINE
  8
0
  6
CONTINUOUS
 66
     1
 40
0.000000
 41
0.000000
  0
VERTEX
  8
0
  6
CONTINUOUS
 10
4.125440
 20
8.725640
  0
VERTEX
  8
0
  6
CONTINUOUS
 10
4.762560
 20
8.364400
  0
VERTEX
  8
0
  6
CONTINUOUS
 10
4.656080
 20
8.293560
  0
VERTEX
  8
0
  6
CONTINUOUS
 10
4.018960
 20
8.655240
  0
VERTEX
  8
0
  6
CONTINUOUS
 10
4.125440
 20
8.725640
  0
SEQEND
  8
0
  0
SOLID
  8
0
 62
    15
 10
4.018960
 20
8.655240
 11
4.656080
 21
8.293560
 12
3.916440
 22
8.548760
 13
4.553560
 23
8.187080
  0
POLYLINE
  8
0
  6
CONTINUOUS
 66
     1
 40
0.000000
 41
0.000000
  0
VERTEX
  8
0
  6
CONTINUOUS
 10
4.018960
 20
8.655240
  0
VERTEX
  8
0
  6
CONTINUOUS
 10
4.656080
 20
8.293560
  0
VERTEX
  8
0
  6
CONTINUOUS
 10
4.553560
 20
8.187080
  0
VERTEX
  8
0
  6
CONTINUOUS
 10
3.916440
 20
8.548760
  0
VERTEX
  8
0
  6
CONTINUOUS
 10
4.018960
 20
8.655240
  0
SEQEND
  8
0
  0
SOLID
  8
0
 62
    15
 10
3.916440
 20
8.548760
 11
4.553560
 21
8.187080
 12
3.808640
 22
8.400480
 13
4.446200
 23
8.039240
  0
POLYLINE
  8
0
  6
CONTINUOUS
 66
     1
 40
0.000000
 41
0.000000
  0
VERTEX
  8
0
  6
CONTINUOUS
 10
3.916440
 20
8.548760
  0
VERTEX
  8
0
  6
CONTINUOUS
 10
4.553560
 20
8.187080
  0
VERTEX
  8
0
  6
CONTINUOUS
 10
4.446200
 20
8.039240
  0
VERTEX
  8
0
  6
CONTINUOUS
 10
3.808640
 20
8.400480
  0
VERTEX
  8
0
  6
CONTINUOUS
 10
3.916440
 20
8.548760
  0
SEQEND
  8
0
  0
SOLID
  8
0
 62
    15
 10
3.808640
 20
8.400480
 11
4.446200
 21
8.039240
 12
3.687640
 22
8.205560
 13
4.325200
 23
7.844320
  0
POLYLINE
  8
0
  6
CONTINUOUS
 66
     1
 40
0.000000
 41
0.000000
  0
VERTEX
  8
0
  6
CONTINUOUS
 10
3.808640
 20
8.400480
  0
VERTEX
  8
0
  6
CONTINUOUS
 10
4.446200
 20
8.039240
  0
VERTEX
  8
0
  6
CONTINUOUS
 10
4.325200
 20
7.844320
  0
VERTEX
  8
0
  6
CONTINUOUS
 10
3.687640
 20
8.205560
  0
VERTEX
  8
0
  6
CONTINUOUS
 10
3.808640
 20
8.400480
  0
SEQEND
  8
0
  0
SOLID
  8
0
 62
    15
 10
3.687640
 20
8.205560
 11
4.325200
 21
7.844320
 12
3.544200
 22
7.958720
 13
4.181320
 23
7.597040
  0
POLYLINE
  8
0
  6
CONTINUOUS
 66
     1
 40
0.000000
 41
0.000000
  0
VERTEX
  8
0
  6
CONTINUOUS
 10
3.687640
 20
8.205560
  0
VERTEX
  8
0
  6
CONTINUOUS
 10
4.325200
 20
7.844320
  0
VERTEX
  8
0
  6
CONTINUOUS
 10
4.181320
 20
7.597040
  0
VERTEX
  8
0
  6
CONTINUOUS
 10
3.544200
 20
7.958720
  0
VERTEX
  8
0
  6
CONTINUOUS
 10
3.687640
 20
8.205560
  0
SEQEND
  8
0
  0
SOLID
  8
0
 62
    15
 10
3.544200
 20
7.958720
 11
4.181320
 21
7.597040
 12
3.461040
 22
7.813960
 13
4.098600
 23
7.452280
  0
POLYLINE
  8
0
  6
CONTINUOUS
 66
     1
 40
0.000000
 41
0.000000
  0
VERTEX
  8
0
  6
CONTINUOUS
 10
3.544200
 20
7.958720
  0
VERTEX
  8
0
  6
CONTINUOUS
 10
4.181320
 20
7.597040
  0
VERTEX
  8
0
  6
CONTINUOUS
 10
4.098600
 20
7.452280
  0
VERTEX
  8
0
  6
CONTINUOUS
 10
3.461040
 20
7.813960
  0
VERTEX
  8
0
  6
CONTINUOUS
 10
3.544200
 20
7.958720
  0
SEQEND
  8
0
  0
SOLID
  8
0
 62
    15
 10
3.461040
 20
7.813960
 11
4.098600
 21
7.452280
 12
3.369080
 22
7.653800
 13
4.006640
 23
7.292560
  0
POLYLINE
  8
0
  6
CONTINUOUS
 66
     1
 40
0.000000
 41
0.000000
  0
VERTEX
  8
0
  6
CONTINUOUS
 10
3.461040
 20
7.813960
  0
VERTEX
  8
0
  6
CONTINUOUS
 10
4.098600
 20
7.452280
  0
VERTEX
  8
0
  6
CONTINUOUS
 10
4.006640
 20
7.292560
  0
VERTEX
  8
0
  6
CONTINUOUS
 10
3.369080
 20
7.653800
  0
VERTEX
  8
0
  6
CONTINUOUS
 10
3.461040
 20
7.813960
  0
SEQEND
  8
0
  0
SOLID
  8
0
 62
    15
 10
3.369080
 20
7.653800
 11
4.006640
 21
7.292560
 12
3.268760
 22
7.498480
 13
3.906320
 23
7.137240
  0
POLYLINE
  8
0
  6
CONTINUOUS
 66
     1
 40
0.000000
 41
0.000000
  0
VERTEX
  8
0
  6
CONTINUOUS
 10
3.369080
 20
7.653800
  0
VERTEX
  8
0
  6
CONTINUOUS
 10
4.006640
 20
7.292560
  0
VERTEX
  8
0
  6
CONTINUOUS
 10
3.906320
 20
7.137240
  0
VERTEX
  8
0
  6
CONTINUOUS
 10
3.268760
 20
7.498480
  0
VERTEX
  8
0
  6
CONTINUOUS
 10
3.369080
 20
7.653800
  0
SEQEND
  8
0
  0
SOLID
  8
0
 62
    15
 10
3.268760
 20
7.498480
 11
3.906320
 21
7.137240
 12
3.163160
 22
7.366480
 13
3.800280
 23
7.005240
  0
POLYLINE
  8
0
  6
CONTINUOUS
 66
     1
 40
0.000000
 41
0.000000
  0
VERTEX
  8
0
  6
CONTINUOUS
 10
3.268760
 20
7.498480
  0
VERTEX
  8
0
  6
CONTINUOUS
 10
3.906320
 20
7.137240
  0
VERTEX
  8
0
  6
CONTINUOUS
 10
3.800280
 20
7.005240
  0
VERTEX
  8
0
  6
CONTINUOUS
 10
3.163160
 20
7.366480
  0
VERTEX
  8
0
  6
CONTINUOUS
 10
3.268760
 20
7.498480
  0
SEQEND
  8
0
  0
SOLID
  8
0
 62
    15
 10
3.163160
 20
7.366480
 11
3.800280
 21
7.005240
 12
3.053160
 22
7.256040
 13
3.690280
 23
6.894800
  0
POLYLINE
  8
0
  6
CONTINUOUS
 66
     1
 40
0.000000
 41
0.000000
  0
VERTEX
  8
0
  6
CONTINUOUS
 10
3.163160
 20
7.366480
  0
VERTEX
  8
0
  6
CONTINUOUS
 10
3.800280
 20
7.005240
  0
VERTEX
  8
0
  6
CONTINUOUS
 10
3.690280
 20
6.894800
  0
VERTEX
  8
0
  6
CONTINUOUS
 10
3.053160
 20
7.256040
  0
VERTEX
  8
0
  6
CONTINUOUS
 10
3.163160
 20
7.366480
  0
SEQEND
  8
0
  0
SOLID
  8
0
 62
    15
 10
3.053160
 20
7.256040
 11
3.690280
 21
6.894800
 12
2.940520
 22
7.165400
 13
3.577640
 23
6.803720
  0
POLYLINE
  8
0
  6
CONTINUOUS
 66
     1
 40
0.000000
 41
0.000000
  0
VERTEX
  8
0
  6
CONTINUOUS
 10
3.053160
 20
7.256040
  0
VERTEX
  8
0
  6
CONTINUOUS
 10
3.690280
 20
6.894800
  0
VERTEX
  8
0
  6
CONTINUOUS
 10
3.577640
 20
6.803720
  0
VERTEX
  8
0
  6
CONTINUOUS
 10
2.940520
 20
7.165400
  0
VERTEX
  8
0
  6
CONTINUOUS
 10
3.053160
 20
7.256040
  0
SEQEND
  8
0
  0
SOLID
  8
0
 62
    15
 10
2.940520
 20
7.165400
 11
3.577640
 21
6.803720
 12
2.713920
 22
7.035160
 13
3.351040
 23
6.673920
  0
POLYLINE
  8
0
  6
CONTINUOUS
 66
     1
 40
0.000000
 41
0.000000
  0
VERTEX
  8
0
  6
CONTINUOUS
 10
2.940520
 20
7.165400
  0
VERTEX
  8
0
  6
CONTINUOUS
 10
3.577640
 20
6.803720
  0
VERTEX
  8
0
  6
CONTINUOUS
 10
3.351040
 20
6.673920
  0
VERTEX
  8
0
  6
CONTINUOUS
 10
2.713920
 20
7.035160
  0
VERTEX
  8
0
  6
CONTINUOUS
 10
2.940520
 20
7.165400
  0
SEQEND
  8
0
  0
SOLID
  8
0
 62
    15
 10
2.713920
 20
7.035160
 11
3.351040
 21
6.673920
 12
2.496560
 22
6.962120
 13
3.133680
 23
6.600440
  0
POLYLINE
  8
0
  6
CONTINUOUS
 66
     1
 40
0.000000
 41
0.000000
  0
VERTEX
  8
0
  6
CONTINUOUS
 10
2.713920
 20
7.035160
  0
VERTEX
  8
0
  6
CONTINUOUS
 10
3.351040
 20
6.673920
  0
VERTEX
  8
0
  6
CONTINUOUS
 10
3.133680
 20
6.600440
  0
VERTEX
  8
0
  6
CONTINUOUS
 10
2.496560
 20
6.962120
  0
VERTEX
  8
0
  6
CONTINUOUS
 10
2.713920
 20
7.035160
  0
SEQEND
  8
0
  0
SOLID
  8
0
 62
    15
 10
2.496560
 20
6.962120
 11
3.133680
 21
6.600440
 12
2.300760
 22
6.930440
 13
2.938320
 23
6.569200
  0
POLYLINE
  8
0
  6
CONTINUOUS
 66
     1
 40
0.000000
 41
0.000000
  0
VERTEX
  8
0
  6
CONTINUOUS
 10
2.496560
 20
6.962120
  0
VERTEX
  8
0
  6
CONTINUOUS
 10
3.133680
 20
6.600440
  0
VERTEX
  8
0
  6
CONTINUOUS
 10
2.938320
 20
6.569200
  0
VERTEX
  8
0
  6
CONTINUOUS
 10
2.300760
 20
6.930440
  0
VERTEX
  8
0
  6
CONTINUOUS
 10
2.496560
 20
6.962120
  0
SEQEND
  8
0
  0
SOLID
  8
0
 62
    15
 10
2.300760
 20
6.930440
 11
2.938320
 21
6.569200
 12
2.140160
 22
6.926480
 13
2.777280
 23
6.564800
  0
POLYLINE
  8
0
  6
CONTINUOUS
 66
     1
 40
0.000000
 41
0.000000
  0
VERTEX
  8
0
  6
CONTINUOUS
 10
2.300760
 20
6.930440
  0
VERTEX
  8
0
  6
CONTINUOUS
 10
2.938320
 20
6.569200
  0
VERTEX
  8
0
  6
CONTINUOUS
 10
2.777280
 20
6.564800
  0
VERTEX
  8
0
  6
CONTINUOUS
 10
2.140160
 20
6.926480
  0
VERTEX
  8
0
  6
CONTINUOUS
 10
2.300760
 20
6.930440
  0
SEQEND
  8
0
  0
SOLID
  8
0
 62
    15
 10
2.140160
 20
6.926480
 11
2.777280
 21
6.564800
 12
2.026640
 22
6.934400
 13
2.664200
 23
6.573160
  0
POLYLINE
  8
0
  6
CONTINUOUS
 66
     1
 40
0.000000
 41
0.000000
  0
VERTEX
  8
0
  6
CONTINUOUS
 10
2.140160
 20
6.926480
  0
VERTEX
  8
0
  6
CONTINUOUS
 10
2.777280
 20
6.564800
  0
VERTEX
  8
0
  6
CONTINUOUS
 10
2.664200
 20
6.573160
  0
VERTEX
  8
0
  6
CONTINUOUS
 10
2.026640
 20
6.934400
  0
VERTEX
  8
0
  6
CONTINUOUS
 10
2.140160
 20
6.926480
  0
SEQEND
  8
0
  0
SOLID
  8
0
 62
    15
 10
2.026640
 20
6.934400
 11
2.664200
 21
6.573160
 12
2.007280
 22
6.937040
 13
2.644840
 23
6.575360
  0
POLYLINE
  8
0
  6
CONTINUOUS
 66
     1
 40
0.000000
 41
0.000000
  0
VERTEX
  8
0
  6
CONTINUOUS
 10
2.026640
 20
6.934400
  0
VERTEX
  8
0
  6
CONTINUOUS
 10
2.664200
 20
6.573160
  0
VERTEX
  8
0
  6
CONTINUOUS
 10
2.644840
 20
6.575360
  0
VERTEX
  8
0
  6
CONTINUOUS
 10
2.007280
 20
6.937040
  0
VERTEX
  8
0
  6
CONTINUOUS
 10
2.026640
 20
6.934400
  0
SEQEND
  8
0
  0
SOLID
  8
0
 62
    15
 10
2.007280
 20
6.937040
 11
2.644840
 21
6.575360
 12
1.991880
 22
6.938800
 13
2.629440
 23
6.577120
  0
POLYLINE
  8
0
  6
CONTINUOUS
 66
     1
 40
0.000000
 41
0.000000
  0
VERTEX
  8
0
  6
CONTINUOUS
 10
2.007280
 20
6.937040
  0
VERTEX
  8
0
  6
CONTINUOUS
 10
2.644840
 20
6.575360
  0
VERTEX
  8
0
  6
CONTINUOUS
 10
2.629440
 20
6.577120
  0
VERTEX
  8
0
  6
CONTINUOUS
 10
1.991880
 20
6.938800
  0
VERTEX
  8
0
  6
CONTINUOUS
 10
2.007280
 20
6.937040
  0
SEQEND
  8
0
  0
SOLID
  8
0
 62
    15
 10
1.991880
 20
6.938800
 11
2.629440
 21
6.577120
 12
1.973840
 22
6.940560
 13
2.611400
 23
6.579320
  0
POLYLINE
  8
0
  6
CONTINUOUS
 66
     1
 40
0.000000
 41
0.000000
  0
VERTEX
  8
0
  6
CONTINUOUS
 10
1.991880
 20
6.938800
  0
VERTEX
  8
0
  6
CONTINUOUS
 10
2.629440
 20
6.577120
  0
VERTEX
  8
0
  6
CONTINUOUS
 10
2.611400
 20
6.579320
  0
VERTEX
  8
0
  6
CONTINUOUS
 10
1.973840
 20
6.940560
  0
VERTEX
  8
0
  6
CONTINUOUS
 10
1.991880
 20
6.938800
  0
SEQEND
  8
0
  0
SOLID
  8
0
 62
    15
 10
1.973840
 20
6.940560
 11
2.611400
 21
6.579320
 12
1.973840
 22
6.762360
 13
2.611400
 23
6.400680
  0
POLYLINE
  8
0
  6
CONTINUOUS
 66
     1
 40
0.000000
 41
0.000000
  0
VERTEX
  8
0
  6
CONTINUOUS
 10
1.973840
 20
6.940560
  0
VERTEX
  8
0
  6
CONTINUOUS
 10
2.611400
 20
6.579320
  0
VERTEX
  8
0
  6
CONTINUOUS
 10
2.611400
 20
6.400680
  0
VERTEX
  8
0
  6
CONTINUOUS
 10
1.973840
 20
6.762360
  0
VERTEX
  8
0
  6
CONTINUOUS
 10
1.973840
 20
6.940560
  0
SEQEND
  8
0
  0
SOLID
  8
0
 62
    15
 10
4.385480
 20
9.116360
 11
5.023040
 21
8.754680
 12
4.385480
 22
8.780640
 13
5.023040
 23
8.418960
  0
POLYLINE
  8
0
  6
CONTINUOUS
 66
     1
 40
0.000000
 41
0.000000
  0
VERTEX
  8
0
  6
CONTINUOUS
 10
4.385480
 20
9.116360
  0
VERTEX
  8
0
  6
CONTINUOUS
 10
5.023040
 20
8.754680
  0
VERTEX
  8
0
  6
CONTINUOUS
 10
5.023040
 20
8.418960
  0
VERTEX
  8
0
  6
CONTINUOUS
 10
4.385480
 20
8.780640
  0
VERTEX
  8
0
  6
CONTINUOUS
 10
4.385480
 20
9.116360
  0
SEQEND
  8
0
  0
SOLID
  8
0
 62
    15
 10
2.005520
 20
6.732880
 11
2.642640
 21
6.371640
 12
2.037200
 22
6.703840
 13
2.674320
 23
6.342160
  0
POLYLINE
  8
0
  6
CONTINUOUS
 66
     1
 40
0.000000
 41
0.000000
  0
VERTEX
  8
0
  6
CONTINUOUS
 10
2.005520
 20
6.732880
  0
VERTEX
  8
0
  6
CONTINUOUS
 10
2.642640
 20
6.371640
  0
VERTEX
  8
0
  6
CONTINUOUS
 10
2.674320
 20
6.342160
  0
VERTEX
  8
0
  6
CONTINUOUS
 10
2.037200
 20
6.703840
  0
VERTEX
  8
0
  6
CONTINUOUS
 10
2.005520
 20
6.732880
  0
SEQEND
  8
0
  0
SOLID
  8
0
 62
    15
 10
2.037200
 20
6.703840
 11
2.674320
 21
6.342160
 12
2.095720
 22
6.654560
 13
2.733280
 23
6.292880
  0
POLYLINE
  8
0
  6
CONTINUOUS
 66
     1
 40
0.000000
 41
0.000000
  0
VERTEX
  8
0
  6
CONTINUOUS
 10
2.037200
 20
6.703840
  0
VERTEX
  8
0
  6
CONTINUOUS
 10
2.674320
 20
6.342160
  0
VERTEX
  8
0
  6
CONTINUOUS
 10
2.733280
 20
6.292880
  0
VERTEX
  8
0
  6
CONTINUOUS
 10
2.095720
 20
6.654560
  0
VERTEX
  8
0
  6
CONTINUOUS
 10
2.037200
 20
6.703840
  0
SEQEND
  8
0
  0
SOLID
  8
0
 62
    15
 10
2.095720
 20
6.654560
 11
2.733280
 21
6.292880
 12
2.165240
 22
6.581080
 13
2.802800
 23
6.219400
  0
POLYLINE
  8
0
  6
CONTINUOUS
 66
     1
 40
0.000000
 41
0.000000
  0
VERTEX
  8
0
  6
CONTINUOUS
 10
2.095720
 20
6.654560
  0
VERTEX
  8
0
  6
CONTINUOUS
 10
2.733280
 20
6.292880
  0
VERTEX
  8
0
  6
CONTINUOUS
 10
2.802800
 20
6.219400
  0
VERTEX
  8
0
  6
CONTINUOUS
 10
2.165240
 20
6.581080
  0
VERTEX
  8
0
  6
CONTINUOUS
 10
2.095720
 20
6.654560
  0
SEQEND
  8
0
  0
SOLID
  8
0
 62
    15
 10
2.165240
 20
6.581080
 11
2.802800
 21
6.219400
 12
2.202200
 22
6.494400
 13
2.839320
 23
6.132720
  0
POLYLINE
  8
0
  6
CONTINUOUS
 66
     1
 40
0.000000
 41
0.000000
  0
VERTEX
  8
0
  6
CONTINUOUS
 10
2.165240
 20
6.581080
  0
VERTEX
  8
0
  6
CONTINUOUS
 10
2.802800
 20
6.219400
  0
VERTEX
  8
0
  6
CONTINUOUS
 10
2.839320
 20
6.132720
  0
VERTEX
  8
0
  6
CONTINUOUS
 10
2.202200
 20
6.494400
  0
VERTEX
  8
0
  6
CONTINUOUS
 10
2.165240
 20
6.581080
  0
SEQEND
  8
0
  0
SOLID
  8
0
 62
    15
 10
2.202200
 20
6.494400
 11
2.839320
 21
6.132720
 12
2.207920
 22
6.401560
 13
2.845480
 23
6.039880
  0
POLYLINE
  8
0
  6
CONTINUOUS
 66
     1
 40
0.000000
 41
0.000000
  0
VERTEX
  8
0
  6
CONTINUOUS
 10
2.202200
 20
6.494400
  0
VERTEX
  8
0
  6
CONTINUOUS
 10
2.839320
 20
6.132720
  0
VERTEX
  8
0
  6
CONTINUOUS
 10
2.845480
 20
6.039880
  0
VERTEX
  8
0
  6
CONTINUOUS
 10
2.207920
 20
6.401560
  0
VERTEX
  8
0
  6
CONTINUOUS
 10
2.202200
 20
6.494400
  0
SEQEND
  8
0
  0
SOLID
  8
0
 62
    15
 10
2.207920
 20
6.401560
 11
2.845480
 21
6.039880
 12
2.185480
 22
6.309600
 13
2.822600
 23
5.947920
  0
POLYLINE
  8
0
  6
CONTINUOUS
 66
     1
 40
0.000000
 41
0.000000
  0
VERTEX
  8
0
  6
CONTINUOUS
 10
2.207920
 20
6.401560
  0
VERTEX
  8
0
  6
CONTINUOUS
 10
2.845480
 20
6.039880
  0
VERTEX
  8
0
  6
CONTINUOUS
 10
2.822600
 20
5.947920
  0
VERTEX
  8
0
  6
CONTINUOUS
 10
2.185480
 20
6.309600
  0
VERTEX
  8
0
  6
CONTINUOUS
 10
2.207920
 20
6.401560
  0
SEQEND
  8
0
  0
SOLID
  8
0
 62
    15
 10
2.185480
 20
6.309600
 11
2.822600
 21
5.947920
 12
2.135320
 22
6.225560
 13
2.772880
 23
5.864320
  0
POLYLINE
  8
0
  6
CONTINUOUS
 66
     1
 40
0.000000
 41
0.000000
  0
VERTEX
  8
0
  6
CONTINUOUS
 10
2.185480
 20
6.309600
  0
VERTEX
  8
0
  6
CONTINUOUS
 10
2.822600
 20
5.947920
  0
VERTEX
  8
0
  6
CONTINUOUS
 10
2.772880
 20
5.864320
  0
VERTEX
  8
0
  6
CONTINUOUS
 10
2.135320
 20
6.225560
  0
VERTEX
  8
0
  6
CONTINUOUS
 10
2.185480
 20
6.309600
  0
SEQEND
  8
0
  0
SOLID
  8
0
 62
    15
 10
2.135320
 20
6.225560
 11
2.772880
 21
5.864320
 12
2.060520
 22
6.156920
 13
2.698080
 23
5.795680
  0
POLYLINE
  8
0
  6
CONTINUOUS
 66
     1
 40
0.000000
 41
0.000000
  0
VERTEX
  8
0
  6
CONTINUOUS
 10
2.135320
 20
6.225560
  0
VERTEX
  8
0
  6
CONTINUOUS
 10
2.772880
 20
5.864320
  0
VERTEX
  8
0
  6
CONTINUOUS
 10
2.698080
 20
5.795680
  0
VERTEX
  8
0
  6
CONTINUOUS
 10
2.060520
 20
6.156920
  0
VERTEX
  8
0
  6
CONTINUOUS
 10
2.135320
 20
6.225560
  0
SEQEND
  8
0
  0
SOLID
  8
0
 62
    15
 10
2.060520
 20
6.156920
 11
2.698080
 21
5.795680
 12
1.962400
 22
6.110720
 13
2.599960
 23
5.749040
  0
POLYLINE
  8
0
  6
CONTINUOUS
 66
     1
 40
0.000000
 41
0.000000
  0
VERTEX
  8
0
  6
CONTINUOUS
 10
2.060520
 20
6.156920
  0
VERTEX
  8
0
  6
CONTINUOUS
 10
2.698080
 20
5.795680
  0
VERTEX
  8
0
  6
CONTINUOUS
 10
2.599960
 20
5.749040
  0
VERTEX
  8
0
  6
CONTINUOUS
 10
1.962400
 20
6.110720
  0
VERTEX
  8
0
  6
CONTINUOUS
 10
2.060520
 20
6.156920
  0
SEQEND
  8
0
  0
SOLID
  8
0
 62
    15
 10
1.962400
 20
6.110720
 11
2.599960
 21
5.749040
 12
1.843160
 22
6.093560
 13
2.480280
 23
5.732320
  0
POLYLINE
  8
0
  6
CONTINUOUS
 66
     1
 40
0.000000
 41
0.000000
  0
VERTEX
  8
0
  6
CONTINUOUS
 10
1.962400
 20
6.110720
  0
VERTEX
  8
0
  6
CONTINUOUS
 10
2.599960
 20
5.749040
  0
VERTEX
  8
0
  6
CONTINUOUS
 10
2.480280
 20
5.732320
  0
VERTEX
  8
0
  6
CONTINUOUS
 10
1.843160
 20
6.093560
  0
VERTEX
  8
0
  6
CONTINUOUS
 10
1.962400
 20
6.110720
  0
SEQEND
  8
0
  0
SOLID
  8
0
 62
    15
 10
1.843160
 20
6.093560
 11
2.480280
 21
5.732320
 12
1.843160
 22
5.884560
 13
2.480280
 23
5.523320
  0
POLYLINE
  8
0
  6
CONTINUOUS
 66
     1
 40
0.000000
 41
0.000000
  0
VERTEX
  8
0
  6
CONTINUOUS
 10
1.843160
 20
6.093560
  0
VERTEX
  8
0
  6
CONTINUOUS
 10
2.480280
 20
5.732320
  0
VERTEX
  8
0
  6
CONTINUOUS
 10
2.480280
 20
5.523320
  0
VERTEX
  8
0
  6
CONTINUOUS
 10
1.843160
 20
5.884560
  0
VERTEX
  8
0
  6
CONTINUOUS
 10
1.843160
 20
6.093560
  0
SEQEND
  8
0
  0
SOLID
  8
0
 62
    15
 10
1.843160
 20
5.884560
 11
2.480280
 21
5.523320
 12
1.577840
 22
5.884560
 13
2.215400
 23
5.523320
  0
POLYLINE
  8
0
  6
CONTINUOUS
 66
     1
 40
0.000000
 41
0.000000
  0
VERTEX
  8
0
  6
CONTINUOUS
 10
1.843160
 20
5.884560
  0
VERTEX
  8
0
  6
CONTINUOUS
 10
2.480280
 20
5.523320
  0
VERTEX
  8
0
  6
CONTINUOUS
 10
2.215400
 20
5.523320
  0
VERTEX
  8
0
  6
CONTINUOUS
 10
1.577840
 20
5.884560
  0
VERTEX
  8
0
  6
CONTINUOUS
 10
1.843160
 20
5.884560
  0
SEQEND
  8
0
  0
SOLID
  8
0
 62
    15
 10
1.577840
 20
5.884560
 11
2.215400
 21
5.523320
 12
1.561560
 22
5.749480
 13
2.199120
 23
5.388240
  0
POLYLINE
  8
0
  6
CONTINUOUS
 66
     1
 40
0.000000
 41
0.000000
  0
VERTEX
  8
0
  6
CONTINUOUS
 10
1.577840
 20
5.884560
  0
VERTEX
  8
0
  6
CONTINUOUS
 10
2.215400
 20
5.523320
  0
VERTEX
  8
0
  6
CONTINUOUS
 10
2.199120
 20
5.388240
  0
VERTEX
  8
0
  6
CONTINUOUS
 10
1.561560
 20
5.749480
  0
VERTEX
  8
0
  6
CONTINUOUS
 10
1.577840
 20
5.884560
  0
SEQEND
  8
0
  0
SOLID
  8
0
 62
    15
 10
1.561560
 20
5.749480
 11
2.199120
 21
5.388240
 12
1.515800
 22
5.632440
 13
2.152920
 23
5.271200
  0
POLYLINE
  8
0
  6
CONTINUOUS
 66
     1
 40
0.000000
 41
0.000000
  0
VERTEX
  8
0
  6
CONTINUOUS
 10
1.561560
 20
5.749480
  0
VERTEX
  8
0
  6
CONTINUOUS
 10
2.199120
 20
5.388240
  0
VERTEX
  8
0
  6
CONTINUOUS
 10
2.152920
 20
5.271200
  0
VERTEX
  8
0
  6
CONTINUOUS
 10
1.515800
 20
5.632440
  0
VERTEX
  8
0
  6
CONTINUOUS
 10
1.561560
 20
5.749480
  0
SEQEND
  8
0
  0
SOLID
  8
0
 62
    15
 10
1.515800
 20
5.632440
 11
2.152920
 21
5.271200
 12
1.443200
 22
5.540920
 13
2.080760
 23
5.179240
  0
POLYLINE
  8
0
  6
CONTINUOUS
 66
     1
 40
0.000000
 41
0.000000
  0
VERTEX
  8
0
  6
CONTINUOUS
 10
1.515800
 20
5.632440
  0
VERTEX
  8
0
  6
CONTINUOUS
 10
2.152920
 20
5.271200
  0
VERTEX
  8
0
  6
CONTINUOUS
 10
2.080760
 20
5.179240
  0
VERTEX
  8
0
  6
CONTINUOUS
 10
1.443200
 20
5.540920
  0
VERTEX
  8
0
  6
CONTINUOUS
 10
1.515800
 20
5.632440
  0
SEQEND
  8
0
  0
SOLID
  8
0
 62
    15
 10
1.443200
 20
5.540920
 11
2.080760
 21
5.179240
 12
1.348600
 22
5.481960
 13
1.986160
 23
5.120280
  0
POLYLINE
  8
0
  6
CONTINUOUS
 66
     1
 40
0.000000
 41
0.000000
  0
VERTEX
  8
0
  6
CONTINUOUS
 10
1.443200
 20
5.540920
  0
VERTEX
  8
0
  6
CONTINUOUS
 10
2.080760
 20
5.179240
  0
VERTEX
  8
0
  6
CONTINUOUS
 10
1.986160
 20
5.120280
  0
VERTEX
  8
0
  6
CONTINUOUS
 10
1.348600
 20
5.481960
  0
VERTEX
  8
0
  6
CONTINUOUS
 10
1.443200
 20
5.540920
  0
SEQEND
  8
0
  0
SOLID
  8
0
 62
    15
 10
1.348600
 20
5.481960
 11
1.986160
 21
5.120280
 12
1.303280
 22
5.452920
 13
1.940400
 23
5.091240
  0
POLYLINE
  8
0
  6
CONTINUOUS
 66
     1
 40
0.000000
 41
0.000000
  0
VERTEX
  8
0
  6
CONTINUOUS
 10
1.348600
 20
5.481960
  0
VERTEX
  8
0
  6
CONTINUOUS
 10
1.986160
 20
5.120280
  0
VERTEX
  8
0
  6
CONTINUOUS
 10
1.940400
 20
5.091240
  0
VERTEX
  8
0
  6
CONTINUOUS
 10
1.303280
 20
5.452920
  0
VERTEX
  8
0
  6
CONTINUOUS
 10
1.348600
 20
5.481960
  0
SEQEND
  8
0
  0
SOLID
  8
0
 62
    15
 10
1.303280
 20
5.452920
 11
1.940400
 21
5.091240
 12
1.270280
 22
5.409360
 13
1.907840
 23
5.047680
  0
POLYLINE
  8
0
  6
CONTINUOUS
 66
     1
 40
0.000000
 41
0.000000
  0
VERTEX
  8
0
  6
CONTINUOUS
 10
1.303280
 20
5.452920
  0
VERTEX
  8
0
  6
CONTINUOUS
 10
1.940400
 20
5.091240
  0
VERTEX
  8
0
  6
CONTINUOUS
 10
1.907840
 20
5.047680
  0
VERTEX
  8
0
  6
CONTINUOUS
 10
1.270280
 20
5.409360
  0
VERTEX
  8
0
  6
CONTINUOUS
 10
1.303280
 20
5.452920
  0
SEQEND
  8
0
  0
SOLID
  8
0
 62
    15
 10
1.270280
 20
5.409360
 11
1.907840
 21
5.047680
 12
1.235080
 22
5.301120
 13
1.872200
 23
4.939880
  0
POLYLINE
  8
0
  6
CONTINUOUS
 66
     1
 40
0.000000
 41
0.000000
  0
VERTEX
  8
0
  6
CONTINUOUS
 10
1.270280
 20
5.409360
  0
VERTEX
  8
0
  6
CONTINUOUS
 10
1.907840
 20
5.047680
  0
VERTEX
  8
0
  6
CONTINUOUS
 10
1.872200
 20
4.939880
  0
VERTEX
  8
0
  6
CONTINUOUS
 10
1.235080
 20
5.301120
  0
VERTEX
  8
0
  6
CONTINUOUS
 10
1.270280
 20
5.409360
  0
SEQEND
  8
0
  0
SOLID
  8
0
 62
    15
 10
1.235080
 20
5.301120
 11
1.872200
 21
4.939880
 12
1.225840
 22
5.203440
 13
1.862960
 23
4.841760
  0
POLYLINE
  8
0
  6
CONTINUOUS
 66
     1
 40
0.000000
 41
0.000000
  0
VERTEX
  8
0
  6
CONTINUOUS
 10
1.235080
 20
5.301120
  0
VERTEX
  8
0
  6
CONTINUOUS
 10
1.872200
 20
4.939880
  0
VERTEX
  8
0
  6
CONTINUOUS
 10
1.862960
 20
4.841760
  0
VERTEX
  8
0
  6
CONTINUOUS
 10
1.225840
 20
5.203440
  0
VERTEX
  8
0
  6
CONTINUOUS
 10
1.235080
 20
5.301120
  0
SEQEND
  8
0
  0
SOLID
  8
0
 62
    15
 10
1.225840
 20
5.203440
 11
1.862960
 21
4.841760
 12
1.225840
 22
5.172200
 13
1.862960
 23
4.810960
  0
POLYLINE
  8
0
  6
CONTINUOUS
 66
     1
 40
0.000000
 41
0.000000
  0
VERTEX
  8
0
  6
CONTINUOUS
 10
1.225840
 20
5.203440
  0
VERTEX
  8
0
  6
CONTINUOUS
 10
1.862960
 20
4.841760
  0
VERTEX
  8
0
  6
CONTINUOUS
 10
1.862960
 20
4.810960
  0
VERTEX
  8
0
  6
CONTINUOUS
 10
1.225840
 20
5.172200
  0
VERTEX
  8
0
  6
CONTINUOUS
 10
1.225840
 20
5.203440
  0
SEQEND
  8
0
  0
SOLID
  8
0
 62
    15
 10
1.225840
 20
5.172200
 11
1.862960
 21
4.810960
 12
1.226280
 22
5.160760
 13
1.863840
 23
4.799080
  0
POLYLINE
  8
0
  6
CONTINUOUS
 66
     1
 40
0.000000
 41
0.000000
  0
VERTEX
  8
0
  6
CONTINUOUS
 10
1.225840
 20
5.172200
  0
VERTEX
  8
0
  6
CONTINUOUS
 10
1.862960
 20
4.810960
  0
VERTEX
  8
0
  6
CONTINUOUS
 10
1.863840
 20
4.799080
  0
VERTEX
  8
0
  6
CONTINUOUS
 10
1.226280
 20
5.160760
  0
VERTEX
  8
0
  6
CONTINUOUS
 10
1.225840
 20
5.172200
  0
SEQEND
  8
0
  0
SOLID
  8
0
 62
    15
 10
1.226280
 20
5.160760
 11
1.863840
 21
4.799080
 12
1.042800
 22
5.160760
 13
1.679920
 23
4.799080
  0
POLYLINE
  8
0
  6
CONTINUOUS
 66
     1
 40
0.000000
 41
0.000000
  0
VERTEX
  8
0
  6
CONTINUOUS
 10
1.226280
 20
5.160760
  0
VERTEX
  8
0
  6
CONTINUOUS
 10
1.863840
 20
4.799080
  0
VERTEX
  8
0
  6
CONTINUOUS
 10
1.679920
 20
4.799080
  0
VERTEX
  8
0
  6
CONTINUOUS
 10
1.042800
 20
5.160760
  0
VERTEX
  8
0
  6
CONTINUOUS
 10
1.226280
 20
5.160760
  0
SEQEND
  8
0
  0
POLYLINE
  8
0
  6
CONTINUOUS
 66
     1
 40
0.000000
 41
0.000000
  0
VERTEX
  8
0
  6
CONTINUOUS
 10
3.507680
 20
9.114160
  0
VERTEX
  8
0
  6
CONTINUOUS
 10
4.385480
 20
9.116360
  0
VERTEX
  8
0
  6
CONTINUOUS
 10
4.385480
 20
8.780640
  0
VERTEX
  8
0
  6
CONTINUOUS
 10
4.244680
 20
8.765680
  0
VERTEX
  8
0
  6
CONTINUOUS
 10
4.125440
 20
8.725640
  0
VERTEX
  8
0
  6
CONTINUOUS
 10
4.018960
 20
8.655240
  0
VERTEX
  8
0
  6
CONTINUOUS
 10
3.916440
 20
8.548760
  0
VERTEX
  8
0
  6
CONTINUOUS
 10
3.808640
 20
8.400480
  0
VERTEX
  8
0
  6
CONTINUOUS
 10
3.687640
 20
8.205560
  0
VERTEX
  8
0
  6
CONTINUOUS
 10
3.369080
 20
7.653800
  0
VERTEX
  8
0
  6
CONTINUOUS
 10
3.268760
 20
7.498480
  0
VERTEX
  8
0
  6
CONTINUOUS
 10
3.163160
 20
7.366480
  0
VERTEX
  8
0
  6
CONTINUOUS
 10
3.053160
 20
7.256040
  0
VERTEX
  8
0
  6
CONTINUOUS
 10
2.940520
 20
7.165400
  0
VERTEX
  8
0
  6
CONTINUOUS
 10
2.713920
 20
7.035160
  0
VERTEX
  8
0
  6
CONTINUOUS
 10
2.496560
 20
6.962120
  0
VERTEX
  8
0
  6
CONTINUOUS
 10
2.300760
 20
6.930440
  0
VERTEX
  8
0
  6
CONTINUOUS
 10
2.140160
 20
6.926480
  0
VERTEX
  8
0
  6
CONTINUOUS
 10
2.026640
 20
6.934400
  0
VERTEX
  8
0
  6
CONTINUOUS
 10
1.973840
 20
6.940560
  0
VERTEX
  8
0
  6
CONTINUOUS
 10
1.973840
 20
6.762360
  0
VERTEX
  8
0
  6
CONTINUOUS
 10
2.037200
 20
6.703840
  0
VERTEX
  8
0
  6
CONTINUOUS
 10
2.095720
 20
6.654560
  0
VERTEX
  8
0
  6
CONTINUOUS
 10
2.165240
 20
6.581080
  0
VERTEX
  8
0
  6
CONTINUOUS
 10
2.202200
 20
6.494400
  0
VERTEX
  8
0
  6
CONTINUOUS
 10
2.207920
 20
6.401560
  0
VERTEX
  8
0
  6
CONTINUOUS
 10
2.185480
 20
6.309600
  0
VERTEX
  8
0
  6
CONTINUOUS
 10
2.135320
 20
6.225560
  0
VERTEX
  8
0
  6
CONTINUOUS
 10
2.060520
 20
6.156920
  0
VERTEX
  8
0
  6
CONTINUOUS
 10
1.962400
 20
6.110720
  0
VERTEX
  8
0
  6
CONTINUOUS
 10
1.843160
 20
6.093560
  0
VERTEX
  8
0
  6
CONTINUOUS
 10
1.843160
 20
5.884560
  0
VERTEX
  8
0
  6
CONTINUOUS
 10
1.577840
 20
5.884560
  0
VERTEX
  8
0
  6
CONTINUOUS
 10
1.561560
 20
5.749480
  0
VERTEX
  8
0
  6
CONTINUOUS
 10
1.515800
 20
5.632440
  0
VERTEX
  8
0
  6
CONTINUOUS
 10
1.443200
 20
5.540920
  0
VERTEX
  8
0
  6
CONTINUOUS
 10
1.303280
 20
5.452920
  0
VERTEX
  8
0
  6
CONTINUOUS
 10
1.270280
 20
5.409360
  0
VERTEX
  8
0
  6
CONTINUOUS
 10
1.235080
 20
5.301120
  0
VERTEX
  8
0
  6
CONTINUOUS
 10
1.225840
 20
5.203440
  0
VERTEX
  8
0
  6
CONTINUOUS
 10
1.226280
 20
5.160760
  0
VERTEX
  8
0
  6
CONTINUOUS
 10
1.042800
 20
5.160760
  0
VERTEX
  8
0
  6
CONTINUOUS
 10
1.042800
 20
6.282320
  0
VERTEX
  8
0
  6
CONTINUOUS
 10
3.492280
 20
9.100080
  0
VERTEX
  8
0
  6
CONTINUOUS
 10
3.507680
 20
9.114160
  0
SEQEND
  8
0
  0
TEXT
  8
0
 10
2.367200
 20
4.981680
 40
0.137966
  1
BA  1108
 41
1.000000
  7
SN0
 71
     0
 72
     5
 11
3.047865
 21
4.981680
  0
TEXT
  8
0
 10
2.367200
 20
4.789840
 40
0.137966
  1
15/16" x 5-3/16"
 41
1.000000
  7
SN0
 71
     0
 72
     5
 11
3.541039
 21
4.789840
  0
POLYLINE
  8
0
  6
CONTINUOUS
 66
     1
 40
0.000000
 41
0.000000
  0
VERTEX
  8
0
  6
CONTINUOUS
 10
2.344760
 20
1.807080
  0
VERTEX
  8
0
  6
CONTINUOUS
 10
6.078600
 20
1.807080
  0
VERTEX
  8
0
  6
CONTINUOUS
 10
6.925160
 20
2.542760
  0
VERTEX
  8
0
  6
CONTINUOUS
 10
6.804600
 20
2.681360
  0
VERTEX
  8
0
  6
CONTINUOUS
 10
6.769840
 20
2.640000
  0
VERTEX
  8
0
  6
CONTINUOUS
 10
6.745200
 20
2.614920
  0
VERTEX
  8
0
  6
CONTINUOUS
 10
6.704280
 20
2.581040
  0
VERTEX
  8
0
  6
CONTINUOUS
 10
6.668200
 20
2.559040
  0
VERTEX
  8
0
  6
CONTINUOUS
 10
6.642240
 20
2.546720
  0
VERTEX
  8
0
  6
CONTINUOUS
 10
6.614960
 20
2.538360
  0
VERTEX
  8
0
  6
CONTINUOUS
 10
6.600880
 20
2.535280
  0
VERTEX
  8
0
  6
CONTINUOUS
 10
6.571840
 20
2.533520
  0
VERTEX
  8
0
  6
CONTINUOUS
 10
6.542360
 20
2.536600
  0
VERTEX
  8
0
  6
CONTINUOUS
 10
6.527400
 20
2.540560
  0
VERTEX
  8
0
  6
CONTINUOUS
 10
6.497040
 20
2.553760
  0
VERTEX
  8
0
  6
CONTINUOUS
 10
6.451720
 20
2.581040
  0
VERTEX
  8
0
  6
CONTINUOUS
 10
6.421800
 20
2.595560
  0
VERTEX
  8
0
  6
CONTINUOUS
 10
6.391880
 20
2.605680
  0
VERTEX
  8
0
  6
CONTINUOUS
 10
6.347880
 20
2.614040
  0
VERTEX
  8
0
  6
CONTINUOUS
 10
6.318840
 20
2.615360
  0
VERTEX
  8
0
  6
CONTINUOUS
 10
6.289800
 20
2.613160
  0
VERTEX
  8
0
  6
CONTINUOUS
 10
6.261640
 20
2.608320
  0
VERTEX
  8
0
  6
CONTINUOUS
 10
6.218960
 20
2.595560
  0
VERTEX
  8
0
  6
CONTINUOUS
 10
6.190800
 20
2.583680
  0
VERTEX
  8
0
  6
CONTINUOUS
 10
6.135800
 20
2.553760
  0
VERTEX
  8
0
  6
CONTINUOUS
 10
6.081240
 20
2.515920
  0
VERTEX
  8
0
  6
CONTINUOUS
 10
6.027560
 20
2.471920
  0
VERTEX
  8
0
  6
CONTINUOUS
 10
5.853760
 20
2.671680
  0
VERTEX
  8
0
  6
CONTINUOUS
 10
5.695800
 20
2.534840
  0
VERTEX
  8
0
  6
CONTINUOUS
 10
5.662800
 20
2.568720
  0
VERTEX
  8
0
  6
CONTINUOUS
 10
5.628480
 20
2.597320
  0
VERTEX
  8
0
  6
CONTINUOUS
 10
5.604720
 20
2.613600
  0
VERTEX
  8
0
  6
CONTINUOUS
 10
5.555440
 20
2.640000
  0
VERTEX
  8
0
  6
CONTINUOUS
 10
5.530360
 20
2.649680
  0
VERTEX
  8
0
  6
CONTINUOUS
 10
5.479760
 20
2.663320
  0
VERTEX
  8
0
  6
CONTINUOUS
 10
5.454680
 20
2.666840
  0
VERTEX
  8
0
  6
CONTINUOUS
 10
5.404080
 20
2.669040
  0
VERTEX
  8
0
  6
CONTINUOUS
 10
5.379440
 20
2.667280
  0
VERTEX
  8
0
  6
CONTINUOUS
 10
5.355240
 20
2.663760
  0
VERTEX
  8
0
  6
CONTINUOUS
 10
5.331480
 20
2.658480
  0
VERTEX
  8
0
  6
CONTINUOUS
 10
5.285720
 20
2.643080
  0
VERTEX
  8
0
  6
CONTINUOUS
 10
5.243480
 20
2.621520
  0
VERTEX
  8
0
  6
CONTINUOUS
 10
5.205640
 20
2.593800
  0
VERTEX
  8
0
  6
CONTINUOUS
 10
5.188480
 20
2.578400
  0
VERTEX
  8
0
  6
CONTINUOUS
 10
5.172200
 20
2.561240
  0
VERTEX
  8
0
  6
CONTINUOUS
 10
5.144920
 20
2.523400
  0
VERTEX
  8
0
  6
CONTINUOUS
 10
5.124240
 20
2.481160
  0
VERTEX
  8
0
  6
CONTINUOUS
 10
5.116760
 20
2.458280
  0
VERTEX
  8
0
  6
CONTINUOUS
 10
5.111040
 20
2.434520
  0
VERTEX
  8
0
  6
CONTINUOUS
 10
5.107080
 20
2.409440
  0
VERTEX
  8
0
  6
CONTINUOUS
 10
5.105760
 20
2.370720
  0
VERTEX
  8
0
  6
CONTINUOUS
 10
5.108400
 20
2.321440
  0
VERTEX
  8
0
  6
CONTINUOUS
 10
5.107080
 20
2.237400
  0
VERTEX
  8
0
  6
CONTINUOUS
 10
5.105320
 20
2.194720
  0
VERTEX
  8
0
  6
CONTINUOUS
 10
4.970680
 20
2.077680
  0
VERTEX
  8
0
  6
CONTINUOUS
 10
4.911280
 20
2.162160
  0
VERTEX
  8
0
  6
CONTINUOUS
 10
4.861120
 20
2.225960
  0
VERTEX
  8
0
  6
CONTINUOUS
 10
4.795120
 20
2.299880
  0
VERTEX
  8
0
  6
CONTINUOUS
 10
4.730000
 20
2.362800
  0
VERTEX
  8
0
  6
CONTINUOUS
 10
4.653880
 20
2.426600
  0
VERTEX
  8
0
  6
CONTINUOUS
 10
4.589640
 20
2.473240
  0
VERTEX
  8
0
  6
CONTINUOUS
 10
4.518800
 20
2.518560
  0
VERTEX
  8
0
  6
CONTINUOUS
 10
4.440920
 20
2.560800
  0
VERTEX
  8
0
  6
CONTINUOUS
 10
4.356880
 20
2.599080
  0
VERTEX
  8
0
  6
CONTINUOUS
 10
4.296600
 20
2.621960
  0
VERTEX
  8
0
  6
CONTINUOUS
 10
4.233240
 20
2.642200
  0
VERTEX
  8
0
  6
CONTINUOUS
 10
4.167240
 20
2.659800
  0
VERTEX
  8
0
  6
CONTINUOUS
 10
4.097280
 20
2.673880
  0
VERTEX
  8
0
  6
CONTINUOUS
 10
4.024680
 20
2.684880
  0
VERTEX
  8
0
  6
CONTINUOUS
 10
3.948560
 20
2.692360
  0
VERTEX
  8
0
  6
CONTINUOUS
 10
3.868920
 20
2.695880
  0
VERTEX
  8
0
  6
CONTINUOUS
 10
3.786200
 20
2.694560
  0
VERTEX
  8
0
  6
CONTINUOUS
 10
3.699960
 20
2.689280
  0
VERTEX
  8
0
  6
CONTINUOUS
 10
3.610200
 20
2.678720
  0
VERTEX
  8
0
  6
CONTINUOUS
 10
3.516920
 20
2.662880
  0
VERTEX
  8
0
  6
CONTINUOUS
 10
3.107280
 20
2.580160
  0
VERTEX
  8
0
  6
CONTINUOUS
 10
2.833160
 20
2.525160
  0
VERTEX
  8
0
  6
CONTINUOUS
 10
2.710840
 20
2.504920
  0
VERTEX
  8
0
  6
CONTINUOUS
 10
2.625040
 20
2.493920
  0
VERTEX
  8
0
  6
CONTINUOUS
 10
2.585440
 20
2.490400
  0
VERTEX
  8
0
  6
CONTINUOUS
 10
2.511960
 20
2.488200
  0
VERTEX
  8
0
  6
CONTINUOUS
 10
2.477640
 20
2.489080
  0
VERTEX
  8
0
  6
CONTINUOUS
 10
2.444200
 20
2.491720
  0
VERTEX
  8
0
  6
CONTINUOUS
 10
2.379520
 20
2.501840
  0
VERTEX
  8
0
  6
CONTINUOUS
 10
2.316600
 20
2.519000
  0
VERTEX
  8
0
  6
CONTINUOUS
 10
2.285360
 20
2.530000
  0
VERTEX
  8
0
  6
CONTINUOUS
 10
2.221120
 20
2.558160
  0
VERTEX
  8
0
  6
CONTINUOUS
 10
2.135760
 20
2.603920
  0
VERTEX
  8
0
  6
CONTINUOUS
 10
2.020920
 20
2.676520
  0
VERTEX
  8
0
  6
CONTINUOUS
 10
2.000240
 20
2.690600
  0
VERTEX
  8
0
  6
CONTINUOUS
 10
1.746360
 20
2.470600
  0
VERTEX
  8
0
  6
CONTINUOUS
 10
2.324520
 20
1.809280
  0
VERTEX
  8
0
  6
CONTINUOUS
 10
2.344760
 20
1.807080
  0
SEQEND
  8
0
  0
POLYLINE
  8
0
  6
CONTINUOUS
 66
     1
 40
0.000000
 41
0.000000
  0
VERTEX
  8
0
  6
CONTINUOUS
 10
6.485160
 20
0.613800
  0
VERTEX
  8
0
  6
CONTINUOUS
 10
2.751320
 20
0.613800
  0
VERTEX
  8
0
  6
CONTINUOUS
 10
1.904760
 20
1.349480
  0
VERTEX
  8
0
  6
CONTINUOUS
 10
2.025320
 20
1.488080
  0
VERTEX
  8
0
  6
CONTINUOUS
 10
2.060080
 20
1.446720
  0
VERTEX
  8
0
  6
CONTINUOUS
 10
2.084720
 20
1.421640
  0
VERTEX
  8
0
  6
CONTINUOUS
 10
2.104080
 20
1.404480
  0
VERTEX
  8
0
  6
CONTINUOUS
 10
2.149400
 20
1.372360
  0
VERTEX
  8
0
  6
CONTINUOUS
 10
2.187680
 20
1.353440
  0
VERTEX
  8
0
  6
CONTINUOUS
 10
2.214960
 20
1.345080
  0
VERTEX
  8
0
  6
CONTINUOUS
 10
2.229040
 20
1.342000
  0
VERTEX
  8
0
  6
CONTINUOUS
 10
2.258080
 20
1.340240
  0
VERTEX
  8
0
  6
CONTINUOUS
 10
2.287560
 20
1.343320
  0
VERTEX
  8
0
  6
CONTINUOUS
 10
2.302520
 20
1.347280
  0
VERTEX
  8
0
  6
CONTINUOUS
 10
2.332880
 20
1.360480
  0
VERTEX
  8
0
  6
CONTINUOUS
 10
2.378200
 20
1.388200
  0
VERTEX
  8
0
  6
CONTINUOUS
 10
2.423080
 20
1.408000
  0
VERTEX
  8
0
  6
CONTINUOUS
 10
2.467520
 20
1.419000
  0
VERTEX
  8
0
  6
CONTINUOUS
 10
2.496560
 20
1.421640
  0
VERTEX
  8
0
  6
CONTINUOUS
 10
2.525600
 20
1.421640
  0
VERTEX
  8
0
  6
CONTINUOUS
 10
2.554200
 20
1.418120
  0
VERTEX
  8
0
  6
CONTINUOUS
 10
2.596440
 20
1.407120
  0
VERTEX
  8
0
  6
CONTINUOUS
 10
2.638680
 20
1.390400
  0
VERTEX
  8
0
  6
CONTINUOUS
 10
2.694120
 20
1.360480
  0
VERTEX
  8
0
  6
CONTINUOUS
 10
2.748680
 20
1.322640
  0
VERTEX
  8
0
  6
CONTINUOUS
 10
2.802360
 20
1.278640
  0
VERTEX
  8
0
  6
CONTINUOUS
 10
2.976160
 20
1.478840
  0
VERTEX
  8
0
  6
CONTINUOUS
 10
3.134120
 20
1.341560
  0
VERTEX
  8
0
  6
CONTINUOUS
 10
3.167120
 20
1.375440
  0
VERTEX
  8
0
  6
CONTINUOUS
 10
3.201440
 20
1.404040
  0
VERTEX
  8
0
  6
CONTINUOUS
 10
3.225200
 20
1.420320
  0
VERTEX
  8
0
  6
CONTINUOUS
 10
3.274480
 20
1.446720
  0
VERTEX
  8
0
  6
CONTINUOUS
 10
3.299560
 20
1.456400
  0
VERTEX
  8
0
  6
CONTINUOUS
 10
3.350160
 20
1.470040
  0
VERTEX
  8
0
  6
CONTINUOUS
 10
3.400760
 20
1.475760
  0
VERTEX
  8
0
  6
CONTINUOUS
 10
3.425840
 20
1.475760
  0
VERTEX
  8
0
  6
CONTINUOUS
 10
3.450480
 20
1.474000
  0
VERTEX
  8
0
  6
CONTINUOUS
 10
3.474680
 20
1.470480
  0
VERTEX
  8
0
  6
CONTINUOUS
 10
3.498440
 20
1.465200
  0
VERTEX
  8
0
  6
CONTINUOUS
 10
3.544200
 20
1.449800
  0
VERTEX
  8
0
  6
CONTINUOUS
 10
3.586440
 20
1.428240
  0
VERTEX
  8
0
  6
CONTINUOUS
 10
3.624280
 20
1.400960
  0
VERTEX
  8
0
  6
CONTINUOUS
 10
3.657720
 20
1.367960
  0
VERTEX
  8
0
  6
CONTINUOUS
 10
3.685000
 20
1.330120
  0
VERTEX
  8
0
  6
CONTINUOUS
 10
3.696000
 20
1.309880
  0
VERTEX
  8
0
  6
CONTINUOUS
 10
3.705680
 20
1.287880
  0
VERTEX
  8
0
  6
CONTINUOUS
 10
3.713160
 20
1.265000
  0
VERTEX
  8
0
  6
CONTINUOUS
 10
3.718880
 20
1.241240
  0
VERTEX
  8
0
  6
CONTINUOUS
 10
3.722840
 20
1.216600
  0
VERTEX
  8
0
  6
CONTINUOUS
 10
3.724160
 20
1.177880
  0
VERTEX
  8
0
  6
CONTINUOUS
 10
3.721520
 20
1.128600
  0
VERTEX
  8
0
  6
CONTINUOUS
 10
3.724600
 20
1.001880
  0
VERTEX
  8
0
  6
CONTINUOUS
 10
3.859240
 20
0.884840
  0
VERTEX
  8
0
  6
CONTINUOUS
 10
3.918640
 20
0.969320
  0
VERTEX
  8
0
  6
CONTINUOUS
 10
3.968800
 20
1.033120
  0
VERTEX
  8
0
  6
CONTINUOUS
 10
4.034800
 20
1.107040
  0
VERTEX
  8
0
  6
CONTINUOUS
 10
4.099920
 20
1.169960
  0
VERTEX
  8
0
  6
CONTINUOUS
 10
4.176040
 20
1.233760
  0
VERTEX
  8
0
  6
CONTINUOUS
 10
4.240280
 20
1.280400
  0
VERTEX
  8
0
  6
CONTINUOUS
 10
4.311120
 20
1.325720
  0
VERTEX
  8
0
  6
CONTINUOUS
 10
4.389000
 20
1.367520
  0
VERTEX
  8
0
  6
CONTINUOUS
 10
4.444440
 20
1.393920
  0
VERTEX
  8
0
  6
CONTINUOUS
 10
4.533320
 20
1.428680
  0
VERTEX
  8
0
  6
CONTINUOUS
 10
4.596680
 20
1.448920
  0
VERTEX
  8
0
  6
CONTINUOUS
 10
4.662680
 20
1.466520
  0
VERTEX
  8
0
  6
CONTINUOUS
 10
4.732640
 20
1.481040
  0
VERTEX
  8
0
  6
CONTINUOUS
 10
4.805240
 20
1.492040
  0
VERTEX
  8
0
  6
CONTINUOUS
 10
4.881360
 20
1.499080
  0
VERTEX
  8
0
  6
CONTINUOUS
 10
4.961000
 20
1.502600
  0
VERTEX
  8
0
  6
CONTINUOUS
 10
5.043720
 20
1.501720
  0
VERTEX
  8
0
  6
CONTINUOUS
 10
5.129960
 20
1.496000
  0
VERTEX
  8
0
  6
CONTINUOUS
 10
5.219720
 20
1.485440
  0
VERTEX
  8
0
  6
CONTINUOUS
 10
5.313000
 20
1.469600
  0
VERTEX
  8
0
  6
CONTINUOUS
 10
5.969920
 20
1.337160
  0
VERTEX
  8
0
  6
CONTINUOUS
 10
6.118640
 20
1.311640
  0
VERTEX
  8
0
  6
CONTINUOUS
 10
6.204440
 20
1.301080
  0
VERTEX
  8
0
  6
CONTINUOUS
 10
6.281880
 20
1.295360
  0
VERTEX
  8
0
  6
CONTINUOUS
 10
6.317520
 20
1.294920
  0
VERTEX
  8
0
  6
CONTINUOUS
 10
6.385720
 20
1.298880
  0
VERTEX
  8
0
  6
CONTINUOUS
 10
6.418280
 20
1.302840
  0
VERTEX
  8
0
  6
CONTINUOUS
 10
6.481640
 20
1.316480
  0
VERTEX
  8
0
  6
CONTINUOUS
 10
6.512880
 20
1.325720
  0
VERTEX
  8
0
  6
CONTINUOUS
 10
6.576240
 20
1.349920
  0
VERTEX
  8
0
  6
CONTINUOUS
 10
6.608800
 20
1.364880
  0
VERTEX
  8
0
  6
CONTINUOUS
 10
6.694160
 20
1.411080
  0
VERTEX
  8
0
  6
CONTINUOUS
 10
6.809000
 20
1.483680
  0
VERTEX
  8
0
  6
CONTINUOUS
 10
6.829680
 20
1.497760
  0
VERTEX
  8
0
  6
CONTINUOUS
 10
7.083120
 20
1.277320
  0
VERTEX
  8
0
  6
CONTINUOUS
 10
6.505400
 20
0.616440
  0
VERTEX
  8
0
  6
CONTINUOUS
 10
6.485160
 20
0.613800
  0
SEQEND
  8
0
  0
POLYLINE
  8
0
  6
CONTINUOUS
 66
     1
 40
0.014080
 41
0.014080
  0
VERTEX
  8
0
  6
CONTINUOUS
 10
3.072520
 20
3.786200
  0
VERTEX
  8
0
  6
CONTINUOUS
 10
6.806360
 20
3.786200
  0
VERTEX
  8
0
  6
CONTINUOUS
 10
7.652480
 20
4.521880
  0
VERTEX
  8
0
  6
CONTINUOUS
 10
7.532360
 20
4.660480
  0
VERTEX
  8
0
  6
CONTINUOUS
 10
7.497600
 20
4.619120
  0
VERTEX
  8
0
  6
CONTINUOUS
 10
7.472960
 20
4.594040
  0
VERTEX
  8
0
  6
CONTINUOUS
 10
7.453600
 20
4.576880
  0
VERTEX
  8
0
  6
CONTINUOUS
 10
7.431600
 20
4.560160
  0
VERTEX
  8
0
  6
CONTINUOUS
 10
7.395960
 20
4.538160
  0
VERTEX
  8
0
  6
CONTINUOUS
 10
7.356360
 20
4.521000
  0
VERTEX
  8
0
  6
CONTINUOUS
 10
7.328200
 20
4.514400
  0
VERTEX
  8
0
  6
CONTINUOUS
 10
7.299600
 20
4.512640
  0
VERTEX
  8
0
  6
CONTINUOUS
 10
7.269680
 20
4.515720
  0
VERTEX
  8
0
  6
CONTINUOUS
 10
7.254720
 20
4.519680
  0
VERTEX
  8
0
  6
CONTINUOUS
 10
7.224800
 20
4.532880
  0
VERTEX
  8
0
  6
CONTINUOUS
 10
7.179040
 20
4.560160
  0
VERTEX
  8
0
  6
CONTINUOUS
 10
7.149120
 20
4.574680
  0
VERTEX
  8
0
  6
CONTINUOUS
 10
7.119640
 20
4.584800
  0
VERTEX
  8
0
  6
CONTINUOUS
 10
7.075640
 20
4.593160
  0
VERTEX
  8
0
  6
CONTINUOUS
 10
7.046600
 20
4.594480
  0
VERTEX
  8
0
  6
CONTINUOUS
 10
7.017560
 20
4.592280
  0
VERTEX
  8
0
  6
CONTINUOUS
 10
6.988960
 20
4.587440
  0
VERTEX
  8
0
  6
CONTINUOUS
 10
6.946720
 20
4.574680
  0
VERTEX
  8
0
  6
CONTINUOUS
 10
6.918560
 20
4.562800
  0
VERTEX
  8
0
  6
CONTINUOUS
 10
6.863560
 20
4.532880
  0
VERTEX
  8
0
  6
CONTINUOUS
 10
6.809000
 20
4.495040
  0
VERTEX
  8
0
  6
CONTINUOUS
 10
6.755320
 20
4.451040
  0
VERTEX
  8
0
  6
CONTINUOUS
 10
6.581080
 20
4.651240
  0
VERTEX
  8
0
  6
CONTINUOUS
 10
6.423560
 20
4.513960
  0
VERTEX
  8
0
  6
CONTINUOUS
 10
6.390560
 20
4.547840
  0
VERTEX
  8
0
  6
CONTINUOUS
 10
6.356240
 20
4.576440
  0
VERTEX
  8
0
  6
CONTINUOUS
 10
6.332480
 20
4.592720
  0
VERTEX
  8
0
  6
CONTINUOUS
 10
6.283200
 20
4.619120
  0
VERTEX
  8
0
  6
CONTINUOUS
 10
6.258120
 20
4.628800
  0
VERTEX
  8
0
  6
CONTINUOUS
 10
6.207520
 20
4.642440
  0
VERTEX
  8
0
  6
CONTINUOUS
 10
6.182440
 20
4.645960
  0
VERTEX
  8
0
  6
CONTINUOUS
 10
6.131840
 20
4.648160
  0
VERTEX
  8
0
  6
CONTINUOUS
 10
6.107200
 20
4.646400
  0
VERTEX
  8
0
  6
CONTINUOUS
 10
6.083000
 20
4.642880
  0
VERTEX
  8
0
  6
CONTINUOUS
 10
6.059240
 20
4.637600
  0
VERTEX
  8
0
  6
CONTINUOUS
 10
6.013480
 20
4.622200
  0
VERTEX
  8
0
  6
CONTINUOUS
 10
5.971240
 20
4.600640
  0
VERTEX
  8
0
  6
CONTINUOUS
 10
5.933400
 20
4.572920
  0
VERTEX
  8
0
  6
CONTINUOUS
 10
5.916240
 20
4.557520
  0
VERTEX
  8
0
  6
CONTINUOUS
 10
5.899960
 20
4.540360
  0
VERTEX
  8
0
  6
CONTINUOUS
 10
5.872680
 20
4.502520
  0
VERTEX
  8
0
  6
CONTINUOUS
 10
5.852000
 20
4.460280
  0
VERTEX
  8
0
  6
CONTINUOUS
 10
5.844520
 20
4.437400
  0
VERTEX
  8
0
  6
CONTINUOUS
 10
5.838800
 20
4.413640
  0
VERTEX
  8
0
  6
CONTINUOUS
 10
5.834840
 20
4.388560
  0
VERTEX
  8
0
  6
CONTINUOUS
 10
5.833520
 20
4.349840
  0
VERTEX
  8
0
  6
CONTINUOUS
 10
5.836160
 20
4.280760
  0
VERTEX
  8
0
  6
CONTINUOUS
 10
5.833080
 20
4.174280
  0
VERTEX
  8
0
  6
CONTINUOUS
 10
5.698440
 20
4.057240
  0
VERTEX
  8
0
  6
CONTINUOUS
 10
5.639040
 20
4.141720
  0
VERTEX
  8
0
  6
CONTINUOUS
 10
5.588880
 20
4.205520
  0
VERTEX
  8
0
  6
CONTINUOUS
 10
5.522880
 20
4.279440
  0
VERTEX
  8
0
  6
CONTINUOUS
 10
5.457760
 20
4.342360
  0
VERTEX
  8
0
  6
CONTINUOUS
 10
5.381640
 20
4.406160
  0
VERTEX
  8
0
  6
CONTINUOUS
 10
5.317400
 20
4.452800
  0
VERTEX
  8
0
  6
CONTINUOUS
 10
5.246560
 20
4.498120
  0
VERTEX
  8
0
  6
CONTINUOUS
 10
5.168680
 20
4.539920
  0
VERTEX
  8
0
  6
CONTINUOUS
 10
5.113240
 20
4.566320
  0
VERTEX
  8
0
  6
CONTINUOUS
 10
5.024360
 20
4.601080
  0
VERTEX
  8
0
  6
CONTINUOUS
 10
4.961000
 20
4.621320
  0
VERTEX
  8
0
  6
CONTINUOUS
 10
4.895000
 20
4.638920
  0
VERTEX
  8
0
  6
CONTINUOUS
 10
4.825040
 20
4.653440
  0
VERTEX
  8
0
  6
CONTINUOUS
 10
4.752440
 20
4.664440
  0
VERTEX
  8
0
  6
CONTINUOUS
 10
4.676320
 20
4.671480
  0
VERTEX
  8
0
  6
CONTINUOUS
 10
4.596680
 20
4.675000
  0
VERTEX
  8
0
  6
CONTINUOUS
 10
4.513960
 20
4.674120
  0
VERTEX
  8
0
  6
CONTINUOUS
 10
4.427720
 20
4.668400
  0
VERTEX
  8
0
  6
CONTINUOUS
 10
4.337960
 20
4.657840
  0
VERTEX
  8
0
  6
CONTINUOUS
 10
4.244680
 20
4.642000
  0
VERTEX
  8
0
  6
CONTINUOUS
 10
3.800280
 20
4.552240
  0
VERTEX
  8
0
  6
CONTINUOUS
 10
3.560920
 20
4.504280
  0
VERTEX
  8
0
  6
CONTINUOUS
 10
3.438600
 20
4.484040
  0
VERTEX
  8
0
  6
CONTINUOUS
 10
3.352800
 20
4.473040
  0
VERTEX
  8
0
  6
CONTINUOUS
 10
3.275800
 20
4.467760
  0
VERTEX
  8
0
  6
CONTINUOUS
 10
3.239720
 20
4.467320
  0
VERTEX
  8
0
  6
CONTINUOUS
 10
3.204960
 20
4.468200
  0
VERTEX
  8
0
  6
CONTINUOUS
 10
3.171520
 20
4.470840
  0
VERTEX
  8
0
  6
CONTINUOUS
 10
3.138960
 20
4.475240
  0
VERTEX
  8
0
  6
CONTINUOUS
 10
3.075600
 20
4.488880
  0
VERTEX
  8
0
  6
CONTINUOUS
 10
3.044360
 20
4.498120
  0
VERTEX
  8
0
  6
CONTINUOUS
 10
2.981000
 20
4.522320
  0
VERTEX
  8
0
  6
CONTINUOUS
 10
2.948440
 20
4.537280
  0
VERTEX
  8
0
  6
CONTINUOUS
 10
2.863080
 20
4.583480
  0
VERTEX
  8
0
  6
CONTINUOUS
 10
2.748240
 20
4.656080
  0
VERTEX
  8
0
  6
CONTINUOUS
 10
2.727560
 20
4.670160
  0
VERTEX
  8
0
  6
CONTINUOUS
 10
2.474120
 20
4.449720
  0
VERTEX
  8
0
  6
CONTINUOUS
 10
3.051840
 20
3.788840
  0
VERTEX
  8
0
  6
CONTINUOUS
 10
3.072520
 20
3.786200
  0
SEQEND
  8
0
  0
TEXT
  8
0
 10
3.690720
 20
4.259640
 40
0.137966
  1
BA  1108
 41
1.000000
  7
SN0
 71
     0
 72
     5
 11
4.371385
 21
4.259640
  0
TEXT
  8
0
 10
3.690720
 20
4.068240
 40
0.137966
  1
15/16" x 5-3/16"
 41
1.000000
  7
SN0
 71
     0
 72
     5
 11
4.864559
 21
4.068240
  0
ENDSEC
  0
EOF
