  0
SECTION
  2
HEADER
  9
$ACADVER
  1
AC1006
  9
$EXTMIN
 10
2.327160
 20
1.676840
  9
$EXTMAX
 10
6.850360
 20
4.906440
  9
$LTSCALE
 40
0.044000
  9
$PDMODE
 70
    35
  9
$PDSIZE
 40
0.035200
  0
ENDSEC
  0
SECTION
  2
TABLES
  0
TABLE
  2
LTYPE
 70
     9
  0
LTYPE
  2
CONTINUOUS
 70
    64
  3
Solid line
 72
    65
 73
     0
 40
0.000000
  0
LTYPE
  2
DASHED
 70
    64
  3
__ __ __ __ __ __ __ __ __ __ __ __ __ __ __
 72
    65
 73
     2
 40
0.000330
 49
0.000220
 49
-0.000110
  0
LTYPE
  2
HIDDEN
 70
    64
  3
 _ _ _ _ _ _ _ _ _ _ _ _ _ _ _ _ _ _ _ _ _ _
 72
    65
 73
     2
 40
0.000165
 49
0.000110
 49
-0.000055
  0
LTYPE
  2
CENTER
 70
    64
  3
____ _ ____ _ ____ _ ____ _ ____ _ ____ _ ____
 72
    65
 73
     4
 40
0.000880
 49
0.000550
 49
-0.000110
 49
0.000110
 49
-0.000110
  0
LTYPE
  2
PHANTOM
 70
    64
  3
_____ _ _ _____ _ _ _____ _ _ _____ _ _ ____
 72
    65
 73
     6
 40
0.001100
 49
0.000550
 49
-0.000110
 49
0.000110
 49
-0.000110
 49
0.000110
 49
-0.000110
  0
LTYPE
  2
DOT
 70
    64
  3
...............................................
 72
    65
 73
     2
 40
0.000110
 49
0.000000
 49
-0.000110
  0
LTYPE
  2
DASHDOT
 70
    64
  3
__ . __ . __ . __ . __ . __ . __ . __ . __ . __
 72
    65
 73
     4
 40
0.000440
 49
0.000220
 49
-0.000110
 49
0.000000
 49
-0.000110
  0
LTYPE
  2
BORDER
 70
    64
  3
__ __ . __ __ . __ __ . __ __ . __ __ . __ __
 72
    65
 73
     6
 40
0.000770
 49
0.000220
 49
-0.000110
 49
0.000220
 49
-0.000110
 49
0.000000
 49
-0.000110
  0
LTYPE
  2
DIVIDE
 70
    64
  3
__ . . __ . . __ . . __ . . __ . . __ . . __
 72
    65
 73
     6
 40
0.000550
 49
0.000220
 49
-0.000110
 49
0.000000
 49
-0.000110
 49
0.000000
 49
-0.000110
  0
LTYPE
  2
DOTDOT
 70
    64
  3
 . .  . .  . .  . .  . .  . . 
 72
    65
 73
     5
 40
0.000242
 49
-0.000110
 49
0.000000
 49
-0.000110
 49
0.000000
 49
-0.000110
  0
ENDTAB
  0
TABLE
  2
STYLE
 70
     2
  0
STYLE
 70
     0
  2
SN0
 40
0.000000
 41
0.000440
 50
0.000000
 71
     0
 42
0.000000
  3
ROMAND
  0
STYLE
 70
    68
  2
SV0
 40
0.000000
 41
0.000440
 50
0.000000
 71
     0
 42
0.000000
  3
ROMAND
  0
ENDTAB
  0
TABLE
  2
LAYER
 70
     3
  0
LAYER
  2
FOREGROUND
 70
    64
 62
     7
  6
CONTINUOUS
  0
LAYER
  2
BACKGROUND
 70
    65
 62
    -7
  6
CONTINUOUS
  0
LAYER
  2
0
 70
    64
 62
     7
  6
CONTINUOUS
  0
ENDTAB
  0
ENDSEC
  0
SECTION
  2
ENTITIES
  0
POLYLINE
  8
FOREGROUND
  6
CONTINUOUS
 66
     1
 40
0.000000
 41
0.000000
  0
VERTEX
  8
FOREGROUND
  6
CONTINUOUS
 10
0.000000
 20
6.583280
  0
VERTEX
  8
FOREGROUND
  6
CONTINUOUS
 10
8.499920
 20
6.583280
  0
VERTEX
  8
FOREGROUND
  6
CONTINUOUS
 10
8.499920
 20
-4.416720
  0
VERTEX
  8
FOREGROUND
  6
CONTINUOUS
 10
0.000000
 20
-4.416720
  0
VERTEX
  8
FOREGROUND
  6
CONTINUOUS
 10
0.000000
 20
6.583280
  0
SEQEND
  8
0
  0
POLYLINE
  8
FOREGROUND
  6
CONTINUOUS
 66
     1
 40
0.000000
 41
0.000000
  0
VERTEX
  8
FOREGROUND
  6
CONTINUOUS
 10
0.000000
 20
6.583280
  0
VERTEX
  8
FOREGROUND
  6
CONTINUOUS
 10
8.499920
 20
6.583280
  0
VERTEX
  8
FOREGROUND
  6
CONTINUOUS
 10
8.499920
 20
-4.416720
  0
VERTEX
  8
FOREGROUND
  6
CONTINUOUS
 10
0.000000
 20
-4.416720
  0
VERTEX
  8
FOREGROUND
  6
CONTINUOUS
 10
0.000000
 20
6.583280
  0
SEQEND
  8
0
  0
SOLID
  8
0
 62
    15
 10
4.418040
 20
3.848240
 11
4.418920
 21
4.596680
 12
4.463360
 22
3.842520
 13
4.464240
 23
4.591400
  0
POLYLINE
  8
0
  6
CONTINUOUS
 66
     1
 40
0.000000
 41
0.000000
  0
VERTEX
  8
0
  6
CONTINUOUS
 10
4.418040
 20
3.848240
  0
VERTEX
  8
0
  6
CONTINUOUS
 10
4.418920
 20
4.596680
  0
VERTEX
  8
0
  6
CONTINUOUS
 10
4.464240
 20
4.591400
  0
VERTEX
  8
0
  6
CONTINUOUS
 10
4.463360
 20
3.842520
  0
VERTEX
  8
0
  6
CONTINUOUS
 10
4.418040
 20
3.848240
  0
SEQEND
  8
0
  0
SOLID
  8
0
 62
    15
 10
3.051840
 20
3.879480
 11
3.052720
 21
4.627920
 12
3.187360
 22
3.879480
 13
3.188680
 23
4.627920
  0
POLYLINE
  8
0
  6
CONTINUOUS
 66
     1
 40
0.000000
 41
0.000000
  0
VERTEX
  8
0
  6
CONTINUOUS
 10
3.051840
 20
3.879480
  0
VERTEX
  8
0
  6
CONTINUOUS
 10
3.052720
 20
4.627920
  0
VERTEX
  8
0
  6
CONTINUOUS
 10
3.188680
 20
4.627920
  0
VERTEX
  8
0
  6
CONTINUOUS
 10
3.187360
 20
3.879480
  0
VERTEX
  8
0
  6
CONTINUOUS
 10
3.051840
 20
3.879480
  0
SEQEND
  8
0
  0
SOLID
  8
0
 62
    15
 10
3.187360
 20
3.879480
 11
3.188680
 21
4.627920
 12
3.190440
 22
3.905880
 13
3.191320
 23
4.654320
  0
POLYLINE
  8
0
  6
CONTINUOUS
 66
     1
 40
0.000000
 41
0.000000
  0
VERTEX
  8
0
  6
CONTINUOUS
 10
3.187360
 20
3.879480
  0
VERTEX
  8
0
  6
CONTINUOUS
 10
3.188680
 20
4.627920
  0
VERTEX
  8
0
  6
CONTINUOUS
 10
3.191320
 20
4.654320
  0
VERTEX
  8
0
  6
CONTINUOUS
 10
3.190440
 20
3.905880
  0
VERTEX
  8
0
  6
CONTINUOUS
 10
3.187360
 20
3.879480
  0
SEQEND
  8
0
  0
SOLID
  8
0
 62
    15
 10
3.190440
 20
3.905880
 11
3.191320
 21
4.654320
 12
3.199240
 22
3.935360
 13
3.200120
 23
4.683800
  0
POLYLINE
  8
0
  6
CONTINUOUS
 66
     1
 40
0.000000
 41
0.000000
  0
VERTEX
  8
0
  6
CONTINUOUS
 10
3.190440
 20
3.905880
  0
VERTEX
  8
0
  6
CONTINUOUS
 10
3.191320
 20
4.654320
  0
VERTEX
  8
0
  6
CONTINUOUS
 10
3.200120
 20
4.683800
  0
VERTEX
  8
0
  6
CONTINUOUS
 10
3.199240
 20
3.935360
  0
VERTEX
  8
0
  6
CONTINUOUS
 10
3.190440
 20
3.905880
  0
SEQEND
  8
0
  0
SOLID
  8
0
 62
    15
 10
3.199240
 20
3.935360
 11
3.200120
 21
4.683800
 12
3.213760
 22
3.966600
 13
3.214640
 23
4.715040
  0
POLYLINE
  8
0
  6
CONTINUOUS
 66
     1
 40
0.000000
 41
0.000000
  0
VERTEX
  8
0
  6
CONTINUOUS
 10
3.199240
 20
3.935360
  0
VERTEX
  8
0
  6
CONTINUOUS
 10
3.200120
 20
4.683800
  0
VERTEX
  8
0
  6
CONTINUOUS
 10
3.214640
 20
4.715040
  0
VERTEX
  8
0
  6
CONTINUOUS
 10
3.213760
 20
3.966600
  0
VERTEX
  8
0
  6
CONTINUOUS
 10
3.199240
 20
3.935360
  0
SEQEND
  8
0
  0
SOLID
  8
0
 62
    15
 10
3.213760
 20
3.966600
 11
3.214640
 21
4.715040
 12
3.234000
 22
3.998720
 13
3.234880
 23
4.747160
  0
POLYLINE
  8
0
  6
CONTINUOUS
 66
     1
 40
0.000000
 41
0.000000
  0
VERTEX
  8
0
  6
CONTINUOUS
 10
3.213760
 20
3.966600
  0
VERTEX
  8
0
  6
CONTINUOUS
 10
3.214640
 20
4.715040
  0
VERTEX
  8
0
  6
CONTINUOUS
 10
3.234880
 20
4.747160
  0
VERTEX
  8
0
  6
CONTINUOUS
 10
3.234000
 20
3.998720
  0
VERTEX
  8
0
  6
CONTINUOUS
 10
3.213760
 20
3.966600
  0
SEQEND
  8
0
  0
SOLID
  8
0
 62
    15
 10
3.234000
 20
3.998720
 11
3.234880
 21
4.747160
 12
3.259080
 22
4.030400
 13
3.259960
 23
4.778840
  0
POLYLINE
  8
0
  6
CONTINUOUS
 66
     1
 40
0.000000
 41
0.000000
  0
VERTEX
  8
0
  6
CONTINUOUS
 10
3.234000
 20
3.998720
  0
VERTEX
  8
0
  6
CONTINUOUS
 10
3.234880
 20
4.747160
  0
VERTEX
  8
0
  6
CONTINUOUS
 10
3.259960
 20
4.778840
  0
VERTEX
  8
0
  6
CONTINUOUS
 10
3.259080
 20
4.030400
  0
VERTEX
  8
0
  6
CONTINUOUS
 10
3.234000
 20
3.998720
  0
SEQEND
  8
0
  0
SOLID
  8
0
 62
    15
 10
3.259080
 20
4.030400
 11
3.259960
 21
4.778840
 12
3.289880
 22
4.060760
 13
3.290760
 23
4.809200
  0
POLYLINE
  8
0
  6
CONTINUOUS
 66
     1
 40
0.000000
 41
0.000000
  0
VERTEX
  8
0
  6
CONTINUOUS
 10
3.259080
 20
4.030400
  0
VERTEX
  8
0
  6
CONTINUOUS
 10
3.259960
 20
4.778840
  0
VERTEX
  8
0
  6
CONTINUOUS
 10
3.290760
 20
4.809200
  0
VERTEX
  8
0
  6
CONTINUOUS
 10
3.289880
 20
4.060760
  0
VERTEX
  8
0
  6
CONTINUOUS
 10
3.259080
 20
4.030400
  0
SEQEND
  8
0
  0
SOLID
  8
0
 62
    15
 10
3.289880
 20
4.060760
 11
3.290760
 21
4.809200
 12
3.325520
 22
4.088920
 13
3.326400
 23
4.837360
  0
POLYLINE
  8
0
  6
CONTINUOUS
 66
     1
 40
0.000000
 41
0.000000
  0
VERTEX
  8
0
  6
CONTINUOUS
 10
3.289880
 20
4.060760
  0
VERTEX
  8
0
  6
CONTINUOUS
 10
3.290760
 20
4.809200
  0
VERTEX
  8
0
  6
CONTINUOUS
 10
3.326400
 20
4.837360
  0
VERTEX
  8
0
  6
CONTINUOUS
 10
3.325520
 20
4.088920
  0
VERTEX
  8
0
  6
CONTINUOUS
 10
3.289880
 20
4.060760
  0
SEQEND
  8
0
  0
SOLID
  8
0
 62
    15
 10
3.325520
 20
4.088920
 11
3.326400
 21
4.837360
 12
3.366000
 22
4.113560
 13
3.366880
 23
4.862000
  0
POLYLINE
  8
0
  6
CONTINUOUS
 66
     1
 40
0.000000
 41
0.000000
  0
VERTEX
  8
0
  6
CONTINUOUS
 10
3.325520
 20
4.088920
  0
VERTEX
  8
0
  6
CONTINUOUS
 10
3.326400
 20
4.837360
  0
VERTEX
  8
0
  6
CONTINUOUS
 10
3.366880
 20
4.862000
  0
VERTEX
  8
0
  6
CONTINUOUS
 10
3.366000
 20
4.113560
  0
VERTEX
  8
0
  6
CONTINUOUS
 10
3.325520
 20
4.088920
  0
SEQEND
  8
0
  0
SOLID
  8
0
 62
    15
 10
3.366000
 20
4.113560
 11
3.366880
 21
4.862000
 12
3.411320
 22
4.133800
 13
3.412200
 23
4.882680
  0
POLYLINE
  8
0
  6
CONTINUOUS
 66
     1
 40
0.000000
 41
0.000000
  0
VERTEX
  8
0
  6
CONTINUOUS
 10
3.366000
 20
4.113560
  0
VERTEX
  8
0
  6
CONTINUOUS
 10
3.366880
 20
4.862000
  0
VERTEX
  8
0
  6
CONTINUOUS
 10
3.412200
 20
4.882680
  0
VERTEX
  8
0
  6
CONTINUOUS
 10
3.411320
 20
4.133800
  0
VERTEX
  8
0
  6
CONTINUOUS
 10
3.366000
 20
4.113560
  0
SEQEND
  8
0
  0
SOLID
  8
0
 62
    15
 10
3.411320
 20
4.133800
 11
3.412200
 21
4.882680
 12
3.461040
 22
4.148760
 13
3.461920
 23
4.897200
  0
POLYLINE
  8
0
  6
CONTINUOUS
 66
     1
 40
0.000000
 41
0.000000
  0
VERTEX
  8
0
  6
CONTINUOUS
 10
3.411320
 20
4.133800
  0
VERTEX
  8
0
  6
CONTINUOUS
 10
3.412200
 20
4.882680
  0
VERTEX
  8
0
  6
CONTINUOUS
 10
3.461920
 20
4.897200
  0
VERTEX
  8
0
  6
CONTINUOUS
 10
3.461040
 20
4.148760
  0
VERTEX
  8
0
  6
CONTINUOUS
 10
3.411320
 20
4.133800
  0
SEQEND
  8
0
  0
SOLID
  8
0
 62
    15
 10
3.461040
 20
4.148760
 11
3.461920
 21
4.897200
 12
3.515600
 22
4.157120
 13
3.516480
 23
4.905560
  0
POLYLINE
  8
0
  6
CONTINUOUS
 66
     1
 40
0.000000
 41
0.000000
  0
VERTEX
  8
0
  6
CONTINUOUS
 10
3.461040
 20
4.148760
  0
VERTEX
  8
0
  6
CONTINUOUS
 10
3.461920
 20
4.897200
  0
VERTEX
  8
0
  6
CONTINUOUS
 10
3.516480
 20
4.905560
  0
VERTEX
  8
0
  6
CONTINUOUS
 10
3.515600
 20
4.157120
  0
VERTEX
  8
0
  6
CONTINUOUS
 10
3.461040
 20
4.148760
  0
SEQEND
  8
0
  0
SOLID
  8
0
 62
    15
 10
3.515600
 20
4.157120
 11
3.516480
 21
4.905560
 12
3.574120
 22
4.157560
 13
3.575000
 23
4.906000
  0
POLYLINE
  8
0
  6
CONTINUOUS
 66
     1
 40
0.000000
 41
0.000000
  0
VERTEX
  8
0
  6
CONTINUOUS
 10
3.515600
 20
4.157120
  0
VERTEX
  8
0
  6
CONTINUOUS
 10
3.516480
 20
4.905560
  0
VERTEX
  8
0
  6
CONTINUOUS
 10
3.575000
 20
4.906000
  0
VERTEX
  8
0
  6
CONTINUOUS
 10
3.574120
 20
4.157560
  0
VERTEX
  8
0
  6
CONTINUOUS
 10
3.515600
 20
4.157120
  0
SEQEND
  8
0
  0
SOLID
  8
0
 62
    15
 10
3.574120
 20
4.157560
 11
3.575000
 21
4.906000
 12
3.636600
 22
4.149640
 13
3.637480
 23
4.898080
  0
POLYLINE
  8
0
  6
CONTINUOUS
 66
     1
 40
0.000000
 41
0.000000
  0
VERTEX
  8
0
  6
CONTINUOUS
 10
3.574120
 20
4.157560
  0
VERTEX
  8
0
  6
CONTINUOUS
 10
3.575000
 20
4.906000
  0
VERTEX
  8
0
  6
CONTINUOUS
 10
3.637480
 20
4.898080
  0
VERTEX
  8
0
  6
CONTINUOUS
 10
3.636600
 20
4.149640
  0
VERTEX
  8
0
  6
CONTINUOUS
 10
3.574120
 20
4.157560
  0
SEQEND
  8
0
  0
SOLID
  8
0
 62
    15
 10
3.636600
 20
4.149640
 11
3.637480
 21
4.898080
 12
3.703040
 22
4.131600
 13
3.703920
 23
4.880040
  0
POLYLINE
  8
0
  6
CONTINUOUS
 66
     1
 40
0.000000
 41
0.000000
  0
VERTEX
  8
0
  6
CONTINUOUS
 10
3.636600
 20
4.149640
  0
VERTEX
  8
0
  6
CONTINUOUS
 10
3.637480
 20
4.898080
  0
VERTEX
  8
0
  6
CONTINUOUS
 10
3.703920
 20
4.880040
  0
VERTEX
  8
0
  6
CONTINUOUS
 10
3.703040
 20
4.131600
  0
VERTEX
  8
0
  6
CONTINUOUS
 10
3.636600
 20
4.149640
  0
SEQEND
  8
0
  0
SOLID
  8
0
 62
    15
 10
3.703040
 20
4.131600
 11
3.703920
 21
4.880040
 12
3.773440
 22
4.103000
 13
3.774320
 23
4.851440
  0
POLYLINE
  8
0
  6
CONTINUOUS
 66
     1
 40
0.000000
 41
0.000000
  0
VERTEX
  8
0
  6
CONTINUOUS
 10
3.703040
 20
4.131600
  0
VERTEX
  8
0
  6
CONTINUOUS
 10
3.703920
 20
4.880040
  0
VERTEX
  8
0
  6
CONTINUOUS
 10
3.774320
 20
4.851440
  0
VERTEX
  8
0
  6
CONTINUOUS
 10
3.773440
 20
4.103000
  0
VERTEX
  8
0
  6
CONTINUOUS
 10
3.703040
 20
4.131600
  0
SEQEND
  8
0
  0
SOLID
  8
0
 62
    15
 10
3.773440
 20
4.103000
 11
3.774320
 21
4.851440
 12
3.847800
 22
4.062520
 13
3.848680
 23
4.810960
  0
POLYLINE
  8
0
  6
CONTINUOUS
 66
     1
 40
0.000000
 41
0.000000
  0
VERTEX
  8
0
  6
CONTINUOUS
 10
3.773440
 20
4.103000
  0
VERTEX
  8
0
  6
CONTINUOUS
 10
3.774320
 20
4.851440
  0
VERTEX
  8
0
  6
CONTINUOUS
 10
3.848680
 20
4.810960
  0
VERTEX
  8
0
  6
CONTINUOUS
 10
3.847800
 20
4.062520
  0
VERTEX
  8
0
  6
CONTINUOUS
 10
3.773440
 20
4.103000
  0
SEQEND
  8
0
  0
SOLID
  8
0
 62
    15
 10
3.847800
 20
4.062520
 11
3.848680
 21
4.810960
 12
3.922160
 22
4.018960
 13
3.923040
 23
4.767400
  0
POLYLINE
  8
0
  6
CONTINUOUS
 66
     1
 40
0.000000
 41
0.000000
  0
VERTEX
  8
0
  6
CONTINUOUS
 10
3.847800
 20
4.062520
  0
VERTEX
  8
0
  6
CONTINUOUS
 10
3.848680
 20
4.810960
  0
VERTEX
  8
0
  6
CONTINUOUS
 10
3.923040
 20
4.767400
  0
VERTEX
  8
0
  6
CONTINUOUS
 10
3.922160
 20
4.018960
  0
VERTEX
  8
0
  6
CONTINUOUS
 10
3.847800
 20
4.062520
  0
SEQEND
  8
0
  0
SOLID
  8
0
 62
    15
 10
3.922160
 20
4.018960
 11
3.923040
 21
4.767400
 12
3.994760
 22
3.981560
 13
3.995640
 23
4.730000
  0
POLYLINE
  8
0
  6
CONTINUOUS
 66
     1
 40
0.000000
 41
0.000000
  0
VERTEX
  8
0
  6
CONTINUOUS
 10
3.922160
 20
4.018960
  0
VERTEX
  8
0
  6
CONTINUOUS
 10
3.923040
 20
4.767400
  0
VERTEX
  8
0
  6
CONTINUOUS
 10
3.995640
 20
4.730000
  0
VERTEX
  8
0
  6
CONTINUOUS
 10
3.994760
 20
3.981560
  0
VERTEX
  8
0
  6
CONTINUOUS
 10
3.922160
 20
4.018960
  0
SEQEND
  8
0
  0
SOLID
  8
0
 62
    15
 10
3.994760
 20
3.981560
 11
3.995640
 21
4.730000
 12
4.064720
 22
3.949440
 13
4.065600
 23
4.697880
  0
POLYLINE
  8
0
  6
CONTINUOUS
 66
     1
 40
0.000000
 41
0.000000
  0
VERTEX
  8
0
  6
CONTINUOUS
 10
3.994760
 20
3.981560
  0
VERTEX
  8
0
  6
CONTINUOUS
 10
3.995640
 20
4.730000
  0
VERTEX
  8
0
  6
CONTINUOUS
 10
4.065600
 20
4.697880
  0
VERTEX
  8
0
  6
CONTINUOUS
 10
4.064720
 20
3.949440
  0
VERTEX
  8
0
  6
CONTINUOUS
 10
3.994760
 20
3.981560
  0
SEQEND
  8
0
  0
SOLID
  8
0
 62
    15
 10
4.064720
 20
3.949440
 11
4.065600
 21
4.697880
 12
4.132040
 22
3.922160
 13
4.132920
 23
4.671040
  0
POLYLINE
  8
0
  6
CONTINUOUS
 66
     1
 40
0.000000
 41
0.000000
  0
VERTEX
  8
0
  6
CONTINUOUS
 10
4.064720
 20
3.949440
  0
VERTEX
  8
0
  6
CONTINUOUS
 10
4.065600
 20
4.697880
  0
VERTEX
  8
0
  6
CONTINUOUS
 10
4.132920
 20
4.671040
  0
VERTEX
  8
0
  6
CONTINUOUS
 10
4.132040
 20
3.922160
  0
VERTEX
  8
0
  6
CONTINUOUS
 10
4.064720
 20
3.949440
  0
SEQEND
  8
0
  0
SOLID
  8
0
 62
    15
 10
4.132040
 20
3.922160
 11
4.132920
 21
4.671040
 12
4.196280
 22
3.899720
 13
4.197160
 23
4.648600
  0
POLYLINE
  8
0
  6
CONTINUOUS
 66
     1
 40
0.000000
 41
0.000000
  0
VERTEX
  8
0
  6
CONTINUOUS
 10
4.132040
 20
3.922160
  0
VERTEX
  8
0
  6
CONTINUOUS
 10
4.132920
 20
4.671040
  0
VERTEX
  8
0
  6
CONTINUOUS
 10
4.197160
 20
4.648600
  0
VERTEX
  8
0
  6
CONTINUOUS
 10
4.196280
 20
3.899720
  0
VERTEX
  8
0
  6
CONTINUOUS
 10
4.132040
 20
3.922160
  0
SEQEND
  8
0
  0
SOLID
  8
0
 62
    15
 10
4.196280
 20
3.899720
 11
4.197160
 21
4.648600
 12
4.257440
 22
3.881680
 13
4.258320
 23
4.630120
  0
POLYLINE
  8
0
  6
CONTINUOUS
 66
     1
 40
0.000000
 41
0.000000
  0
VERTEX
  8
0
  6
CONTINUOUS
 10
4.196280
 20
3.899720
  0
VERTEX
  8
0
  6
CONTINUOUS
 10
4.197160
 20
4.648600
  0
VERTEX
  8
0
  6
CONTINUOUS
 10
4.258320
 20
4.630120
  0
VERTEX
  8
0
  6
CONTINUOUS
 10
4.257440
 20
3.881680
  0
VERTEX
  8
0
  6
CONTINUOUS
 10
4.196280
 20
3.899720
  0
SEQEND
  8
0
  0
SOLID
  8
0
 62
    15
 10
4.257440
 20
3.881680
 11
4.258320
 21
4.630120
 12
4.314640
 22
3.867160
 13
4.315960
 23
4.616040
  0
POLYLINE
  8
0
  6
CONTINUOUS
 66
     1
 40
0.000000
 41
0.000000
  0
VERTEX
  8
0
  6
CONTINUOUS
 10
4.257440
 20
3.881680
  0
VERTEX
  8
0
  6
CONTINUOUS
 10
4.258320
 20
4.630120
  0
VERTEX
  8
0
  6
CONTINUOUS
 10
4.315960
 20
4.616040
  0
VERTEX
  8
0
  6
CONTINUOUS
 10
4.314640
 20
3.867160
  0
VERTEX
  8
0
  6
CONTINUOUS
 10
4.257440
 20
3.881680
  0
SEQEND
  8
0
  0
SOLID
  8
0
 62
    15
 10
4.314640
 20
3.867160
 11
4.315960
 21
4.616040
 12
4.368760
 22
3.856160
 13
4.369640
 23
4.605040
  0
POLYLINE
  8
0
  6
CONTINUOUS
 66
     1
 40
0.000000
 41
0.000000
  0
VERTEX
  8
0
  6
CONTINUOUS
 10
4.314640
 20
3.867160
  0
VERTEX
  8
0
  6
CONTINUOUS
 10
4.315960
 20
4.616040
  0
VERTEX
  8
0
  6
CONTINUOUS
 10
4.369640
 20
4.605040
  0
VERTEX
  8
0
  6
CONTINUOUS
 10
4.368760
 20
3.856160
  0
VERTEX
  8
0
  6
CONTINUOUS
 10
4.314640
 20
3.867160
  0
SEQEND
  8
0
  0
SOLID
  8
0
 62
    15
 10
4.368760
 20
3.856160
 11
4.369640
 21
4.605040
 12
4.418040
 22
3.848240
 13
4.418920
 23
4.596680
  0
POLYLINE
  8
0
  6
CONTINUOUS
 66
     1
 40
0.000000
 41
0.000000
  0
VERTEX
  8
0
  6
CONTINUOUS
 10
4.368760
 20
3.856160
  0
VERTEX
  8
0
  6
CONTINUOUS
 10
4.369640
 20
4.605040
  0
VERTEX
  8
0
  6
CONTINUOUS
 10
4.418920
 20
4.596680
  0
VERTEX
  8
0
  6
CONTINUOUS
 10
4.418040
 20
3.848240
  0
VERTEX
  8
0
  6
CONTINUOUS
 10
4.368760
 20
3.856160
  0
SEQEND
  8
0
  0
SOLID
  8
0
 62
    15
 10
3.051840
 20
4.157120
 11
3.052720
 21
4.906000
 12
3.051840
 22
3.879480
 13
3.052720
 23
4.627920
  0
POLYLINE
  8
0
  6
CONTINUOUS
 66
     1
 40
0.000000
 41
0.000000
  0
VERTEX
  8
0
  6
CONTINUOUS
 10
3.051840
 20
4.157120
  0
VERTEX
  8
0
  6
CONTINUOUS
 10
3.052720
 20
4.906000
  0
VERTEX
  8
0
  6
CONTINUOUS
 10
3.052720
 20
4.627920
  0
VERTEX
  8
0
  6
CONTINUOUS
 10
3.051840
 20
3.879480
  0
VERTEX
  8
0
  6
CONTINUOUS
 10
3.051840
 20
4.157120
  0
SEQEND
  8
0
  0
SOLID
  8
0
 62
    15
 10
4.463360
 20
3.842520
 11
4.464240
 21
4.591400
 12
4.504280
 22
3.839000
 13
4.505160
 23
4.587440
  0
POLYLINE
  8
0
  6
CONTINUOUS
 66
     1
 40
0.000000
 41
0.000000
  0
VERTEX
  8
0
  6
CONTINUOUS
 10
4.463360
 20
3.842520
  0
VERTEX
  8
0
  6
CONTINUOUS
 10
4.464240
 20
4.591400
  0
VERTEX
  8
0
  6
CONTINUOUS
 10
4.505160
 20
4.587440
  0
VERTEX
  8
0
  6
CONTINUOUS
 10
4.504280
 20
3.839000
  0
VERTEX
  8
0
  6
CONTINUOUS
 10
4.463360
 20
3.842520
  0
SEQEND
  8
0
  0
SOLID
  8
0
 62
    15
 10
4.504280
 20
3.839000
 11
4.505160
 21
4.587440
 12
4.540360
 22
3.837240
 13
4.541240
 23
4.585680
  0
POLYLINE
  8
0
  6
CONTINUOUS
 66
     1
 40
0.000000
 41
0.000000
  0
VERTEX
  8
0
  6
CONTINUOUS
 10
4.504280
 20
3.839000
  0
VERTEX
  8
0
  6
CONTINUOUS
 10
4.505160
 20
4.587440
  0
VERTEX
  8
0
  6
CONTINUOUS
 10
4.541240
 20
4.585680
  0
VERTEX
  8
0
  6
CONTINUOUS
 10
4.540360
 20
3.837240
  0
VERTEX
  8
0
  6
CONTINUOUS
 10
4.504280
 20
3.839000
  0
SEQEND
  8
0
  0
SOLID
  8
0
 62
    15
 10
4.540360
 20
3.837240
 11
4.541240
 21
4.585680
 12
4.571160
 22
3.836360
 13
4.572040
 23
4.585240
  0
POLYLINE
  8
0
  6
CONTINUOUS
 66
     1
 40
0.000000
 41
0.000000
  0
VERTEX
  8
0
  6
CONTINUOUS
 10
4.540360
 20
3.837240
  0
VERTEX
  8
0
  6
CONTINUOUS
 10
4.541240
 20
4.585680
  0
VERTEX
  8
0
  6
CONTINUOUS
 10
4.572040
 20
4.585240
  0
VERTEX
  8
0
  6
CONTINUOUS
 10
4.571160
 20
3.836360
  0
VERTEX
  8
0
  6
CONTINUOUS
 10
4.540360
 20
3.837240
  0
SEQEND
  8
0
  0
SOLID
  8
0
 62
    15
 10
4.571160
 20
3.836360
 11
4.572040
 21
4.585240
 12
4.596680
 22
3.836800
 13
4.597560
 23
4.585240
  0
POLYLINE
  8
0
  6
CONTINUOUS
 66
     1
 40
0.000000
 41
0.000000
  0
VERTEX
  8
0
  6
CONTINUOUS
 10
4.571160
 20
3.836360
  0
VERTEX
  8
0
  6
CONTINUOUS
 10
4.572040
 20
4.585240
  0
VERTEX
  8
0
  6
CONTINUOUS
 10
4.597560
 20
4.585240
  0
VERTEX
  8
0
  6
CONTINUOUS
 10
4.596680
 20
3.836800
  0
VERTEX
  8
0
  6
CONTINUOUS
 10
4.571160
 20
3.836360
  0
SEQEND
  8
0
  0
SOLID
  8
0
 62
    15
 10
4.596680
 20
3.836800
 11
4.597560
 21
4.585240
 12
4.616480
 22
3.837240
 13
4.617800
 23
4.585680
  0
POLYLINE
  8
0
  6
CONTINUOUS
 66
     1
 40
0.000000
 41
0.000000
  0
VERTEX
  8
0
  6
CONTINUOUS
 10
4.596680
 20
3.836800
  0
VERTEX
  8
0
  6
CONTINUOUS
 10
4.597560
 20
4.585240
  0
VERTEX
  8
0
  6
CONTINUOUS
 10
4.617800
 20
4.585680
  0
VERTEX
  8
0
  6
CONTINUOUS
 10
4.616480
 20
3.837240
  0
VERTEX
  8
0
  6
CONTINUOUS
 10
4.596680
 20
3.836800
  0
SEQEND
  8
0
  0
SOLID
  8
0
 62
    15
 10
6.198280
 20
3.567080
 11
6.199160
 21
4.315520
 12
6.220280
 22
3.569280
 13
6.221160
 23
4.317720
  0
POLYLINE
  8
0
  6
CONTINUOUS
 66
     1
 40
0.000000
 41
0.000000
  0
VERTEX
  8
0
  6
CONTINUOUS
 10
6.198280
 20
3.567080
  0
VERTEX
  8
0
  6
CONTINUOUS
 10
6.199160
 20
4.315520
  0
VERTEX
  8
0
  6
CONTINUOUS
 10
6.221160
 20
4.317720
  0
VERTEX
  8
0
  6
CONTINUOUS
 10
6.220280
 20
3.569280
  0
VERTEX
  8
0
  6
CONTINUOUS
 10
6.198280
 20
3.567080
  0
SEQEND
  8
0
  0
SOLID
  8
0
 62
    15
 10
6.198280
 20
3.715800
 11
6.199160
 21
4.464240
 12
6.198280
 22
3.567080
 13
6.199160
 23
4.315520
  0
POLYLINE
  8
0
  6
CONTINUOUS
 66
     1
 40
0.000000
 41
0.000000
  0
VERTEX
  8
0
  6
CONTINUOUS
 10
6.198280
 20
3.715800
  0
VERTEX
  8
0
  6
CONTINUOUS
 10
6.199160
 20
4.464240
  0
VERTEX
  8
0
  6
CONTINUOUS
 10
6.199160
 20
4.315520
  0
VERTEX
  8
0
  6
CONTINUOUS
 10
6.198280
 20
3.567080
  0
VERTEX
  8
0
  6
CONTINUOUS
 10
6.198280
 20
3.715800
  0
SEQEND
  8
0
  0
SOLID
  8
0
 62
    15
 10
4.631000
 20
3.715800
 11
4.631880
 21
4.464240
 12
6.198280
 22
3.715800
 13
6.199160
 23
4.464240
  0
POLYLINE
  8
0
  6
CONTINUOUS
 66
     1
 40
0.000000
 41
0.000000
  0
VERTEX
  8
0
  6
CONTINUOUS
 10
4.631000
 20
3.715800
  0
VERTEX
  8
0
  6
CONTINUOUS
 10
4.631880
 20
4.464240
  0
VERTEX
  8
0
  6
CONTINUOUS
 10
6.199160
 20
4.464240
  0
VERTEX
  8
0
  6
CONTINUOUS
 10
6.198280
 20
3.715800
  0
VERTEX
  8
0
  6
CONTINUOUS
 10
4.631000
 20
3.715800
  0
SEQEND
  8
0
  0
SOLID
  8
0
 62
    15
 10
4.631000
 20
3.837680
 11
4.631880
 21
4.586120
 12
4.631000
 22
3.715800
 13
4.631880
 23
4.464240
  0
POLYLINE
  8
0
  6
CONTINUOUS
 66
     1
 40
0.000000
 41
0.000000
  0
VERTEX
  8
0
  6
CONTINUOUS
 10
4.631000
 20
3.837680
  0
VERTEX
  8
0
  6
CONTINUOUS
 10
4.631880
 20
4.586120
  0
VERTEX
  8
0
  6
CONTINUOUS
 10
4.631880
 20
4.464240
  0
VERTEX
  8
0
  6
CONTINUOUS
 10
4.631000
 20
3.715800
  0
VERTEX
  8
0
  6
CONTINUOUS
 10
4.631000
 20
3.837680
  0
SEQEND
  8
0
  0
SOLID
  8
0
 62
    15
 10
4.616480
 20
3.837240
 11
4.617800
 21
4.585680
 12
4.631000
 22
3.837680
 13
4.631880
 23
4.586120
  0
POLYLINE
  8
0
  6
CONTINUOUS
 66
     1
 40
0.000000
 41
0.000000
  0
VERTEX
  8
0
  6
CONTINUOUS
 10
4.616480
 20
3.837240
  0
VERTEX
  8
0
  6
CONTINUOUS
 10
4.617800
 20
4.585680
  0
VERTEX
  8
0
  6
CONTINUOUS
 10
4.631880
 20
4.586120
  0
VERTEX
  8
0
  6
CONTINUOUS
 10
4.631000
 20
3.837680
  0
VERTEX
  8
0
  6
CONTINUOUS
 10
4.616480
 20
3.837240
  0
SEQEND
  8
0
  0
SOLID
  8
0
 62
    15
 10
6.220280
 20
3.569280
 11
6.221160
 21
4.317720
 12
6.251960
 22
3.569280
 13
6.252840
 23
4.317720
  0
POLYLINE
  8
0
  6
CONTINUOUS
 66
     1
 40
0.000000
 41
0.000000
  0
VERTEX
  8
0
  6
CONTINUOUS
 10
6.220280
 20
3.569280
  0
VERTEX
  8
0
  6
CONTINUOUS
 10
6.221160
 20
4.317720
  0
VERTEX
  8
0
  6
CONTINUOUS
 10
6.252840
 20
4.317720
  0
VERTEX
  8
0
  6
CONTINUOUS
 10
6.251960
 20
3.569280
  0
VERTEX
  8
0
  6
CONTINUOUS
 10
6.220280
 20
3.569280
  0
SEQEND
  8
0
  0
SOLID
  8
0
 62
    15
 10
6.251960
 20
3.569280
 11
6.252840
 21
4.317720
 12
6.291120
 22
3.565760
 13
6.292000
 23
4.314640
  0
POLYLINE
  8
0
  6
CONTINUOUS
 66
     1
 40
0.000000
 41
0.000000
  0
VERTEX
  8
0
  6
CONTINUOUS
 10
6.251960
 20
3.569280
  0
VERTEX
  8
0
  6
CONTINUOUS
 10
6.252840
 20
4.317720
  0
VERTEX
  8
0
  6
CONTINUOUS
 10
6.292000
 20
4.314640
  0
VERTEX
  8
0
  6
CONTINUOUS
 10
6.291120
 20
3.565760
  0
VERTEX
  8
0
  6
CONTINUOUS
 10
6.251960
 20
3.569280
  0
SEQEND
  8
0
  0
SOLID
  8
0
 62
    15
 10
6.291120
 20
3.565760
 11
6.292000
 21
4.314640
 12
6.335120
 22
3.557400
 13
6.336000
 23
4.305840
  0
POLYLINE
  8
0
  6
CONTINUOUS
 66
     1
 40
0.000000
 41
0.000000
  0
VERTEX
  8
0
  6
CONTINUOUS
 10
6.291120
 20
3.565760
  0
VERTEX
  8
0
  6
CONTINUOUS
 10
6.292000
 20
4.314640
  0
VERTEX
  8
0
  6
CONTINUOUS
 10
6.336000
 20
4.305840
  0
VERTEX
  8
0
  6
CONTINUOUS
 10
6.335120
 20
3.557400
  0
VERTEX
  8
0
  6
CONTINUOUS
 10
6.291120
 20
3.565760
  0
SEQEND
  8
0
  0
SOLID
  8
0
 62
    15
 10
6.335120
 20
3.557400
 11
6.336000
 21
4.305840
 12
6.381760
 22
3.542440
 13
6.382640
 23
4.290880
  0
POLYLINE
  8
0
  6
CONTINUOUS
 66
     1
 40
0.000000
 41
0.000000
  0
VERTEX
  8
0
  6
CONTINUOUS
 10
6.335120
 20
3.557400
  0
VERTEX
  8
0
  6
CONTINUOUS
 10
6.336000
 20
4.305840
  0
VERTEX
  8
0
  6
CONTINUOUS
 10
6.382640
 20
4.290880
  0
VERTEX
  8
0
  6
CONTINUOUS
 10
6.381760
 20
3.542440
  0
VERTEX
  8
0
  6
CONTINUOUS
 10
6.335120
 20
3.557400
  0
SEQEND
  8
0
  0
SOLID
  8
0
 62
    15
 10
6.381760
 20
3.542440
 11
6.382640
 21
4.290880
 12
6.429280
 22
3.519560
 13
6.430160
 23
4.268000
  0
POLYLINE
  8
0
  6
CONTINUOUS
 66
     1
 40
0.000000
 41
0.000000
  0
VERTEX
  8
0
  6
CONTINUOUS
 10
6.381760
 20
3.542440
  0
VERTEX
  8
0
  6
CONTINUOUS
 10
6.382640
 20
4.290880
  0
VERTEX
  8
0
  6
CONTINUOUS
 10
6.430160
 20
4.268000
  0
VERTEX
  8
0
  6
CONTINUOUS
 10
6.429280
 20
3.519560
  0
VERTEX
  8
0
  6
CONTINUOUS
 10
6.381760
 20
3.542440
  0
SEQEND
  8
0
  0
SOLID
  8
0
 62
    15
 10
6.429280
 20
3.519560
 11
6.430160
 21
4.268000
 12
6.474160
 22
3.487440
 13
6.475480
 23
4.235880
  0
POLYLINE
  8
0
  6
CONTINUOUS
 66
     1
 40
0.000000
 41
0.000000
  0
VERTEX
  8
0
  6
CONTINUOUS
 10
6.429280
 20
3.519560
  0
VERTEX
  8
0
  6
CONTINUOUS
 10
6.430160
 20
4.268000
  0
VERTEX
  8
0
  6
CONTINUOUS
 10
6.475480
 20
4.235880
  0
VERTEX
  8
0
  6
CONTINUOUS
 10
6.474160
 20
3.487440
  0
VERTEX
  8
0
  6
CONTINUOUS
 10
6.429280
 20
3.519560
  0
SEQEND
  8
0
  0
SOLID
  8
0
 62
    15
 10
6.474160
 20
3.487440
 11
6.475480
 21
4.235880
 12
6.515520
 22
3.444320
 13
6.516400
 23
4.193200
  0
POLYLINE
  8
0
  6
CONTINUOUS
 66
     1
 40
0.000000
 41
0.000000
  0
VERTEX
  8
0
  6
CONTINUOUS
 10
6.474160
 20
3.487440
  0
VERTEX
  8
0
  6
CONTINUOUS
 10
6.475480
 20
4.235880
  0
VERTEX
  8
0
  6
CONTINUOUS
 10
6.516400
 20
4.193200
  0
VERTEX
  8
0
  6
CONTINUOUS
 10
6.515520
 20
3.444320
  0
VERTEX
  8
0
  6
CONTINUOUS
 10
6.474160
 20
3.487440
  0
SEQEND
  8
0
  0
SOLID
  8
0
 62
    15
 10
6.515520
 20
3.444320
 11
6.516400
 21
4.193200
 12
6.555560
 22
3.402080
 13
6.556440
 23
4.150520
  0
POLYLINE
  8
0
  6
CONTINUOUS
 66
     1
 40
0.000000
 41
0.000000
  0
VERTEX
  8
0
  6
CONTINUOUS
 10
6.515520
 20
3.444320
  0
VERTEX
  8
0
  6
CONTINUOUS
 10
6.516400
 20
4.193200
  0
VERTEX
  8
0
  6
CONTINUOUS
 10
6.556440
 20
4.150520
  0
VERTEX
  8
0
  6
CONTINUOUS
 10
6.555560
 20
3.402080
  0
VERTEX
  8
0
  6
CONTINUOUS
 10
6.515520
 20
3.444320
  0
SEQEND
  8
0
  0
SOLID
  8
0
 62
    15
 10
6.555560
 20
3.402080
 11
6.556440
 21
4.150520
 12
6.599120
 22
3.370840
 13
6.600000
 23
4.119280
  0
POLYLINE
  8
0
  6
CONTINUOUS
 66
     1
 40
0.000000
 41
0.000000
  0
VERTEX
  8
0
  6
CONTINUOUS
 10
6.555560
 20
3.402080
  0
VERTEX
  8
0
  6
CONTINUOUS
 10
6.556440
 20
4.150520
  0
VERTEX
  8
0
  6
CONTINUOUS
 10
6.600000
 20
4.119280
  0
VERTEX
  8
0
  6
CONTINUOUS
 10
6.599120
 20
3.370840
  0
VERTEX
  8
0
  6
CONTINUOUS
 10
6.555560
 20
3.402080
  0
SEQEND
  8
0
  0
SOLID
  8
0
 62
    15
 10
6.599120
 20
3.370840
 11
6.600000
 21
4.119280
 12
6.643560
 22
3.349280
 13
6.644440
 23
4.097720
  0
POLYLINE
  8
0
  6
CONTINUOUS
 66
     1
 40
0.000000
 41
0.000000
  0
VERTEX
  8
0
  6
CONTINUOUS
 10
6.599120
 20
3.370840
  0
VERTEX
  8
0
  6
CONTINUOUS
 10
6.600000
 20
4.119280
  0
VERTEX
  8
0
  6
CONTINUOUS
 10
6.644440
 20
4.097720
  0
VERTEX
  8
0
  6
CONTINUOUS
 10
6.643560
 20
3.349280
  0
VERTEX
  8
0
  6
CONTINUOUS
 10
6.599120
 20
3.370840
  0
SEQEND
  8
0
  0
SOLID
  8
0
 62
    15
 10
6.643560
 20
3.349280
 11
6.644440
 21
4.097720
 12
6.688000
 22
3.335200
 13
6.688880
 23
4.084080
  0
POLYLINE
  8
0
  6
CONTINUOUS
 66
     1
 40
0.000000
 41
0.000000
  0
VERTEX
  8
0
  6
CONTINUOUS
 10
6.643560
 20
3.349280
  0
VERTEX
  8
0
  6
CONTINUOUS
 10
6.644440
 20
4.097720
  0
VERTEX
  8
0
  6
CONTINUOUS
 10
6.688880
 20
4.084080
  0
VERTEX
  8
0
  6
CONTINUOUS
 10
6.688000
 20
3.335200
  0
VERTEX
  8
0
  6
CONTINUOUS
 10
6.643560
 20
3.349280
  0
SEQEND
  8
0
  0
SOLID
  8
0
 62
    15
 10
6.688000
 20
3.335200
 11
6.688880
 21
4.084080
 12
6.729800
 22
3.327720
 13
6.730680
 23
4.076160
  0
POLYLINE
  8
0
  6
CONTINUOUS
 66
     1
 40
0.000000
 41
0.000000
  0
VERTEX
  8
0
  6
CONTINUOUS
 10
6.688000
 20
3.335200
  0
VERTEX
  8
0
  6
CONTINUOUS
 10
6.688880
 20
4.084080
  0
VERTEX
  8
0
  6
CONTINUOUS
 10
6.730680
 20
4.076160
  0
VERTEX
  8
0
  6
CONTINUOUS
 10
6.729800
 20
3.327720
  0
VERTEX
  8
0
  6
CONTINUOUS
 10
6.688000
 20
3.335200
  0
SEQEND
  8
0
  0
SOLID
  8
0
 62
    15
 10
6.729800
 20
3.327720
 11
6.730680
 21
4.076160
 12
6.768080
 22
3.324200
 13
6.768960
 23
4.072640
  0
POLYLINE
  8
0
  6
CONTINUOUS
 66
     1
 40
0.000000
 41
0.000000
  0
VERTEX
  8
0
  6
CONTINUOUS
 10
6.729800
 20
3.327720
  0
VERTEX
  8
0
  6
CONTINUOUS
 10
6.730680
 20
4.076160
  0
VERTEX
  8
0
  6
CONTINUOUS
 10
6.768960
 20
4.072640
  0
VERTEX
  8
0
  6
CONTINUOUS
 10
6.768080
 20
3.324200
  0
VERTEX
  8
0
  6
CONTINUOUS
 10
6.729800
 20
3.327720
  0
SEQEND
  8
0
  0
SOLID
  8
0
 62
    15
 10
6.768080
 20
3.324200
 11
6.768960
 21
4.072640
 12
6.800200
 22
3.323320
 13
6.801080
 23
4.072200
  0
POLYLINE
  8
0
  6
CONTINUOUS
 66
     1
 40
0.000000
 41
0.000000
  0
VERTEX
  8
0
  6
CONTINUOUS
 10
6.768080
 20
3.324200
  0
VERTEX
  8
0
  6
CONTINUOUS
 10
6.768960
 20
4.072640
  0
VERTEX
  8
0
  6
CONTINUOUS
 10
6.801080
 20
4.072200
  0
VERTEX
  8
0
  6
CONTINUOUS
 10
6.800200
 20
3.323320
  0
VERTEX
  8
0
  6
CONTINUOUS
 10
6.768080
 20
3.324200
  0
SEQEND
  8
0
  0
SOLID
  8
0
 62
    15
 10
6.825280
 20
3.323320
 11
6.826160
 21
4.072200
 12
6.825280
 22
3.148200
 13
6.826160
 23
3.896640
  0
POLYLINE
  8
0
  6
CONTINUOUS
 66
     1
 40
0.000000
 41
0.000000
  0
VERTEX
  8
0
  6
CONTINUOUS
 10
6.825280
 20
3.323320
  0
VERTEX
  8
0
  6
CONTINUOUS
 10
6.826160
 20
4.072200
  0
VERTEX
  8
0
  6
CONTINUOUS
 10
6.826160
 20
3.896640
  0
VERTEX
  8
0
  6
CONTINUOUS
 10
6.825280
 20
3.148200
  0
VERTEX
  8
0
  6
CONTINUOUS
 10
6.825280
 20
3.323320
  0
SEQEND
  8
0
  0
SOLID
  8
0
 62
    15
 10
6.800200
 20
3.323320
 11
6.801080
 21
4.072200
 12
6.825280
 22
3.323320
 13
6.826160
 23
4.072200
  0
POLYLINE
  8
0
  6
CONTINUOUS
 66
     1
 40
0.000000
 41
0.000000
  0
VERTEX
  8
0
  6
CONTINUOUS
 10
6.800200
 20
3.323320
  0
VERTEX
  8
0
  6
CONTINUOUS
 10
6.801080
 20
4.072200
  0
VERTEX
  8
0
  6
CONTINUOUS
 10
6.826160
 20
4.072200
  0
VERTEX
  8
0
  6
CONTINUOUS
 10
6.825280
 20
3.323320
  0
VERTEX
  8
0
  6
CONTINUOUS
 10
6.800200
 20
3.323320
  0
SEQEND
  8
0
  0
SOLID
  8
0
 62
    15
 10
2.327600
 20
4.157120
 11
2.328920
 21
4.906000
 12
3.051840
 22
4.157120
 13
3.052720
 23
4.906000
  0
POLYLINE
  8
0
  6
CONTINUOUS
 66
     1
 40
0.000000
 41
0.000000
  0
VERTEX
  8
0
  6
CONTINUOUS
 10
2.327600
 20
4.157120
  0
VERTEX
  8
0
  6
CONTINUOUS
 10
2.328920
 20
4.906000
  0
VERTEX
  8
0
  6
CONTINUOUS
 10
3.052720
 20
4.906000
  0
VERTEX
  8
0
  6
CONTINUOUS
 10
3.051840
 20
4.157120
  0
VERTEX
  8
0
  6
CONTINUOUS
 10
2.327600
 20
4.157120
  0
SEQEND
  8
0
  0
POLYLINE
  8
0
  6
CONTINUOUS
 66
     1
 40
0.000000
 41
0.000000
  0
VERTEX
  8
0
  6
CONTINUOUS
 10
3.051840
 20
4.157120
  0
VERTEX
  8
0
  6
CONTINUOUS
 10
3.051840
 20
3.879480
  0
VERTEX
  8
0
  6
CONTINUOUS
 10
3.187360
 20
3.879480
  0
VERTEX
  8
0
  6
CONTINUOUS
 10
3.190440
 20
3.905880
  0
VERTEX
  8
0
  6
CONTINUOUS
 10
3.199240
 20
3.935360
  0
VERTEX
  8
0
  6
CONTINUOUS
 10
3.213760
 20
3.966600
  0
VERTEX
  8
0
  6
CONTINUOUS
 10
3.234000
 20
3.998720
  0
VERTEX
  8
0
  6
CONTINUOUS
 10
3.259080
 20
4.030400
  0
VERTEX
  8
0
  6
CONTINUOUS
 10
3.289880
 20
4.060760
  0
VERTEX
  8
0
  6
CONTINUOUS
 10
3.325520
 20
4.088920
  0
VERTEX
  8
0
  6
CONTINUOUS
 10
3.366000
 20
4.113560
  0
VERTEX
  8
0
  6
CONTINUOUS
 10
3.411320
 20
4.133800
  0
VERTEX
  8
0
  6
CONTINUOUS
 10
3.461040
 20
4.148760
  0
VERTEX
  8
0
  6
CONTINUOUS
 10
3.515600
 20
4.157120
  0
VERTEX
  8
0
  6
CONTINUOUS
 10
3.574120
 20
4.157560
  0
VERTEX
  8
0
  6
CONTINUOUS
 10
3.636600
 20
4.149640
  0
VERTEX
  8
0
  6
CONTINUOUS
 10
3.703040
 20
4.131600
  0
VERTEX
  8
0
  6
CONTINUOUS
 10
3.773440
 20
4.103000
  0
VERTEX
  8
0
  6
CONTINUOUS
 10
3.847800
 20
4.062520
  0
VERTEX
  8
0
  6
CONTINUOUS
 10
3.922160
 20
4.018960
  0
VERTEX
  8
0
  6
CONTINUOUS
 10
3.994760
 20
3.981560
  0
VERTEX
  8
0
  6
CONTINUOUS
 10
4.064720
 20
3.949440
  0
VERTEX
  8
0
  6
CONTINUOUS
 10
4.132040
 20
3.922160
  0
VERTEX
  8
0
  6
CONTINUOUS
 10
4.196280
 20
3.899720
  0
VERTEX
  8
0
  6
CONTINUOUS
 10
4.257440
 20
3.881680
  0
VERTEX
  8
0
  6
CONTINUOUS
 10
4.314640
 20
3.867160
  0
VERTEX
  8
0
  6
CONTINUOUS
 10
4.368760
 20
3.856160
  0
VERTEX
  8
0
  6
CONTINUOUS
 10
4.418040
 20
3.848240
  0
VERTEX
  8
0
  6
CONTINUOUS
 10
4.463360
 20
3.842520
  0
VERTEX
  8
0
  6
CONTINUOUS
 10
4.504280
 20
3.839000
  0
VERTEX
  8
0
  6
CONTINUOUS
 10
4.571160
 20
3.836360
  0
VERTEX
  8
0
  6
CONTINUOUS
 10
4.631000
 20
3.837680
  0
VERTEX
  8
0
  6
CONTINUOUS
 10
4.631000
 20
3.715800
  0
VERTEX
  8
0
  6
CONTINUOUS
 10
6.198280
 20
3.715800
  0
VERTEX
  8
0
  6
CONTINUOUS
 10
6.198280
 20
3.567080
  0
VERTEX
  8
0
  6
CONTINUOUS
 10
6.220280
 20
3.569280
  0
VERTEX
  8
0
  6
CONTINUOUS
 10
6.251960
 20
3.569280
  0
VERTEX
  8
0
  6
CONTINUOUS
 10
6.291120
 20
3.565760
  0
VERTEX
  8
0
  6
CONTINUOUS
 10
6.335120
 20
3.557400
  0
VERTEX
  8
0
  6
CONTINUOUS
 10
6.381760
 20
3.542440
  0
VERTEX
  8
0
  6
CONTINUOUS
 10
6.429280
 20
3.519560
  0
VERTEX
  8
0
  6
CONTINUOUS
 10
6.474160
 20
3.487440
  0
VERTEX
  8
0
  6
CONTINUOUS
 10
6.555560
 20
3.402080
  0
VERTEX
  8
0
  6
CONTINUOUS
 10
6.599120
 20
3.370840
  0
VERTEX
  8
0
  6
CONTINUOUS
 10
6.643560
 20
3.349280
  0
VERTEX
  8
0
  6
CONTINUOUS
 10
6.688000
 20
3.335200
  0
VERTEX
  8
0
  6
CONTINUOUS
 10
6.729800
 20
3.327720
  0
VERTEX
  8
0
  6
CONTINUOUS
 10
6.768080
 20
3.324200
  0
VERTEX
  8
0
  6
CONTINUOUS
 10
6.825280
 20
3.323320
  0
VERTEX
  8
0
  6
CONTINUOUS
 10
6.825280
 20
3.148200
  0
VERTEX
  8
0
  6
CONTINUOUS
 10
2.327600
 20
3.148200
  0
VERTEX
  8
0
  6
CONTINUOUS
 10
2.327600
 20
4.157120
  0
VERTEX
  8
0
  6
CONTINUOUS
 10
3.051840
 20
4.157120
  0
SEQEND
  8
0
  0
TEXT
  8
0
 10
4.097720
 20
2.881120
 40
0.138076
  1
BA  1107
 41
1.000000
  7
SN0
 71
     0
 72
     5
 11
4.780497
 21
2.881120
  0
TEXT
  8
0
 10
4.097720
 20
2.689280
 40
0.138076
  1
1" x 4-1/2" 
 41
1.000000
  7
SN0
 71
     0
 72
     5
 11
4.906468
 21
2.689280
  0
POLYLINE
  8
0
  6
CONTINUOUS
 66
     1
 40
0.014080
 41
0.014080
  0
VERTEX
  8
0
  6
CONTINUOUS
 10
3.069880
 20
2.692800
  0
VERTEX
  8
0
  6
CONTINUOUS
 10
3.069880
 20
2.414720
  0
VERTEX
  8
0
  6
CONTINUOUS
 10
3.205840
 20
2.414720
  0
VERTEX
  8
0
  6
CONTINUOUS
 10
3.208920
 20
2.441120
  0
VERTEX
  8
0
  6
CONTINUOUS
 10
3.217720
 20
2.470600
  0
VERTEX
  8
0
  6
CONTINUOUS
 10
3.232240
 20
2.501840
  0
VERTEX
  8
0
  6
CONTINUOUS
 10
3.252040
 20
2.533960
  0
VERTEX
  8
0
  6
CONTINUOUS
 10
3.263920
 20
2.550240
  0
VERTEX
  8
0
  6
CONTINUOUS
 10
3.292080
 20
2.581480
  0
VERTEX
  8
0
  6
CONTINUOUS
 10
3.325080
 20
2.610960
  0
VERTEX
  8
0
  6
CONTINUOUS
 10
3.363360
 20
2.637360
  0
VERTEX
  8
0
  6
CONTINUOUS
 10
3.384040
 20
2.649240
  0
VERTEX
  8
0
  6
CONTINUOUS
 10
3.429360
 20
2.669480
  0
VERTEX
  8
0
  6
CONTINUOUS
 10
3.479520
 20
2.684000
  0
VERTEX
  8
0
  6
CONTINUOUS
 10
3.505920
 20
2.689280
  0
VERTEX
  8
0
  6
CONTINUOUS
 10
3.533640
 20
2.692360
  0
VERTEX
  8
0
  6
CONTINUOUS
 10
3.562240
 20
2.693680
  0
VERTEX
  8
0
  6
CONTINUOUS
 10
3.607560
 20
2.691920
  0
VERTEX
  8
0
  6
CONTINUOUS
 10
3.654640
 20
2.684880
  0
VERTEX
  8
0
  6
CONTINUOUS
 10
3.704360
 20
2.672560
  0
VERTEX
  8
0
  6
CONTINUOUS
 10
3.756280
 20
2.654080
  0
VERTEX
  8
0
  6
CONTINUOUS
 10
3.809960
 20
2.629440
  0
VERTEX
  8
0
  6
CONTINUOUS
 10
3.865840
 20
2.598200
  0
VERTEX
  8
0
  6
CONTINUOUS
 10
3.940640
 20
2.554640
  0
VERTEX
  8
0
  6
CONTINUOUS
 10
4.013240
 20
2.517240
  0
VERTEX
  8
0
  6
CONTINUOUS
 10
4.083200
 20
2.485120
  0
VERTEX
  8
0
  6
CONTINUOUS
 10
4.150080
 20
2.457840
  0
VERTEX
  8
0
  6
CONTINUOUS
 10
4.214320
 20
2.435400
  0
VERTEX
  8
0
  6
CONTINUOUS
 10
4.304520
 20
2.409880
  0
VERTEX
  8
0
  6
CONTINUOUS
 10
4.386800
 20
2.391840
  0
VERTEX
  8
0
  6
CONTINUOUS
 10
4.459400
 20
2.380840
  0
VERTEX
  8
0
  6
CONTINUOUS
 10
4.541240
 20
2.373360
  0
VERTEX
  8
0
  6
CONTINUOUS
 10
4.614720
 20
2.372040
  0
VERTEX
  8
0
  6
CONTINUOUS
 10
4.649040
 20
2.372920
  0
VERTEX
  8
0
  6
CONTINUOUS
 10
4.649040
 20
2.251040
  0
VERTEX
  8
0
  6
CONTINUOUS
 10
6.216320
 20
2.251040
  0
VERTEX
  8
0
  6
CONTINUOUS
 10
6.216320
 20
2.102760
  0
VERTEX
  8
0
  6
CONTINUOUS
 10
6.253280
 20
2.105400
  0
VERTEX
  8
0
  6
CONTINUOUS
 10
6.288920
 20
2.103640
  0
VERTEX
  8
0
  6
CONTINUOUS
 10
6.330720
 20
2.097920
  0
VERTEX
  8
0
  6
CONTINUOUS
 10
6.376480
 20
2.086480
  0
VERTEX
  8
0
  6
CONTINUOUS
 10
6.400240
 20
2.078120
  0
VERTEX
  8
0
  6
CONTINUOUS
 10
6.424000
 20
2.067560
  0
VERTEX
  8
0
  6
CONTINUOUS
 10
6.458760
 20
2.048200
  0
VERTEX
  8
0
  6
CONTINUOUS
 10
6.492640
 20
2.023120
  0
VERTEX
  8
0
  6
CONTINUOUS
 10
6.523880
 20
1.991880
  0
VERTEX
  8
0
  6
CONTINUOUS
 10
6.553360
 20
1.957120
  0
VERTEX
  8
0
  6
CONTINUOUS
 10
6.573600
 20
1.937320
  0
VERTEX
  8
0
  6
CONTINUOUS
 10
6.606160
 20
1.913120
  0
VERTEX
  8
0
  6
CONTINUOUS
 10
6.639600
 20
1.894200
  0
VERTEX
  8
0
  6
CONTINUOUS
 10
6.662040
 20
1.884520
  0
VERTEX
  8
0
  6
CONTINUOUS
 10
6.706040
 20
1.870880
  0
VERTEX
  8
0
  6
CONTINUOUS
 10
6.748280
 20
1.862960
  0
VERTEX
  8
0
  6
CONTINUOUS
 10
6.803280
 20
1.859000
  0
VERTEX
  8
0
  6
CONTINUOUS
 10
6.843320
 20
1.859000
  0
VERTEX
  8
0
  6
CONTINUOUS
 10
6.843320
 20
1.683880
  0
VERTEX
  8
0
  6
CONTINUOUS
 10
2.346080
 20
1.683880
  0
VERTEX
  8
0
  6
CONTINUOUS
 10
2.346080
 20
2.692800
  0
VERTEX
  8
0
  6
CONTINUOUS
 10
3.069880
 20
2.692800
  0
SEQEND
  8
0
  0
TEXT
  8
0
 10
2.659360
 20
1.992760
 40
0.138076
  1
BA  1107
 41
1.000000
  7
SN0
 71
     0
 72
     5
 11
3.342137
 21
1.992760
  0
TEXT
  8
0
 10
2.659360
 20
1.801360
 40
0.138076
  1
1" x 4-1/2" 
 41
1.000000
  7
SN0
 71
     0
 72
     5
 11
3.468108
 21
1.801360
  0
ENDSEC
  0
EOF
