  0
SECTION
  2
HEADER
  9
$ACADVER
  1
AC1006
  9
$EXTMIN
 10
3.551818
 20
0.588488
  9
$EXTMAX
 10
12.436836
 20
5.644108
  9
$LTSCALE
 40
0.049745
  9
$PDMODE
 70
    35
  9
$PDSIZE
 40
0.039796
  0
ENDSEC
  0
SECTION
  2
TABLES
  0
TABLE
  2
LTYPE
 70
     9
  0
LTYPE
  2
CONTINUOUS
 70
    64
  3
Solid line
 72
    65
 73
     0
 40
0.000000
  0
LTYPE
  2
DASHED
 70
    64
  3
__ __ __ __ __ __ __ __ __ __ __ __ __ __ __
 72
    65
 73
     2
 40
0.000373
 49
0.000249
 49
-0.000124
  0
LTYPE
  2
HIDDEN
 70
    64
  3
 _ _ _ _ _ _ _ _ _ _ _ _ _ _ _ _ _ _ _ _ _ _
 72
    65
 73
     2
 40
0.000187
 49
0.000124
 49
-0.000062
  0
LTYPE
  2
CENTER
 70
    64
  3
____ _ ____ _ ____ _ ____ _ ____ _ ____ _ ____
 72
    65
 73
     4
 40
0.000995
 49
0.000622
 49
-0.000124
 49
0.000124
 49
-0.000124
  0
LTYPE
  2
PHANTOM
 70
    64
  3
_____ _ _ _____ _ _ _____ _ _ _____ _ _ ____
 72
    65
 73
     6
 40
0.001244
 49
0.000622
 49
-0.000124
 49
0.000124
 49
-0.000124
 49
0.000124
 49
-0.000124
  0
LTYPE
  2
DOT
 70
    64
  3
...............................................
 72
    65
 73
     2
 40
0.000124
 49
0.000000
 49
-0.000124
  0
LTYPE
  2
DASHDOT
 70
    64
  3
__ . __ . __ . __ . __ . __ . __ . __ . __ . __
 72
    65
 73
     4
 40
0.000497
 49
0.000249
 49
-0.000124
 49
0.000000
 49
-0.000124
  0
LTYPE
  2
BORDER
 70
    64
  3
__ __ . __ __ . __ __ . __ __ . __ __ . __ __
 72
    65
 73
     6
 40
0.000871
 49
0.000249
 49
-0.000124
 49
0.000249
 49
-0.000124
 49
0.000000
 49
-0.000124
  0
LTYPE
  2
DIVIDE
 70
    64
  3
__ . . __ . . __ . . __ . . __ . . __ . . __
 72
    65
 73
     6
 40
0.000622
 49
0.000249
 49
-0.000124
 49
0.000000
 49
-0.000124
 49
0.000000
 49
-0.000124
  0
LTYPE
  2
DOTDOT
 70
    64
  3
 . .  . .  . .  . .  . .  . . 
 72
    65
 73
     5
 40
0.000274
 49
-0.000124
 49
0.000000
 49
-0.000124
 49
0.000000
 49
-0.000124
  0
ENDTAB
  0
TABLE
  2
STYLE
 70
     2
  0
STYLE
 70
     0
  2
SN0
 40
0.000000
 41
0.000497
 50
0.000000
 71
     0
 42
0.000000
  3
ROMAND
  0
STYLE
 70
    68
  2
SV0
 40
0.000000
 41
0.000497
 50
0.000000
 71
     0
 42
0.000000
  3
ROMAND
  0
ENDTAB
  0
TABLE
  2
LAYER
 70
     3
  0
LAYER
  2
FOREGROUND
 70
    64
 62
     7
  6
CONTINUOUS
  0
LAYER
  2
BACKGROUND
 70
    65
 62
    -7
  6
CONTINUOUS
  0
LAYER
  2
0
 70
    64
 62
     7
  6
CONTINUOUS
  0
ENDTAB
  0
ENDSEC
  0
SECTION
  2
ENTITIES
  0
POLYLINE
  8
FOREGROUND
  6
CONTINUOUS
 66
     1
 40
0.000000
 41
0.000000
  0
VERTEX
  8
FOREGROUND
  6
CONTINUOUS
 10
0.000000
 20
6.232595
  0
VERTEX
  8
FOREGROUND
  6
CONTINUOUS
 10
8.499989
 20
6.232595
  0
VERTEX
  8
FOREGROUND
  6
CONTINUOUS
 10
8.499989
 20
-4.767595
  0
VERTEX
  8
FOREGROUND
  6
CONTINUOUS
 10
0.000000
 20
-4.767595
  0
VERTEX
  8
FOREGROUND
  6
CONTINUOUS
 10
0.000000
 20
6.232595
  0
SEQEND
  8
0
  0
POLYLINE
  8
FOREGROUND
  6
CONTINUOUS
 66
     1
 40
0.000000
 41
0.000000
  0
VERTEX
  8
FOREGROUND
  6
CONTINUOUS
 10
0.000000
 20
6.232595
  0
VERTEX
  8
FOREGROUND
  6
CONTINUOUS
 10
8.499989
 20
6.232595
  0
VERTEX
  8
FOREGROUND
  6
CONTINUOUS
 10
8.499989
 20
-4.767595
  0
VERTEX
  8
FOREGROUND
  6
CONTINUOUS
 10
0.000000
 20
-4.767595
  0
VERTEX
  8
FOREGROUND
  6
CONTINUOUS
 10
0.000000
 20
6.232595
  0
SEQEND
  8
0
  0
POLYLINE
  8
0
  6
CONTINUOUS
 66
     1
 40
0.000000
 41
0.000000
  0
VERTEX
  8
0
  6
CONTINUOUS
 10
11.700605
 20
2.030605
  0
VERTEX
  8
0
  6
CONTINUOUS
 10
11.700605
 20
2.246500
  0
VERTEX
  8
0
  6
CONTINUOUS
 10
11.455360
 20
2.246500
  0
VERTEX
  8
0
  6
CONTINUOUS
 10
11.455360
 20
2.503186
  0
VERTEX
  8
0
  6
CONTINUOUS
 10
11.192705
 20
2.503186
  0
VERTEX
  8
0
  6
CONTINUOUS
 10
11.192705
 20
0.588488
  0
VERTEX
  8
0
  6
CONTINUOUS
 10
12.436339
 20
0.588488
  0
VERTEX
  8
0
  6
CONTINUOUS
 10
12.436339
 20
0.868554
  0
VERTEX
  8
0
  6
CONTINUOUS
 10
12.278646
 20
0.868554
  0
VERTEX
  8
0
  6
CONTINUOUS
 10
12.278646
 20
0.927253
  0
VERTEX
  8
0
  6
CONTINUOUS
 10
12.300036
 20
0.929741
  0
VERTEX
  8
0
  6
CONTINUOUS
 10
12.320432
 20
0.936208
  0
VERTEX
  8
0
  6
CONTINUOUS
 10
12.339833
 20
0.947152
  0
VERTEX
  8
0
  6
CONTINUOUS
 10
12.357741
 20
0.961578
  0
VERTEX
  8
0
  6
CONTINUOUS
 10
12.374157
 20
0.979983
  0
VERTEX
  8
0
  6
CONTINUOUS
 10
12.395547
 20
1.014308
  0
VERTEX
  8
0
  6
CONTINUOUS
 10
12.412461
 20
1.055099
  0
VERTEX
  8
0
  6
CONTINUOUS
 10
12.421415
 20
1.086439
  0
VERTEX
  8
0
  6
CONTINUOUS
 10
12.428379
 20
1.119768
  0
VERTEX
  8
0
  6
CONTINUOUS
 10
12.433354
 20
1.173990
  0
VERTEX
  8
0
  6
CONTINUOUS
 10
12.433851
 20
1.212792
  0
VERTEX
  8
0
  6
CONTINUOUS
 10
12.429374
 20
1.273979
  0
VERTEX
  8
0
  6
CONTINUOUS
 10
12.417933
 20
1.338647
  0
VERTEX
  8
0
  6
CONTINUOUS
 10
12.399030
 20
1.405306
  0
VERTEX
  8
0
  6
CONTINUOUS
 10
12.372665
 20
1.473955
  0
VERTEX
  8
0
  6
CONTINUOUS
 10
12.337843
 20
1.543101
  0
VERTEX
  8
0
  6
CONTINUOUS
 10
12.294067
 20
1.612247
  0
VERTEX
  8
0
  6
CONTINUOUS
 10
12.241337
 20
1.680398
  0
VERTEX
  8
0
  6
CONTINUOUS
 10
12.178658
 20
1.747057
  0
VERTEX
  8
0
  6
CONTINUOUS
 10
12.131400
 20
1.790335
  0
VERTEX
  8
0
  6
CONTINUOUS
 10
12.079167
 20
1.832619
  0
VERTEX
  8
0
  6
CONTINUOUS
 10
11.991615
 20
1.892811
  0
VERTEX
  8
0
  6
CONTINUOUS
 10
11.926946
 20
1.930617
  0
VERTEX
  8
0
  6
CONTINUOUS
 10
11.856805
 20
1.966434
  0
VERTEX
  8
0
  6
CONTINUOUS
 10
11.781690
 20
1.999763
  0
VERTEX
  8
0
  6
CONTINUOUS
 10
11.700605
 20
2.030605
  0
SEQEND
  8
0
  0
POLYLINE
  8
0
  6
CONTINUOUS
 66
     1
 40
0.000000
 41
0.000000
  0
VERTEX
  8
0
  6
CONTINUOUS
 10
9.813764
 20
4.362170
  0
VERTEX
  8
0
  6
CONTINUOUS
 10
9.813764
 20
4.578065
  0
VERTEX
  8
0
  6
CONTINUOUS
 10
10.059008
 20
4.578065
  0
VERTEX
  8
0
  6
CONTINUOUS
 10
10.059008
 20
4.835248
  0
VERTEX
  8
0
  6
CONTINUOUS
 10
10.321664
 20
4.835248
  0
VERTEX
  8
0
  6
CONTINUOUS
 10
10.321664
 20
2.920550
  0
VERTEX
  8
0
  6
CONTINUOUS
 10
9.078030
 20
2.920550
  0
VERTEX
  8
0
  6
CONTINUOUS
 10
9.078030
 20
3.200616
  0
VERTEX
  8
0
  6
CONTINUOUS
 10
9.235722
 20
3.200616
  0
VERTEX
  8
0
  6
CONTINUOUS
 10
9.235722
 20
3.258818
  0
VERTEX
  8
0
  6
CONTINUOUS
 10
9.214332
 20
3.261305
  0
VERTEX
  8
0
  6
CONTINUOUS
 10
9.193936
 20
3.267772
  0
VERTEX
  8
0
  6
CONTINUOUS
 10
9.174536
 20
3.278716
  0
VERTEX
  8
0
  6
CONTINUOUS
 10
9.156627
 20
3.293142
  0
VERTEX
  8
0
  6
CONTINUOUS
 10
9.140211
 20
3.311548
  0
VERTEX
  8
0
  6
CONTINUOUS
 10
9.118821
 20
3.345873
  0
VERTEX
  8
0
  6
CONTINUOUS
 10
9.101907
 20
3.386664
  0
VERTEX
  8
0
  6
CONTINUOUS
 10
9.092953
 20
3.418003
  0
VERTEX
  8
0
  6
CONTINUOUS
 10
9.085989
 20
3.451333
  0
VERTEX
  8
0
  6
CONTINUOUS
 10
9.081014
 20
3.505555
  0
VERTEX
  8
0
  6
CONTINUOUS
 10
9.080517
 20
3.544356
  0
VERTEX
  8
0
  6
CONTINUOUS
 10
9.084994
 20
3.605543
  0
VERTEX
  8
0
  6
CONTINUOUS
 10
9.096435
 20
3.670212
  0
VERTEX
  8
0
  6
CONTINUOUS
 10
9.115339
 20
3.736871
  0
VERTEX
  8
0
  6
CONTINUOUS
 10
9.141704
 20
3.805520
  0
VERTEX
  8
0
  6
CONTINUOUS
 10
9.176526
 20
3.874666
  0
VERTEX
  8
0
  6
CONTINUOUS
 10
9.220301
 20
3.943812
  0
VERTEX
  8
0
  6
CONTINUOUS
 10
9.273032
 20
4.011963
  0
VERTEX
  8
0
  6
CONTINUOUS
 10
9.335711
 20
4.078622
  0
VERTEX
  8
0
  6
CONTINUOUS
 10
9.382969
 20
4.121900
  0
VERTEX
  8
0
  6
CONTINUOUS
 10
9.435201
 20
4.164184
  0
VERTEX
  8
0
  6
CONTINUOUS
 10
9.522753
 20
4.224375
  0
VERTEX
  8
0
  6
CONTINUOUS
 10
9.587422
 20
4.262182
  0
VERTEX
  8
0
  6
CONTINUOUS
 10
9.657563
 20
4.297999
  0
VERTEX
  8
0
  6
CONTINUOUS
 10
9.732679
 20
4.331328
  0
VERTEX
  8
0
  6
CONTINUOUS
 10
9.813764
 20
4.362170
  0
SEQEND
  8
0
  0
POLYLINE
  8
0
  6
CONTINUOUS
 66
     1
 40
0.000000
 41
0.000000
  0
VERTEX
  8
0
  6
CONTINUOUS
 10
11.684189
 20
4.362170
  0
VERTEX
  8
0
  6
CONTINUOUS
 10
11.684189
 20
4.578065
  0
VERTEX
  8
0
  6
CONTINUOUS
 10
11.929433
 20
4.578065
  0
VERTEX
  8
0
  6
CONTINUOUS
 10
11.929433
 20
4.835248
  0
VERTEX
  8
0
  6
CONTINUOUS
 10
12.192089
 20
4.835248
  0
VERTEX
  8
0
  6
CONTINUOUS
 10
12.192089
 20
2.920550
  0
VERTEX
  8
0
  6
CONTINUOUS
 10
10.948952
 20
2.920550
  0
VERTEX
  8
0
  6
CONTINUOUS
 10
10.948952
 20
3.200616
  0
VERTEX
  8
0
  6
CONTINUOUS
 10
11.106645
 20
3.200616
  0
VERTEX
  8
0
  6
CONTINUOUS
 10
11.106645
 20
3.258818
  0
VERTEX
  8
0
  6
CONTINUOUS
 10
11.085255
 20
3.261305
  0
VERTEX
  8
0
  6
CONTINUOUS
 10
11.064859
 20
3.267772
  0
VERTEX
  8
0
  6
CONTINUOUS
 10
11.045458
 20
3.278716
  0
VERTEX
  8
0
  6
CONTINUOUS
 10
11.027550
 20
3.293142
  0
VERTEX
  8
0
  6
CONTINUOUS
 10
11.011134
 20
3.311548
  0
VERTEX
  8
0
  6
CONTINUOUS
 10
10.989744
 20
3.345873
  0
VERTEX
  8
0
  6
CONTINUOUS
 10
10.972830
 20
3.386664
  0
VERTEX
  8
0
  6
CONTINUOUS
 10
10.963876
 20
3.418003
  0
VERTEX
  8
0
  6
CONTINUOUS
 10
10.956912
 20
3.451333
  0
VERTEX
  8
0
  6
CONTINUOUS
 10
10.951937
 20
3.505555
  0
VERTEX
  8
0
  6
CONTINUOUS
 10
10.951440
 20
3.544356
  0
VERTEX
  8
0
  6
CONTINUOUS
 10
10.955917
 20
3.605543
  0
VERTEX
  8
0
  6
CONTINUOUS
 10
10.967358
 20
3.670212
  0
VERTEX
  8
0
  6
CONTINUOUS
 10
10.986262
 20
3.736871
  0
VERTEX
  8
0
  6
CONTINUOUS
 10
11.012627
 20
3.805520
  0
VERTEX
  8
0
  6
CONTINUOUS
 10
11.047448
 20
3.874666
  0
VERTEX
  8
0
  6
CONTINUOUS
 10
11.090727
 20
3.943812
  0
VERTEX
  8
0
  6
CONTINUOUS
 10
11.143954
 20
4.011963
  0
VERTEX
  8
0
  6
CONTINUOUS
 10
11.184248
 20
4.056734
  0
VERTEX
  8
0
  6
CONTINUOUS
 10
11.253892
 20
4.121900
  0
VERTEX
  8
0
  6
CONTINUOUS
 10
11.306124
 20
4.164184
  0
VERTEX
  8
0
  6
CONTINUOUS
 10
11.393179
 20
4.224375
  0
VERTEX
  8
0
  6
CONTINUOUS
 10
11.457847
 20
4.262182
  0
VERTEX
  8
0
  6
CONTINUOUS
 10
11.527988
 20
4.297999
  0
VERTEX
  8
0
  6
CONTINUOUS
 10
11.603104
 20
4.331328
  0
VERTEX
  8
0
  6
CONTINUOUS
 10
11.684189
 20
4.362170
  0
SEQEND
  8
0
  0
POLYLINE
  8
0
  6
CONTINUOUS
 66
     1
 40
0.000000
 41
0.000000
  0
VERTEX
  8
0
  6
CONTINUOUS
 10
9.613290
 20
2.030605
  0
VERTEX
  8
0
  6
CONTINUOUS
 10
9.613290
 20
2.246500
  0
VERTEX
  8
0
  6
CONTINUOUS
 10
9.368045
 20
2.246500
  0
VERTEX
  8
0
  6
CONTINUOUS
 10
9.368045
 20
2.503186
  0
VERTEX
  8
0
  6
CONTINUOUS
 10
9.105390
 20
2.503186
  0
VERTEX
  8
0
  6
CONTINUOUS
 10
9.105390
 20
0.588488
  0
VERTEX
  8
0
  6
CONTINUOUS
 10
10.348526
 20
0.588488
  0
VERTEX
  8
0
  6
CONTINUOUS
 10
10.348526
 20
0.869051
  0
VERTEX
  8
0
  6
CONTINUOUS
 10
10.190833
 20
0.869051
  0
VERTEX
  8
0
  6
CONTINUOUS
 10
10.190833
 20
0.927253
  0
VERTEX
  8
0
  6
CONTINUOUS
 10
10.212224
 20
0.929741
  0
VERTEX
  8
0
  6
CONTINUOUS
 10
10.232619
 20
0.936208
  0
VERTEX
  8
0
  6
CONTINUOUS
 10
10.252020
 20
0.947152
  0
VERTEX
  8
0
  6
CONTINUOUS
 10
10.269928
 20
0.961578
  0
VERTEX
  8
0
  6
CONTINUOUS
 10
10.286344
 20
0.979983
  0
VERTEX
  8
0
  6
CONTINUOUS
 10
10.307735
 20
1.014308
  0
VERTEX
  8
0
  6
CONTINUOUS
 10
10.324648
 20
1.055099
  0
VERTEX
  8
0
  6
CONTINUOUS
 10
10.333602
 20
1.086439
  0
VERTEX
  8
0
  6
CONTINUOUS
 10
10.340567
 20
1.119768
  0
VERTEX
  8
0
  6
CONTINUOUS
 10
10.345541
 20
1.173990
  0
VERTEX
  8
0
  6
CONTINUOUS
 10
10.346039
 20
1.212792
  0
VERTEX
  8
0
  6
CONTINUOUS
 10
10.341562
 20
1.273979
  0
VERTEX
  8
0
  6
CONTINUOUS
 10
10.330120
 20
1.338647
  0
VERTEX
  8
0
  6
CONTINUOUS
 10
10.311217
 20
1.405306
  0
VERTEX
  8
0
  6
CONTINUOUS
 10
10.284852
 20
1.473955
  0
VERTEX
  8
0
  6
CONTINUOUS
 10
10.250030
 20
1.543101
  0
VERTEX
  8
0
  6
CONTINUOUS
 10
10.206752
 20
1.612247
  0
VERTEX
  8
0
  6
CONTINUOUS
 10
10.153524
 20
1.680398
  0
VERTEX
  8
0
  6
CONTINUOUS
 10
10.113231
 20
1.725169
  0
VERTEX
  8
0
  6
CONTINUOUS
 10
10.043587
 20
1.790335
  0
VERTEX
  8
0
  6
CONTINUOUS
 10
9.991354
 20
1.832619
  0
VERTEX
  8
0
  6
CONTINUOUS
 10
9.904300
 20
1.892811
  0
VERTEX
  8
0
  6
CONTINUOUS
 10
9.839631
 20
1.930617
  0
VERTEX
  8
0
  6
CONTINUOUS
 10
9.769490
 20
1.966434
  0
VERTEX
  8
0
  6
CONTINUOUS
 10
9.694375
 20
1.999763
  0
VERTEX
  8
0
  6
CONTINUOUS
 10
9.613290
 20
2.030605
  0
SEQEND
  8
0
  0
SOLID
  8
0
 62
    15
 10
4.787990
 20
3.871183
 11
5.440649
 21
4.247756
 12
4.772072
 22
3.806515
 13
5.425228
 23
4.183087
  0
POLYLINE
  8
0
  6
CONTINUOUS
 66
     1
 40
0.000000
 41
0.000000
  0
VERTEX
  8
0
  6
CONTINUOUS
 10
4.787990
 20
3.871183
  0
VERTEX
  8
0
  6
CONTINUOUS
 10
5.440649
 20
4.247756
  0
VERTEX
  8
0
  6
CONTINUOUS
 10
5.425228
 20
4.183087
  0
VERTEX
  8
0
  6
CONTINUOUS
 10
4.772072
 20
3.806515
  0
VERTEX
  8
0
  6
CONTINUOUS
 10
4.787990
 20
3.871183
  0
SEQEND
  8
0
  0
SOLID
  8
0
 62
    15
 10
4.216914
 20
4.717849
 11
4.869573
 21
5.093924
 12
4.351226
 22
4.644226
 13
5.004383
 23
5.020301
  0
POLYLINE
  8
0
  6
CONTINUOUS
 66
     1
 40
0.000000
 41
0.000000
  0
VERTEX
  8
0
  6
CONTINUOUS
 10
4.216914
 20
4.717849
  0
VERTEX
  8
0
  6
CONTINUOUS
 10
4.869573
 20
5.093924
  0
VERTEX
  8
0
  6
CONTINUOUS
 10
5.004383
 20
5.020301
  0
VERTEX
  8
0
  6
CONTINUOUS
 10
4.351226
 20
4.644226
  0
VERTEX
  8
0
  6
CONTINUOUS
 10
4.216914
 20
4.717849
  0
SEQEND
  8
0
  0
SOLID
  8
0
 62
    15
 10
4.351226
 20
4.644226
 11
5.004383
 21
5.020301
 12
4.465640
 22
4.563141
 13
5.118300
 23
4.939714
  0
POLYLINE
  8
0
  6
CONTINUOUS
 66
     1
 40
0.000000
 41
0.000000
  0
VERTEX
  8
0
  6
CONTINUOUS
 10
4.351226
 20
4.644226
  0
VERTEX
  8
0
  6
CONTINUOUS
 10
5.004383
 20
5.020301
  0
VERTEX
  8
0
  6
CONTINUOUS
 10
5.118300
 20
4.939714
  0
VERTEX
  8
0
  6
CONTINUOUS
 10
4.465640
 20
4.563141
  0
VERTEX
  8
0
  6
CONTINUOUS
 10
4.351226
 20
4.644226
  0
SEQEND
  8
0
  0
SOLID
  8
0
 62
    15
 10
4.465640
 20
4.563141
 11
5.118300
 21
4.939714
 12
4.560654
 22
4.476584
 13
5.213313
 23
4.853157
  0
POLYLINE
  8
0
  6
CONTINUOUS
 66
     1
 40
0.000000
 41
0.000000
  0
VERTEX
  8
0
  6
CONTINUOUS
 10
4.465640
 20
4.563141
  0
VERTEX
  8
0
  6
CONTINUOUS
 10
5.118300
 20
4.939714
  0
VERTEX
  8
0
  6
CONTINUOUS
 10
5.213313
 20
4.853157
  0
VERTEX
  8
0
  6
CONTINUOUS
 10
4.560654
 20
4.476584
  0
VERTEX
  8
0
  6
CONTINUOUS
 10
4.465640
 20
4.563141
  0
SEQEND
  8
0
  0
SOLID
  8
0
 62
    15
 10
4.560654
 20
4.476584
 11
5.213313
 21
4.853157
 12
4.637262
 22
4.386545
 13
5.290418
 23
4.763118
  0
POLYLINE
  8
0
  6
CONTINUOUS
 66
     1
 40
0.000000
 41
0.000000
  0
VERTEX
  8
0
  6
CONTINUOUS
 10
4.560654
 20
4.476584
  0
VERTEX
  8
0
  6
CONTINUOUS
 10
5.213313
 20
4.853157
  0
VERTEX
  8
0
  6
CONTINUOUS
 10
5.290418
 20
4.763118
  0
VERTEX
  8
0
  6
CONTINUOUS
 10
4.637262
 20
4.386545
  0
VERTEX
  8
0
  6
CONTINUOUS
 10
4.560654
 20
4.476584
  0
SEQEND
  8
0
  0
SOLID
  8
0
 62
    15
 10
4.637262
 20
4.386545
 11
5.290418
 21
4.763118
 12
4.697454
 22
4.294516
 13
5.350610
 23
4.670591
  0
POLYLINE
  8
0
  6
CONTINUOUS
 66
     1
 40
0.000000
 41
0.000000
  0
VERTEX
  8
0
  6
CONTINUOUS
 10
4.637262
 20
4.386545
  0
VERTEX
  8
0
  6
CONTINUOUS
 10
5.290418
 20
4.763118
  0
VERTEX
  8
0
  6
CONTINUOUS
 10
5.350610
 20
4.670591
  0
VERTEX
  8
0
  6
CONTINUOUS
 10
4.697454
 20
4.294516
  0
VERTEX
  8
0
  6
CONTINUOUS
 10
4.637262
 20
4.386545
  0
SEQEND
  8
0
  0
SOLID
  8
0
 62
    15
 10
4.697454
 20
4.294516
 11
5.350610
 21
4.670591
 12
4.741727
 22
4.202488
 13
5.394884
 23
4.578562
  0
POLYLINE
  8
0
  6
CONTINUOUS
 66
     1
 40
0.000000
 41
0.000000
  0
VERTEX
  8
0
  6
CONTINUOUS
 10
4.697454
 20
4.294516
  0
VERTEX
  8
0
  6
CONTINUOUS
 10
5.350610
 20
4.670591
  0
VERTEX
  8
0
  6
CONTINUOUS
 10
5.394884
 20
4.578562
  0
VERTEX
  8
0
  6
CONTINUOUS
 10
4.741727
 20
4.202488
  0
VERTEX
  8
0
  6
CONTINUOUS
 10
4.697454
 20
4.294516
  0
SEQEND
  8
0
  0
SOLID
  8
0
 62
    15
 10
4.741727
 20
4.202488
 11
5.394884
 21
4.578562
 12
4.772072
 22
4.111951
 13
5.424731
 23
4.488523
  0
POLYLINE
  8
0
  6
CONTINUOUS
 66
     1
 40
0.000000
 41
0.000000
  0
VERTEX
  8
0
  6
CONTINUOUS
 10
4.741727
 20
4.202488
  0
VERTEX
  8
0
  6
CONTINUOUS
 10
5.394884
 20
4.578562
  0
VERTEX
  8
0
  6
CONTINUOUS
 10
5.424731
 20
4.488523
  0
VERTEX
  8
0
  6
CONTINUOUS
 10
4.772072
 20
4.111951
  0
VERTEX
  8
0
  6
CONTINUOUS
 10
4.741727
 20
4.202488
  0
SEQEND
  8
0
  0
SOLID
  8
0
 62
    15
 10
4.772072
 20
4.111951
 11
5.424731
 21
4.488523
 12
4.788985
 22
4.025394
 13
5.441644
 23
4.401966
  0
POLYLINE
  8
0
  6
CONTINUOUS
 66
     1
 40
0.000000
 41
0.000000
  0
VERTEX
  8
0
  6
CONTINUOUS
 10
4.772072
 20
4.111951
  0
VERTEX
  8
0
  6
CONTINUOUS
 10
5.424731
 20
4.488523
  0
VERTEX
  8
0
  6
CONTINUOUS
 10
5.441644
 20
4.401966
  0
VERTEX
  8
0
  6
CONTINUOUS
 10
4.788985
 20
4.025394
  0
VERTEX
  8
0
  6
CONTINUOUS
 10
4.772072
 20
4.111951
  0
SEQEND
  8
0
  0
SOLID
  8
0
 62
    15
 10
4.788985
 20
4.025394
 11
5.441644
 21
4.401966
 12
4.793462
 22
3.944807
 13
5.446619
 23
4.320881
  0
POLYLINE
  8
0
  6
CONTINUOUS
 66
     1
 40
0.000000
 41
0.000000
  0
VERTEX
  8
0
  6
CONTINUOUS
 10
4.788985
 20
4.025394
  0
VERTEX
  8
0
  6
CONTINUOUS
 10
5.441644
 20
4.401966
  0
VERTEX
  8
0
  6
CONTINUOUS
 10
5.446619
 20
4.320881
  0
VERTEX
  8
0
  6
CONTINUOUS
 10
4.793462
 20
3.944807
  0
VERTEX
  8
0
  6
CONTINUOUS
 10
4.788985
 20
4.025394
  0
SEQEND
  8
0
  0
SOLID
  8
0
 62
    15
 10
4.793462
 20
3.944807
 11
5.446619
 21
4.320881
 12
4.787990
 22
3.871183
 13
5.440649
 23
4.247756
  0
POLYLINE
  8
0
  6
CONTINUOUS
 66
     1
 40
0.000000
 41
0.000000
  0
VERTEX
  8
0
  6
CONTINUOUS
 10
4.793462
 20
3.944807
  0
VERTEX
  8
0
  6
CONTINUOUS
 10
5.446619
 20
4.320881
  0
VERTEX
  8
0
  6
CONTINUOUS
 10
5.440649
 20
4.247756
  0
VERTEX
  8
0
  6
CONTINUOUS
 10
4.787990
 20
3.871183
  0
VERTEX
  8
0
  6
CONTINUOUS
 10
4.793462
 20
3.944807
  0
SEQEND
  8
0
  0
SOLID
  8
0
 62
    15
 10
4.141301
 20
4.751179
 11
4.794457
 21
5.127751
 12
4.216914
 22
4.717849
 13
4.869573
 23
5.093924
  0
POLYLINE
  8
0
  6
CONTINUOUS
 66
     1
 40
0.000000
 41
0.000000
  0
VERTEX
  8
0
  6
CONTINUOUS
 10
4.141301
 20
4.751179
  0
VERTEX
  8
0
  6
CONTINUOUS
 10
4.794457
 20
5.127751
  0
VERTEX
  8
0
  6
CONTINUOUS
 10
4.869573
 20
5.093924
  0
VERTEX
  8
0
  6
CONTINUOUS
 10
4.216914
 20
4.717849
  0
VERTEX
  8
0
  6
CONTINUOUS
 10
4.141301
 20
4.751179
  0
SEQEND
  8
0
  0
SOLID
  8
0
 62
    15
 10
4.772072
 20
3.806515
 11
5.425228
 21
4.183087
 12
4.748194
 22
3.753287
 13
5.401351
 23
4.129859
  0
POLYLINE
  8
0
  6
CONTINUOUS
 66
     1
 40
0.000000
 41
0.000000
  0
VERTEX
  8
0
  6
CONTINUOUS
 10
4.772072
 20
3.806515
  0
VERTEX
  8
0
  6
CONTINUOUS
 10
5.425228
 20
4.183087
  0
VERTEX
  8
0
  6
CONTINUOUS
 10
5.401351
 20
4.129859
  0
VERTEX
  8
0
  6
CONTINUOUS
 10
4.748194
 20
3.753287
  0
VERTEX
  8
0
  6
CONTINUOUS
 10
4.772072
 20
3.806515
  0
SEQEND
  8
0
  0
SOLID
  8
0
 62
    15
 10
4.638257
 20
3.678669
 11
5.291413
 21
4.055241
 12
4.638257
 22
3.620467
 13
5.291413
 23
3.996542
  0
POLYLINE
  8
0
  6
CONTINUOUS
 66
     1
 40
0.000000
 41
0.000000
  0
VERTEX
  8
0
  6
CONTINUOUS
 10
4.638257
 20
3.678669
  0
VERTEX
  8
0
  6
CONTINUOUS
 10
5.291413
 20
4.055241
  0
VERTEX
  8
0
  6
CONTINUOUS
 10
5.291413
 20
3.996542
  0
VERTEX
  8
0
  6
CONTINUOUS
 10
4.638257
 20
3.620467
  0
VERTEX
  8
0
  6
CONTINUOUS
 10
4.638257
 20
3.678669
  0
SEQEND
  8
0
  0
SOLID
  8
0
 62
    15
 10
4.717352
 20
3.712993
 11
5.370011
 21
4.089566
 12
4.680043
 22
3.687623
 13
5.333199
 23
4.064195
  0
POLYLINE
  8
0
  6
CONTINUOUS
 66
     1
 40
0.000000
 41
0.000000
  0
VERTEX
  8
0
  6
CONTINUOUS
 10
4.717352
 20
3.712993
  0
VERTEX
  8
0
  6
CONTINUOUS
 10
5.370011
 20
4.089566
  0
VERTEX
  8
0
  6
CONTINUOUS
 10
5.333199
 20
4.064195
  0
VERTEX
  8
0
  6
CONTINUOUS
 10
4.680043
 20
3.687623
  0
VERTEX
  8
0
  6
CONTINUOUS
 10
4.717352
 20
3.712993
  0
SEQEND
  8
0
  0
SOLID
  8
0
 62
    15
 10
4.748194
 20
3.753287
 11
5.401351
 21
4.129859
 12
4.717352
 22
3.712993
 13
5.370011
 23
4.089566
  0
POLYLINE
  8
0
  6
CONTINUOUS
 66
     1
 40
0.000000
 41
0.000000
  0
VERTEX
  8
0
  6
CONTINUOUS
 10
4.748194
 20
3.753287
  0
VERTEX
  8
0
  6
CONTINUOUS
 10
5.401351
 20
4.129859
  0
VERTEX
  8
0
  6
CONTINUOUS
 10
5.370011
 20
4.089566
  0
VERTEX
  8
0
  6
CONTINUOUS
 10
4.717352
 20
3.712993
  0
VERTEX
  8
0
  6
CONTINUOUS
 10
4.748194
 20
3.753287
  0
SEQEND
  8
0
  0
SOLID
  8
0
 62
    15
 10
4.638257
 20
3.620467
 11
5.291413
 21
3.996542
 12
4.795950
 22
3.620467
 13
5.449106
 23
3.996542
  0
POLYLINE
  8
0
  6
CONTINUOUS
 66
     1
 40
0.000000
 41
0.000000
  0
VERTEX
  8
0
  6
CONTINUOUS
 10
4.638257
 20
3.620467
  0
VERTEX
  8
0
  6
CONTINUOUS
 10
5.291413
 20
3.996542
  0
VERTEX
  8
0
  6
CONTINUOUS
 10
5.449106
 20
3.996542
  0
VERTEX
  8
0
  6
CONTINUOUS
 10
4.795950
 20
3.620467
  0
VERTEX
  8
0
  6
CONTINUOUS
 10
4.638257
 20
3.620467
  0
SEQEND
  8
0
  0
SOLID
  8
0
 62
    15
 10
4.795950
 20
3.620467
 11
5.449106
 21
3.996542
 12
4.795950
 22
3.339903
 13
5.449106
 23
3.716475
  0
POLYLINE
  8
0
  6
CONTINUOUS
 66
     1
 40
0.000000
 41
0.000000
  0
VERTEX
  8
0
  6
CONTINUOUS
 10
4.795950
 20
3.620467
  0
VERTEX
  8
0
  6
CONTINUOUS
 10
5.449106
 20
3.996542
  0
VERTEX
  8
0
  6
CONTINUOUS
 10
5.449106
 20
3.716475
  0
VERTEX
  8
0
  6
CONTINUOUS
 10
4.795950
 20
3.339903
  0
VERTEX
  8
0
  6
CONTINUOUS
 10
4.795950
 20
3.620467
  0
SEQEND
  8
0
  0
SOLID
  8
0
 62
    15
 10
3.552813
 20
5.255099
 11
4.205472
 21
5.631174
 12
3.815469
 22
5.255099
 13
4.468128
 23
5.631174
  0
POLYLINE
  8
0
  6
CONTINUOUS
 66
     1
 40
0.000000
 41
0.000000
  0
VERTEX
  8
0
  6
CONTINUOUS
 10
3.552813
 20
5.255099
  0
VERTEX
  8
0
  6
CONTINUOUS
 10
4.205472
 20
5.631174
  0
VERTEX
  8
0
  6
CONTINUOUS
 10
4.468128
 20
5.631174
  0
VERTEX
  8
0
  6
CONTINUOUS
 10
3.815469
 20
5.255099
  0
VERTEX
  8
0
  6
CONTINUOUS
 10
3.552813
 20
5.255099
  0
SEQEND
  8
0
  0
SOLID
  8
0
 62
    15
 10
3.815469
 20
5.255099
 11
4.468128
 21
5.631174
 12
3.815469
 22
4.997916
 13
4.468128
 23
5.374488
  0
POLYLINE
  8
0
  6
CONTINUOUS
 66
     1
 40
0.000000
 41
0.000000
  0
VERTEX
  8
0
  6
CONTINUOUS
 10
3.815469
 20
5.255099
  0
VERTEX
  8
0
  6
CONTINUOUS
 10
4.468128
 20
5.631174
  0
VERTEX
  8
0
  6
CONTINUOUS
 10
4.468128
 20
5.374488
  0
VERTEX
  8
0
  6
CONTINUOUS
 10
3.815469
 20
4.997916
  0
VERTEX
  8
0
  6
CONTINUOUS
 10
3.815469
 20
5.255099
  0
SEQEND
  8
0
  0
SOLID
  8
0
 62
    15
 10
3.815469
 20
4.997916
 11
4.468128
 21
5.374488
 12
4.060713
 22
4.997916
 13
4.713372
 23
5.374488
  0
POLYLINE
  8
0
  6
CONTINUOUS
 66
     1
 40
0.000000
 41
0.000000
  0
VERTEX
  8
0
  6
CONTINUOUS
 10
3.815469
 20
4.997916
  0
VERTEX
  8
0
  6
CONTINUOUS
 10
4.468128
 20
5.374488
  0
VERTEX
  8
0
  6
CONTINUOUS
 10
4.713372
 20
5.374488
  0
VERTEX
  8
0
  6
CONTINUOUS
 10
4.060713
 20
4.997916
  0
VERTEX
  8
0
  6
CONTINUOUS
 10
3.815469
 20
4.997916
  0
SEQEND
  8
0
  0
SOLID
  8
0
 62
    15
 10
4.060713
 20
4.997916
 11
4.713372
 21
5.374488
 12
4.060713
 22
4.782021
 13
4.713372
 23
5.158593
  0
POLYLINE
  8
0
  6
CONTINUOUS
 66
     1
 40
0.000000
 41
0.000000
  0
VERTEX
  8
0
  6
CONTINUOUS
 10
4.060713
 20
4.997916
  0
VERTEX
  8
0
  6
CONTINUOUS
 10
4.713372
 20
5.374488
  0
VERTEX
  8
0
  6
CONTINUOUS
 10
4.713372
 20
5.158593
  0
VERTEX
  8
0
  6
CONTINUOUS
 10
4.060713
 20
4.782021
  0
VERTEX
  8
0
  6
CONTINUOUS
 10
4.060713
 20
4.997916
  0
SEQEND
  8
0
  0
SOLID
  8
0
 62
    15
 10
4.060713
 20
4.782021
 11
4.713372
 21
5.158593
 12
4.141301
 22
4.751179
 13
4.794457
 23
5.127751
  0
POLYLINE
  8
0
  6
CONTINUOUS
 66
     1
 40
0.000000
 41
0.000000
  0
VERTEX
  8
0
  6
CONTINUOUS
 10
4.060713
 20
4.782021
  0
VERTEX
  8
0
  6
CONTINUOUS
 10
4.713372
 20
5.158593
  0
VERTEX
  8
0
  6
CONTINUOUS
 10
4.794457
 20
5.127751
  0
VERTEX
  8
0
  6
CONTINUOUS
 10
4.141301
 20
4.751179
  0
VERTEX
  8
0
  6
CONTINUOUS
 10
4.060713
 20
4.782021
  0
SEQEND
  8
0
  0
POLYLINE
  8
0
  6
CONTINUOUS
 66
     1
 40
0.000000
 41
0.000000
  0
VERTEX
  8
0
  6
CONTINUOUS
 10
4.141301
 20
4.751179
  0
VERTEX
  8
0
  6
CONTINUOUS
 10
4.216914
 20
4.717849
  0
VERTEX
  8
0
  6
CONTINUOUS
 10
4.351226
 20
4.644226
  0
VERTEX
  8
0
  6
CONTINUOUS
 10
4.465640
 20
4.563141
  0
VERTEX
  8
0
  6
CONTINUOUS
 10
4.560654
 20
4.476584
  0
VERTEX
  8
0
  6
CONTINUOUS
 10
4.637262
 20
4.386545
  0
VERTEX
  8
0
  6
CONTINUOUS
 10
4.697454
 20
4.294516
  0
VERTEX
  8
0
  6
CONTINUOUS
 10
4.741727
 20
4.202488
  0
VERTEX
  8
0
  6
CONTINUOUS
 10
4.772072
 20
4.111951
  0
VERTEX
  8
0
  6
CONTINUOUS
 10
4.788985
 20
4.025394
  0
VERTEX
  8
0
  6
CONTINUOUS
 10
4.793462
 20
3.944807
  0
VERTEX
  8
0
  6
CONTINUOUS
 10
4.787990
 20
3.871183
  0
VERTEX
  8
0
  6
CONTINUOUS
 10
4.772072
 20
3.806515
  0
VERTEX
  8
0
  6
CONTINUOUS
 10
4.748194
 20
3.753287
  0
VERTEX
  8
0
  6
CONTINUOUS
 10
4.717352
 20
3.712993
  0
VERTEX
  8
0
  6
CONTINUOUS
 10
4.680043
 20
3.687623
  0
VERTEX
  8
0
  6
CONTINUOUS
 10
4.638257
 20
3.678669
  0
VERTEX
  8
0
  6
CONTINUOUS
 10
4.638257
 20
3.620467
  0
VERTEX
  8
0
  6
CONTINUOUS
 10
4.795950
 20
3.620467
  0
VERTEX
  8
0
  6
CONTINUOUS
 10
4.795950
 20
3.339903
  0
VERTEX
  8
0
  6
CONTINUOUS
 10
3.552813
 20
3.339903
  0
VERTEX
  8
0
  6
CONTINUOUS
 10
3.552813
 20
5.255099
  0
VERTEX
  8
0
  6
CONTINUOUS
 10
3.815469
 20
5.255099
  0
VERTEX
  8
0
  6
CONTINUOUS
 10
3.815469
 20
4.997916
  0
VERTEX
  8
0
  6
CONTINUOUS
 10
4.060713
 20
4.997916
  0
VERTEX
  8
0
  6
CONTINUOUS
 10
4.060713
 20
4.782021
  0
VERTEX
  8
0
  6
CONTINUOUS
 10
4.141301
 20
4.751179
  0
SEQEND
  8
0
  0
TEXT
  8
0
 10
4.048277
 20
3.106597
 40
0.137649
  1
BA  1106
 41
1.000000
  7
SN0
 71
     0
 72
     5
 11
4.729758
 21
3.106597
  0
TEXT
  8
0
 10
4.048277
 20
2.915078
 40
0.137649
  1
1-1/4" x 2"
 41
1.000000
  7
SN0
 71
     0
 72
     5
 11
4.810167
 21
2.915078
  0
POLYLINE
  8
0
  6
CONTINUOUS
 66
     1
 40
0.013929
 41
0.013929
  0
VERTEX
  8
0
  6
CONTINUOUS
 10
6.619117
 20
5.163568
  0
VERTEX
  8
0
  6
CONTINUOUS
 10
6.619117
 20
5.379463
  0
VERTEX
  8
0
  6
CONTINUOUS
 10
6.373872
 20
5.379463
  0
VERTEX
  8
0
  6
CONTINUOUS
 10
6.373872
 20
5.636646
  0
VERTEX
  8
0
  6
CONTINUOUS
 10
6.111217
 20
5.636646
  0
VERTEX
  8
0
  6
CONTINUOUS
 10
6.111217
 20
3.721450
  0
VERTEX
  8
0
  6
CONTINUOUS
 10
7.354353
 20
3.721450
  0
VERTEX
  8
0
  6
CONTINUOUS
 10
7.354353
 20
4.002014
  0
VERTEX
  8
0
  6
CONTINUOUS
 10
7.196660
 20
4.002014
  0
VERTEX
  8
0
  6
CONTINUOUS
 10
7.196660
 20
4.060216
  0
VERTEX
  8
0
  6
CONTINUOUS
 10
7.218051
 20
4.062703
  0
VERTEX
  8
0
  6
CONTINUOUS
 10
7.238447
 20
4.069170
  0
VERTEX
  8
0
  6
CONTINUOUS
 10
7.257847
 20
4.080114
  0
VERTEX
  8
0
  6
CONTINUOUS
 10
7.275756
 20
4.094540
  0
VERTEX
  8
0
  6
CONTINUOUS
 10
7.292171
 20
4.112946
  0
VERTEX
  8
0
  6
CONTINUOUS
 10
7.313562
 20
4.147270
  0
VERTEX
  8
0
  6
CONTINUOUS
 10
7.330475
 20
4.188061
  0
VERTEX
  8
0
  6
CONTINUOUS
 10
7.339430
 20
4.219401
  0
VERTEX
  8
0
  6
CONTINUOUS
 10
7.346394
 20
4.252730
  0
VERTEX
  8
0
  6
CONTINUOUS
 10
7.351368
 20
4.306953
  0
VERTEX
  8
0
  6
CONTINUOUS
 10
7.351866
 20
4.345754
  0
VERTEX
  8
0
  6
CONTINUOUS
 10
7.347389
 20
4.406941
  0
VERTEX
  8
0
  6
CONTINUOUS
 10
7.335947
 20
4.471610
  0
VERTEX
  8
0
  6
CONTINUOUS
 10
7.317044
 20
4.538269
  0
VERTEX
  8
0
  6
CONTINUOUS
 10
7.290679
 20
4.606917
  0
VERTEX
  8
0
  6
CONTINUOUS
 10
7.255857
 20
4.676063
  0
VERTEX
  8
0
  6
CONTINUOUS
 10
7.212579
 20
4.745209
  0
VERTEX
  8
0
  6
CONTINUOUS
 10
7.159351
 20
4.813360
  0
VERTEX
  8
0
  6
CONTINUOUS
 10
7.119058
 20
4.858131
  0
VERTEX
  8
0
  6
CONTINUOUS
 10
7.049414
 20
4.923298
  0
VERTEX
  8
0
  6
CONTINUOUS
 10
6.997182
 20
4.965581
  0
VERTEX
  8
0
  6
CONTINUOUS
 10
6.910127
 20
5.025773
  0
VERTEX
  8
0
  6
CONTINUOUS
 10
6.845458
 20
5.063580
  0
VERTEX
  8
0
  6
CONTINUOUS
 10
6.775317
 20
5.099396
  0
VERTEX
  8
0
  6
CONTINUOUS
 10
6.700202
 20
5.132726
  0
VERTEX
  8
0
  6
CONTINUOUS
 10
6.619117
 20
5.163568
  0
SEQEND
  8
0
  0
TEXT
  8
0
 10
6.222646
 20
4.052257
 40
0.137649
  1
BA  1106
 41
1.000000
  7
SN0
 71
     0
 72
     5
 11
6.904127
 21
4.052257
  0
TEXT
  8
0
 10
6.222646
 20
3.860737
 40
0.137649
  1
1-1/4" x 2"
 41
1.000000
  7
SN0
 71
     0
 72
     5
 11
6.984537
 21
3.860737
  0
ENDSEC
  0
EOF
