  0
SECTION
  2
HEADER
  9
$ACADVER
  1
AC1006
  9
$EXTMIN
 10
2.746920
 20
0.581680
  9
$EXTMAX
 10
5.874880
 20
10.094920
  9
$LTSCALE
 40
0.044000
  9
$PDMODE
 70
    35
  9
$PDSIZE
 40
0.035200
  0
ENDSEC
  0
SECTION
  2
TABLES
  0
TABLE
  2
LTYPE
 70
     9
  0
LTYPE
  2
CONTINUOUS
 70
    64
  3
Solid line
 72
    65
 73
     0
 40
0.000000
  0
LTYPE
  2
DASHED
 70
    64
  3
__ __ __ __ __ __ __ __ __ __ __ __ __ __ __
 72
    65
 73
     2
 40
0.000330
 49
0.000220
 49
-0.000110
  0
LTYPE
  2
HIDDEN
 70
    64
  3
 _ _ _ _ _ _ _ _ _ _ _ _ _ _ _ _ _ _ _ _ _ _
 72
    65
 73
     2
 40
0.000165
 49
0.000110
 49
-0.000055
  0
LTYPE
  2
CENTER
 70
    64
  3
____ _ ____ _ ____ _ ____ _ ____ _ ____ _ ____
 72
    65
 73
     4
 40
0.000880
 49
0.000550
 49
-0.000110
 49
0.000110
 49
-0.000110
  0
LTYPE
  2
PHANTOM
 70
    64
  3
_____ _ _ _____ _ _ _____ _ _ _____ _ _ ____
 72
    65
 73
     6
 40
0.001100
 49
0.000550
 49
-0.000110
 49
0.000110
 49
-0.000110
 49
0.000110
 49
-0.000110
  0
LTYPE
  2
DOT
 70
    64
  3
...............................................
 72
    65
 73
     2
 40
0.000110
 49
0.000000
 49
-0.000110
  0
LTYPE
  2
DASHDOT
 70
    64
  3
__ . __ . __ . __ . __ . __ . __ . __ . __ . __
 72
    65
 73
     4
 40
0.000440
 49
0.000220
 49
-0.000110
 49
0.000000
 49
-0.000110
  0
LTYPE
  2
BORDER
 70
    64
  3
__ __ . __ __ . __ __ . __ __ . __ __ . __ __
 72
    65
 73
     6
 40
0.000770
 49
0.000220
 49
-0.000110
 49
0.000220
 49
-0.000110
 49
0.000000
 49
-0.000110
  0
LTYPE
  2
DIVIDE
 70
    64
  3
__ . . __ . . __ . . __ . . __ . . __ . . __
 72
    65
 73
     6
 40
0.000550
 49
0.000220
 49
-0.000110
 49
0.000000
 49
-0.000110
 49
0.000000
 49
-0.000110
  0
LTYPE
  2
DOTDOT
 70
    64
  3
 . .  . .  . .  . .  . .  . . 
 72
    65
 73
     5
 40
0.000242
 49
-0.000110
 49
0.000000
 49
-0.000110
 49
0.000000
 49
-0.000110
  0
ENDTAB
  0
TABLE
  2
STYLE
 70
     2
  0
STYLE
 70
     0
  2
SN0
 40
0.000000
 41
0.000440
 50
0.000000
 71
     0
 42
0.000000
  3
ROMAND
  0
STYLE
 70
    68
  2
SV0
 40
0.000000
 41
0.000440
 50
0.000000
 71
     0
 42
0.000000
  3
ROMAND
  0
ENDTAB
  0
TABLE
  2
LAYER
 70
     3
  0
LAYER
  2
FOREGROUND
 70
    64
 62
     7
  6
CONTINUOUS
  0
LAYER
  2
BACKGROUND
 70
    65
 62
    -7
  6
CONTINUOUS
  0
LAYER
  2
0
 70
    64
 62
     7
  6
CONTINUOUS
  0
ENDTAB
  0
ENDSEC
  0
SECTION
  2
ENTITIES
  0
POLYLINE
  8
FOREGROUND
  6
CONTINUOUS
 66
     1
 40
0.000000
 41
0.000000
  0
VERTEX
  8
FOREGROUND
  6
CONTINUOUS
 10
0.000000
 20
10.676600
  0
VERTEX
  8
FOREGROUND
  6
CONTINUOUS
 10
8.499920
 20
10.676600
  0
VERTEX
  8
FOREGROUND
  6
CONTINUOUS
 10
8.499920
 20
-0.323400
  0
VERTEX
  8
FOREGROUND
  6
CONTINUOUS
 10
0.000000
 20
-0.323400
  0
VERTEX
  8
FOREGROUND
  6
CONTINUOUS
 10
0.000000
 20
10.676600
  0
SEQEND
  8
0
  0
POLYLINE
  8
FOREGROUND
  6
CONTINUOUS
 66
     1
 40
0.000000
 41
0.000000
  0
VERTEX
  8
FOREGROUND
  6
CONTINUOUS
 10
0.000000
 20
10.676600
  0
VERTEX
  8
FOREGROUND
  6
CONTINUOUS
 10
8.499920
 20
10.676600
  0
VERTEX
  8
FOREGROUND
  6
CONTINUOUS
 10
8.499920
 20
-0.323400
  0
VERTEX
  8
FOREGROUND
  6
CONTINUOUS
 10
0.000000
 20
-0.323400
  0
VERTEX
  8
FOREGROUND
  6
CONTINUOUS
 10
0.000000
 20
10.676600
  0
SEQEND
  8
0
  0
POLYLINE
  8
0
  6
CONTINUOUS
 66
     1
 40
0.000000
 41
0.000000
  0
VERTEX
  8
0
  6
CONTINUOUS
 10
3.034240
 20
2.963400
  0
VERTEX
  8
0
  6
CONTINUOUS
 10
3.034680
 20
2.276120
  0
VERTEX
  8
0
  6
CONTINUOUS
 10
3.036440
 20
2.261600
  0
VERTEX
  8
0
  6
CONTINUOUS
 10
3.051840
 20
2.236080
  0
VERTEX
  8
0
  6
CONTINUOUS
 10
3.071640
 20
2.192960
  0
VERTEX
  8
0
  6
CONTINUOUS
 10
3.094960
 20
2.142360
  0
VERTEX
  8
0
  6
CONTINUOUS
 10
3.113000
 20
2.092200
  0
VERTEX
  8
0
  6
CONTINUOUS
 10
3.126640
 20
2.043800
  0
VERTEX
  8
0
  6
CONTINUOUS
 10
3.143800
 20
1.961960
  0
VERTEX
  8
0
  6
CONTINUOUS
 10
3.154800
 20
1.885840
  0
VERTEX
  8
0
  6
CONTINUOUS
 10
3.163160
 20
1.796080
  0
VERTEX
  8
0
  6
CONTINUOUS
 10
3.167560
 20
1.728320
  0
VERTEX
  8
0
  6
CONTINUOUS
 10
3.168880
 20
1.691360
  0
VERTEX
  8
0
  6
CONTINUOUS
 10
3.174160
 20
1.651760
  0
VERTEX
  8
0
  6
CONTINUOUS
 10
3.184280
 20
1.612600
  0
VERTEX
  8
0
  6
CONTINUOUS
 10
3.192200
 20
1.595440
  0
VERTEX
  8
0
  6
CONTINUOUS
 10
3.202760
 20
1.582240
  0
VERTEX
  8
0
  6
CONTINUOUS
 10
3.215080
 20
1.573000
  0
VERTEX
  8
0
  6
CONTINUOUS
 10
3.222560
 20
1.570360
  0
VERTEX
  8
0
  6
CONTINUOUS
 10
3.230920
 20
1.569480
  0
VERTEX
  8
0
  6
CONTINUOUS
 10
3.230920
 20
1.471800
  0
VERTEX
  8
0
  6
CONTINUOUS
 10
3.286800
 20
1.471800
  0
VERTEX
  8
0
  6
CONTINUOUS
 10
3.286800
 20
0.582120
  0
VERTEX
  8
0
  6
CONTINUOUS
 10
5.263720
 20
0.582120
  0
VERTEX
  8
0
  6
CONTINUOUS
 10
5.263720
 20
1.471360
  0
VERTEX
  8
0
  6
CONTINUOUS
 10
5.319600
 20
1.471360
  0
VERTEX
  8
0
  6
CONTINUOUS
 10
5.319600
 20
1.569480
  0
VERTEX
  8
0
  6
CONTINUOUS
 10
5.327960
 20
1.570360
  0
VERTEX
  8
0
  6
CONTINUOUS
 10
5.342040
 20
1.576960
  0
VERTEX
  8
0
  6
CONTINUOUS
 10
5.353480
 20
1.588400
  0
VERTEX
  8
0
  6
CONTINUOUS
 10
5.365800
 20
1.612160
  0
VERTEX
  8
0
  6
CONTINUOUS
 10
5.371960
 20
1.631520
  0
VERTEX
  8
0
  6
CONTINUOUS
 10
5.379440
 20
1.672000
  0
VERTEX
  8
0
  6
CONTINUOUS
 10
5.381640
 20
1.690920
  0
VERTEX
  8
0
  6
CONTINUOUS
 10
5.387360
 20
1.796080
  0
VERTEX
  8
0
  6
CONTINUOUS
 10
5.395720
 20
1.885840
  0
VERTEX
  8
0
  6
CONTINUOUS
 10
5.406720
 20
1.961520
  0
VERTEX
  8
0
  6
CONTINUOUS
 10
5.419040
 20
2.024880
  0
VERTEX
  8
0
  6
CONTINUOUS
 10
5.437080
 20
2.091760
  0
VERTEX
  8
0
  6
CONTINUOUS
 10
5.459520
 20
2.152480
  0
VERTEX
  8
0
  6
CONTINUOUS
 10
5.493400
 20
2.222880
  0
VERTEX
  8
0
  6
CONTINUOUS
 10
5.503080
 20
2.244440
  0
VERTEX
  8
0
  6
CONTINUOUS
 10
5.514080
 20
2.261600
  0
VERTEX
  8
0
  6
CONTINUOUS
 10
5.516280
 20
2.283600
  0
VERTEX
  8
0
  6
CONTINUOUS
 10
5.515840
 20
2.967800
  0
VERTEX
  8
0
  6
CONTINUOUS
 10
5.364480
 20
3.008720
  0
VERTEX
  8
0
  6
CONTINUOUS
 10
5.211800
 20
3.044360
  0
VERTEX
  8
0
  6
CONTINUOUS
 10
5.057800
 20
3.075160
  0
VERTEX
  8
0
  6
CONTINUOUS
 10
4.902480
 20
3.100240
  0
VERTEX
  8
0
  6
CONTINUOUS
 10
4.746280
 20
3.120040
  0
VERTEX
  8
0
  6
CONTINUOUS
 10
4.589640
 20
3.134560
  0
VERTEX
  8
0
  6
CONTINUOUS
 10
4.432560
 20
3.143800
  0
VERTEX
  8
0
  6
CONTINUOUS
 10
4.353800
 20
3.146440
  0
VERTEX
  8
0
  6
CONTINUOUS
 10
4.196720
 20
3.146880
  0
VERTEX
  8
0
  6
CONTINUOUS
 10
4.039200
 20
3.142040
  0
VERTEX
  8
0
  6
CONTINUOUS
 10
3.960880
 20
3.137640
  0
VERTEX
  8
0
  6
CONTINUOUS
 10
3.804680
 20
3.124000
  0
VERTEX
  8
0
  6
CONTINUOUS
 10
3.648920
 20
3.105080
  0
VERTEX
  8
0
  6
CONTINUOUS
 10
3.494480
 20
3.080000
  0
VERTEX
  8
0
  6
CONTINUOUS
 10
3.340920
 20
3.048760
  0
VERTEX
  8
0
  6
CONTINUOUS
 10
3.189120
 20
3.012240
  0
VERTEX
  8
0
  6
CONTINUOUS
 10
3.039080
 20
2.969120
  0
VERTEX
  8
0
  6
CONTINUOUS
 10
3.034240
 20
2.963400
  0
SEQEND
  8
0
  0
SOLID
  8
0
 62
    15
 10
5.216640
 20
5.673360
 11
5.861240
 21
6.050880
 12
5.198600
 22
5.633760
 13
5.843200
 23
6.011280
  0
POLYLINE
  8
0
  6
CONTINUOUS
 66
     1
 40
0.000000
 41
0.000000
  0
VERTEX
  8
0
  6
CONTINUOUS
 10
5.216640
 20
5.673360
  0
VERTEX
  8
0
  6
CONTINUOUS
 10
5.861240
 20
6.050880
  0
VERTEX
  8
0
  6
CONTINUOUS
 10
5.843200
 20
6.011280
  0
VERTEX
  8
0
  6
CONTINUOUS
 10
5.198600
 20
5.633760
  0
VERTEX
  8
0
  6
CONTINUOUS
 10
5.216640
 20
5.673360
  0
SEQEND
  8
0
  0
SOLID
  8
0
 62
    15
 10
3.054480
 20
6.478120
 11
3.699520
 21
6.855640
 12
3.362480
 22
6.534440
 13
4.007520
 23
6.911520
  0
POLYLINE
  8
0
  6
CONTINUOUS
 66
     1
 40
0.000000
 41
0.000000
  0
VERTEX
  8
0
  6
CONTINUOUS
 10
3.054480
 20
6.478120
  0
VERTEX
  8
0
  6
CONTINUOUS
 10
3.699520
 20
6.855640
  0
VERTEX
  8
0
  6
CONTINUOUS
 10
4.007520
 20
6.911520
  0
VERTEX
  8
0
  6
CONTINUOUS
 10
3.362480
 20
6.534440
  0
VERTEX
  8
0
  6
CONTINUOUS
 10
3.054480
 20
6.478120
  0
SEQEND
  8
0
  0
SOLID
  8
0
 62
    15
 10
3.362480
 20
6.534440
 11
4.007520
 21
6.911520
 12
3.674440
 22
6.567000
 13
4.319480
 23
6.944080
  0
POLYLINE
  8
0
  6
CONTINUOUS
 66
     1
 40
0.000000
 41
0.000000
  0
VERTEX
  8
0
  6
CONTINUOUS
 10
3.362480
 20
6.534440
  0
VERTEX
  8
0
  6
CONTINUOUS
 10
4.007520
 20
6.911520
  0
VERTEX
  8
0
  6
CONTINUOUS
 10
4.319480
 20
6.944080
  0
VERTEX
  8
0
  6
CONTINUOUS
 10
3.674440
 20
6.567000
  0
VERTEX
  8
0
  6
CONTINUOUS
 10
3.362480
 20
6.534440
  0
SEQEND
  8
0
  0
SOLID
  8
0
 62
    15
 10
3.674440
 20
6.567000
 11
4.319480
 21
6.944080
 12
3.988600
 22
6.576680
 13
4.633640
 23
6.954200
  0
POLYLINE
  8
0
  6
CONTINUOUS
 66
     1
 40
0.000000
 41
0.000000
  0
VERTEX
  8
0
  6
CONTINUOUS
 10
3.674440
 20
6.567000
  0
VERTEX
  8
0
  6
CONTINUOUS
 10
4.319480
 20
6.944080
  0
VERTEX
  8
0
  6
CONTINUOUS
 10
4.633640
 20
6.954200
  0
VERTEX
  8
0
  6
CONTINUOUS
 10
3.988600
 20
6.576680
  0
VERTEX
  8
0
  6
CONTINUOUS
 10
3.674440
 20
6.567000
  0
SEQEND
  8
0
  0
SOLID
  8
0
 62
    15
 10
3.988600
 20
6.576680
 11
4.633640
 21
6.954200
 12
4.303200
 22
6.563920
 13
4.948240
 23
6.941440
  0
POLYLINE
  8
0
  6
CONTINUOUS
 66
     1
 40
0.000000
 41
0.000000
  0
VERTEX
  8
0
  6
CONTINUOUS
 10
3.988600
 20
6.576680
  0
VERTEX
  8
0
  6
CONTINUOUS
 10
4.633640
 20
6.954200
  0
VERTEX
  8
0
  6
CONTINUOUS
 10
4.948240
 20
6.941440
  0
VERTEX
  8
0
  6
CONTINUOUS
 10
4.303200
 20
6.563920
  0
VERTEX
  8
0
  6
CONTINUOUS
 10
3.988600
 20
6.576680
  0
SEQEND
  8
0
  0
SOLID
  8
0
 62
    15
 10
4.303200
 20
6.563920
 11
4.948240
 21
6.941440
 12
4.616040
 22
6.529600
 13
5.261080
 23
6.907120
  0
POLYLINE
  8
0
  6
CONTINUOUS
 66
     1
 40
0.000000
 41
0.000000
  0
VERTEX
  8
0
  6
CONTINUOUS
 10
4.303200
 20
6.563920
  0
VERTEX
  8
0
  6
CONTINUOUS
 10
4.948240
 20
6.941440
  0
VERTEX
  8
0
  6
CONTINUOUS
 10
5.261080
 20
6.907120
  0
VERTEX
  8
0
  6
CONTINUOUS
 10
4.616040
 20
6.529600
  0
VERTEX
  8
0
  6
CONTINUOUS
 10
4.303200
 20
6.563920
  0
SEQEND
  8
0
  0
SOLID
  8
0
 62
    15
 10
4.616040
 20
6.529600
 11
5.261080
 21
6.907120
 12
4.925360
 22
6.473720
 13
5.569960
 23
6.851240
  0
POLYLINE
  8
0
  6
CONTINUOUS
 66
     1
 40
0.000000
 41
0.000000
  0
VERTEX
  8
0
  6
CONTINUOUS
 10
4.616040
 20
6.529600
  0
VERTEX
  8
0
  6
CONTINUOUS
 10
5.261080
 20
6.907120
  0
VERTEX
  8
0
  6
CONTINUOUS
 10
5.569960
 20
6.851240
  0
VERTEX
  8
0
  6
CONTINUOUS
 10
4.925360
 20
6.473720
  0
VERTEX
  8
0
  6
CONTINUOUS
 10
4.616040
 20
6.529600
  0
SEQEND
  8
0
  0
SOLID
  8
0
 62
    15
 10
4.925360
 20
6.473720
 11
5.569960
 21
6.851240
 12
5.229400
 22
6.397160
 13
5.874000
 23
6.774680
  0
POLYLINE
  8
0
  6
CONTINUOUS
 66
     1
 40
0.000000
 41
0.000000
  0
VERTEX
  8
0
  6
CONTINUOUS
 10
4.925360
 20
6.473720
  0
VERTEX
  8
0
  6
CONTINUOUS
 10
5.569960
 20
6.851240
  0
VERTEX
  8
0
  6
CONTINUOUS
 10
5.874000
 20
6.774680
  0
VERTEX
  8
0
  6
CONTINUOUS
 10
5.229400
 20
6.397160
  0
VERTEX
  8
0
  6
CONTINUOUS
 10
4.925360
 20
6.473720
  0
SEQEND
  8
0
  0
SOLID
  8
0
 62
    15
 10
5.229400
 20
6.397160
 11
5.874000
 21
6.774680
 12
5.229840
 22
6.392320
 13
5.874880
 23
6.769840
  0
POLYLINE
  8
0
  6
CONTINUOUS
 66
     1
 40
0.000000
 41
0.000000
  0
VERTEX
  8
0
  6
CONTINUOUS
 10
5.229400
 20
6.397160
  0
VERTEX
  8
0
  6
CONTINUOUS
 10
5.874000
 20
6.774680
  0
VERTEX
  8
0
  6
CONTINUOUS
 10
5.874880
 20
6.769840
  0
VERTEX
  8
0
  6
CONTINUOUS
 10
5.229840
 20
6.392320
  0
VERTEX
  8
0
  6
CONTINUOUS
 10
5.229400
 20
6.397160
  0
SEQEND
  8
0
  0
SOLID
  8
0
 62
    15
 10
5.229840
 20
6.392320
 11
5.874880
 21
6.769840
 12
5.229840
 22
5.721760
 13
5.874880
 23
6.098840
  0
POLYLINE
  8
0
  6
CONTINUOUS
 66
     1
 40
0.000000
 41
0.000000
  0
VERTEX
  8
0
  6
CONTINUOUS
 10
5.229840
 20
6.392320
  0
VERTEX
  8
0
  6
CONTINUOUS
 10
5.874880
 20
6.769840
  0
VERTEX
  8
0
  6
CONTINUOUS
 10
5.874880
 20
6.098840
  0
VERTEX
  8
0
  6
CONTINUOUS
 10
5.229840
 20
5.721760
  0
VERTEX
  8
0
  6
CONTINUOUS
 10
5.229840
 20
6.392320
  0
SEQEND
  8
0
  0
SOLID
  8
0
 62
    15
 10
5.229840
 20
5.721760
 11
5.874880
 21
6.098840
 12
5.228520
 22
5.694480
 13
5.873120
 23
6.072000
  0
POLYLINE
  8
0
  6
CONTINUOUS
 66
     1
 40
0.000000
 41
0.000000
  0
VERTEX
  8
0
  6
CONTINUOUS
 10
5.229840
 20
5.721760
  0
VERTEX
  8
0
  6
CONTINUOUS
 10
5.874880
 20
6.098840
  0
VERTEX
  8
0
  6
CONTINUOUS
 10
5.873120
 20
6.072000
  0
VERTEX
  8
0
  6
CONTINUOUS
 10
5.228520
 20
5.694480
  0
VERTEX
  8
0
  6
CONTINUOUS
 10
5.229840
 20
5.721760
  0
SEQEND
  8
0
  0
SOLID
  8
0
 62
    15
 10
5.228520
 20
5.694480
 11
5.873120
 21
6.072000
 12
5.223680
 22
5.683040
 13
5.868720
 23
6.060560
  0
POLYLINE
  8
0
  6
CONTINUOUS
 66
     1
 40
0.000000
 41
0.000000
  0
VERTEX
  8
0
  6
CONTINUOUS
 10
5.228520
 20
5.694480
  0
VERTEX
  8
0
  6
CONTINUOUS
 10
5.873120
 20
6.072000
  0
VERTEX
  8
0
  6
CONTINUOUS
 10
5.868720
 20
6.060560
  0
VERTEX
  8
0
  6
CONTINUOUS
 10
5.223680
 20
5.683040
  0
VERTEX
  8
0
  6
CONTINUOUS
 10
5.228520
 20
5.694480
  0
SEQEND
  8
0
  0
SOLID
  8
0
 62
    15
 10
5.223680
 20
5.683040
 11
5.868720
 21
6.060560
 12
5.216640
 22
5.673360
 13
5.861240
 23
6.050880
  0
POLYLINE
  8
0
  6
CONTINUOUS
 66
     1
 40
0.000000
 41
0.000000
  0
VERTEX
  8
0
  6
CONTINUOUS
 10
5.223680
 20
5.683040
  0
VERTEX
  8
0
  6
CONTINUOUS
 10
5.868720
 20
6.060560
  0
VERTEX
  8
0
  6
CONTINUOUS
 10
5.861240
 20
6.050880
  0
VERTEX
  8
0
  6
CONTINUOUS
 10
5.216640
 20
5.673360
  0
VERTEX
  8
0
  6
CONTINUOUS
 10
5.223680
 20
5.683040
  0
SEQEND
  8
0
  0
SOLID
  8
0
 62
    15
 10
2.752640
 20
6.398480
 11
3.397240
 21
6.776000
 12
3.054480
 22
6.478120
 13
3.699520
 23
6.855640
  0
POLYLINE
  8
0
  6
CONTINUOUS
 66
     1
 40
0.000000
 41
0.000000
  0
VERTEX
  8
0
  6
CONTINUOUS
 10
2.752640
 20
6.398480
  0
VERTEX
  8
0
  6
CONTINUOUS
 10
3.397240
 20
6.776000
  0
VERTEX
  8
0
  6
CONTINUOUS
 10
3.699520
 20
6.855640
  0
VERTEX
  8
0
  6
CONTINUOUS
 10
3.054480
 20
6.478120
  0
VERTEX
  8
0
  6
CONTINUOUS
 10
2.752640
 20
6.398480
  0
SEQEND
  8
0
  0
SOLID
  8
0
 62
    15
 10
5.198600
 20
5.633760
 11
5.843200
 21
6.011280
 12
5.192440
 22
5.621880
 13
5.837040
 23
5.999400
  0
POLYLINE
  8
0
  6
CONTINUOUS
 66
     1
 40
0.000000
 41
0.000000
  0
VERTEX
  8
0
  6
CONTINUOUS
 10
5.198600
 20
5.633760
  0
VERTEX
  8
0
  6
CONTINUOUS
 10
5.843200
 20
6.011280
  0
VERTEX
  8
0
  6
CONTINUOUS
 10
5.837040
 20
5.999400
  0
VERTEX
  8
0
  6
CONTINUOUS
 10
5.192440
 20
5.621880
  0
VERTEX
  8
0
  6
CONTINUOUS
 10
5.198600
 20
5.633760
  0
SEQEND
  8
0
  0
SOLID
  8
0
 62
    15
 10
5.192440
 20
5.621880
 11
5.837040
 21
5.999400
 12
5.185400
 22
5.607800
 13
5.830000
 23
5.985320
  0
POLYLINE
  8
0
  6
CONTINUOUS
 66
     1
 40
0.000000
 41
0.000000
  0
VERTEX
  8
0
  6
CONTINUOUS
 10
5.192440
 20
5.621880
  0
VERTEX
  8
0
  6
CONTINUOUS
 10
5.837040
 20
5.999400
  0
VERTEX
  8
0
  6
CONTINUOUS
 10
5.830000
 20
5.985320
  0
VERTEX
  8
0
  6
CONTINUOUS
 10
5.185400
 20
5.607800
  0
VERTEX
  8
0
  6
CONTINUOUS
 10
5.192440
 20
5.621880
  0
SEQEND
  8
0
  0
SOLID
  8
0
 62
    15
 10
5.185400
 20
5.607800
 11
5.830000
 21
5.985320
 12
5.168680
 22
5.571280
 13
5.813720
 23
5.948800
  0
POLYLINE
  8
0
  6
CONTINUOUS
 66
     1
 40
0.000000
 41
0.000000
  0
VERTEX
  8
0
  6
CONTINUOUS
 10
5.185400
 20
5.607800
  0
VERTEX
  8
0
  6
CONTINUOUS
 10
5.830000
 20
5.985320
  0
VERTEX
  8
0
  6
CONTINUOUS
 10
5.813720
 20
5.948800
  0
VERTEX
  8
0
  6
CONTINUOUS
 10
5.168680
 20
5.571280
  0
VERTEX
  8
0
  6
CONTINUOUS
 10
5.185400
 20
5.607800
  0
SEQEND
  8
0
  0
SOLID
  8
0
 62
    15
 10
5.168680
 20
5.571280
 11
5.813720
 21
5.948800
 12
5.150640
 22
5.521120
 13
5.795680
 23
5.898640
  0
POLYLINE
  8
0
  6
CONTINUOUS
 66
     1
 40
0.000000
 41
0.000000
  0
VERTEX
  8
0
  6
CONTINUOUS
 10
5.168680
 20
5.571280
  0
VERTEX
  8
0
  6
CONTINUOUS
 10
5.813720
 20
5.948800
  0
VERTEX
  8
0
  6
CONTINUOUS
 10
5.795680
 20
5.898640
  0
VERTEX
  8
0
  6
CONTINUOUS
 10
5.150640
 20
5.521120
  0
VERTEX
  8
0
  6
CONTINUOUS
 10
5.168680
 20
5.571280
  0
SEQEND
  8
0
  0
SOLID
  8
0
 62
    15
 10
5.150640
 20
5.521120
 11
5.795680
 21
5.898640
 12
5.132600
 22
5.454240
 13
5.777640
 23
5.831320
  0
POLYLINE
  8
0
  6
CONTINUOUS
 66
     1
 40
0.000000
 41
0.000000
  0
VERTEX
  8
0
  6
CONTINUOUS
 10
5.150640
 20
5.521120
  0
VERTEX
  8
0
  6
CONTINUOUS
 10
5.795680
 20
5.898640
  0
VERTEX
  8
0
  6
CONTINUOUS
 10
5.777640
 20
5.831320
  0
VERTEX
  8
0
  6
CONTINUOUS
 10
5.132600
 20
5.454240
  0
VERTEX
  8
0
  6
CONTINUOUS
 10
5.150640
 20
5.521120
  0
SEQEND
  8
0
  0
SOLID
  8
0
 62
    15
 10
5.132600
 20
5.454240
 11
5.777640
 21
5.831320
 12
5.116320
 22
5.367120
 13
5.761360
 23
5.744640
  0
POLYLINE
  8
0
  6
CONTINUOUS
 66
     1
 40
0.000000
 41
0.000000
  0
VERTEX
  8
0
  6
CONTINUOUS
 10
5.132600
 20
5.454240
  0
VERTEX
  8
0
  6
CONTINUOUS
 10
5.777640
 20
5.831320
  0
VERTEX
  8
0
  6
CONTINUOUS
 10
5.761360
 20
5.744640
  0
VERTEX
  8
0
  6
CONTINUOUS
 10
5.116320
 20
5.367120
  0
VERTEX
  8
0
  6
CONTINUOUS
 10
5.132600
 20
5.454240
  0
SEQEND
  8
0
  0
SOLID
  8
0
 62
    15
 10
5.116320
 20
5.367120
 11
5.761360
 21
5.744640
 12
5.103560
 22
5.256680
 13
5.748160
 23
5.634200
  0
POLYLINE
  8
0
  6
CONTINUOUS
 66
     1
 40
0.000000
 41
0.000000
  0
VERTEX
  8
0
  6
CONTINUOUS
 10
5.116320
 20
5.367120
  0
VERTEX
  8
0
  6
CONTINUOUS
 10
5.761360
 20
5.744640
  0
VERTEX
  8
0
  6
CONTINUOUS
 10
5.748160
 20
5.634200
  0
VERTEX
  8
0
  6
CONTINUOUS
 10
5.103560
 20
5.256680
  0
VERTEX
  8
0
  6
CONTINUOUS
 10
5.116320
 20
5.367120
  0
SEQEND
  8
0
  0
SOLID
  8
0
 62
    15
 10
5.103560
 20
5.256680
 11
5.748160
 21
5.634200
 12
5.095200
 22
5.120280
 13
5.740240
 23
5.497800
  0
POLYLINE
  8
0
  6
CONTINUOUS
 66
     1
 40
0.000000
 41
0.000000
  0
VERTEX
  8
0
  6
CONTINUOUS
 10
5.103560
 20
5.256680
  0
VERTEX
  8
0
  6
CONTINUOUS
 10
5.748160
 20
5.634200
  0
VERTEX
  8
0
  6
CONTINUOUS
 10
5.740240
 20
5.497800
  0
VERTEX
  8
0
  6
CONTINUOUS
 10
5.095200
 20
5.120280
  0
VERTEX
  8
0
  6
CONTINUOUS
 10
5.103560
 20
5.256680
  0
SEQEND
  8
0
  0
SOLID
  8
0
 62
    15
 10
5.095200
 20
5.120280
 11
5.740240
 21
5.497800
 12
5.079800
 22
5.041520
 13
5.724400
 23
5.419040
  0
POLYLINE
  8
0
  6
CONTINUOUS
 66
     1
 40
0.000000
 41
0.000000
  0
VERTEX
  8
0
  6
CONTINUOUS
 10
5.095200
 20
5.120280
  0
VERTEX
  8
0
  6
CONTINUOUS
 10
5.740240
 20
5.497800
  0
VERTEX
  8
0
  6
CONTINUOUS
 10
5.724400
 20
5.419040
  0
VERTEX
  8
0
  6
CONTINUOUS
 10
5.079800
 20
5.041520
  0
VERTEX
  8
0
  6
CONTINUOUS
 10
5.095200
 20
5.120280
  0
SEQEND
  8
0
  0
SOLID
  8
0
 62
    15
 10
4.977280
 20
4.900720
 11
5.622320
 21
5.278240
 12
4.977280
 22
4.011040
 13
5.622320
 23
4.388560
  0
POLYLINE
  8
0
  6
CONTINUOUS
 66
     1
 40
0.000000
 41
0.000000
  0
VERTEX
  8
0
  6
CONTINUOUS
 10
4.977280
 20
4.900720
  0
VERTEX
  8
0
  6
CONTINUOUS
 10
5.622320
 20
5.278240
  0
VERTEX
  8
0
  6
CONTINUOUS
 10
5.622320
 20
4.388560
  0
VERTEX
  8
0
  6
CONTINUOUS
 10
4.977280
 20
4.011040
  0
VERTEX
  8
0
  6
CONTINUOUS
 10
4.977280
 20
4.900720
  0
SEQEND
  8
0
  0
SOLID
  8
0
 62
    15
 10
5.033600
 20
4.998840
 11
5.678200
 21
5.375920
 12
5.033600
 22
4.900720
 13
5.678200
 23
5.278240
  0
POLYLINE
  8
0
  6
CONTINUOUS
 66
     1
 40
0.000000
 41
0.000000
  0
VERTEX
  8
0
  6
CONTINUOUS
 10
5.033600
 20
4.998840
  0
VERTEX
  8
0
  6
CONTINUOUS
 10
5.678200
 20
5.375920
  0
VERTEX
  8
0
  6
CONTINUOUS
 10
5.678200
 20
5.278240
  0
VERTEX
  8
0
  6
CONTINUOUS
 10
5.033600
 20
4.900720
  0
VERTEX
  8
0
  6
CONTINUOUS
 10
5.033600
 20
4.998840
  0
SEQEND
  8
0
  0
SOLID
  8
0
 62
    15
 10
5.079800
 20
5.041520
 11
5.724400
 21
5.419040
 12
5.061760
 22
5.011160
 13
5.706360
 23
5.388680
  0
POLYLINE
  8
0
  6
CONTINUOUS
 66
     1
 40
0.000000
 41
0.000000
  0
VERTEX
  8
0
  6
CONTINUOUS
 10
5.079800
 20
5.041520
  0
VERTEX
  8
0
  6
CONTINUOUS
 10
5.724400
 20
5.419040
  0
VERTEX
  8
0
  6
CONTINUOUS
 10
5.706360
 20
5.388680
  0
VERTEX
  8
0
  6
CONTINUOUS
 10
5.061760
 20
5.011160
  0
VERTEX
  8
0
  6
CONTINUOUS
 10
5.079800
 20
5.041520
  0
SEQEND
  8
0
  0
POLYLINE
  8
0
  6
CONTINUOUS
 66
     1
 40
0.000000
 41
0.000000
  0
VERTEX
  8
0
  6
CONTINUOUS
 10
2.752640
 20
6.398480
  0
VERTEX
  8
0
  6
CONTINUOUS
 10
3.054480
 20
6.478120
  0
VERTEX
  8
0
  6
CONTINUOUS
 10
3.362480
 20
6.534440
  0
VERTEX
  8
0
  6
CONTINUOUS
 10
3.674440
 20
6.567000
  0
VERTEX
  8
0
  6
CONTINUOUS
 10
3.988600
 20
6.576680
  0
VERTEX
  8
0
  6
CONTINUOUS
 10
4.303200
 20
6.563920
  0
VERTEX
  8
0
  6
CONTINUOUS
 10
4.616040
 20
6.529600
  0
VERTEX
  8
0
  6
CONTINUOUS
 10
4.925360
 20
6.473720
  0
VERTEX
  8
0
  6
CONTINUOUS
 10
5.229400
 20
6.397160
  0
VERTEX
  8
0
  6
CONTINUOUS
 10
5.229840
 20
5.721760
  0
VERTEX
  8
0
  6
CONTINUOUS
 10
5.228520
 20
5.694480
  0
VERTEX
  8
0
  6
CONTINUOUS
 10
5.223680
 20
5.683040
  0
VERTEX
  8
0
  6
CONTINUOUS
 10
5.216640
 20
5.673360
  0
VERTEX
  8
0
  6
CONTINUOUS
 10
5.168680
 20
5.571280
  0
VERTEX
  8
0
  6
CONTINUOUS
 10
5.150640
 20
5.521120
  0
VERTEX
  8
0
  6
CONTINUOUS
 10
5.132600
 20
5.454240
  0
VERTEX
  8
0
  6
CONTINUOUS
 10
5.116320
 20
5.367120
  0
VERTEX
  8
0
  6
CONTINUOUS
 10
5.103560
 20
5.256680
  0
VERTEX
  8
0
  6
CONTINUOUS
 10
5.095200
 20
5.120280
  0
VERTEX
  8
0
  6
CONTINUOUS
 10
5.079800
 20
5.041520
  0
VERTEX
  8
0
  6
CONTINUOUS
 10
5.061760
 20
5.011160
  0
VERTEX
  8
0
  6
CONTINUOUS
 10
5.033600
 20
4.998840
  0
VERTEX
  8
0
  6
CONTINUOUS
 10
5.033600
 20
4.900720
  0
VERTEX
  8
0
  6
CONTINUOUS
 10
4.977280
 20
4.900720
  0
VERTEX
  8
0
  6
CONTINUOUS
 10
4.977280
 20
4.011040
  0
VERTEX
  8
0
  6
CONTINUOUS
 10
4.977280
 20
4.011480
  0
VERTEX
  8
0
  6
CONTINUOUS
 10
3.000360
 20
4.011480
  0
VERTEX
  8
0
  6
CONTINUOUS
 10
3.000360
 20
4.901160
  0
VERTEX
  8
0
  6
CONTINUOUS
 10
2.944480
 20
4.901160
  0
VERTEX
  8
0
  6
CONTINUOUS
 10
2.944480
 20
4.998840
  0
VERTEX
  8
0
  6
CONTINUOUS
 10
2.915880
 20
5.011600
  0
VERTEX
  8
0
  6
CONTINUOUS
 10
2.897840
 20
5.041960
  0
VERTEX
  8
0
  6
CONTINUOUS
 10
2.882440
 20
5.120280
  0
VERTEX
  8
0
  6
CONTINUOUS
 10
2.874080
 20
5.257120
  0
VERTEX
  8
0
  6
CONTINUOUS
 10
2.861320
 20
5.367120
  0
VERTEX
  8
0
  6
CONTINUOUS
 10
2.845040
 20
5.454240
  0
VERTEX
  8
0
  6
CONTINUOUS
 10
2.827000
 20
5.521560
  0
VERTEX
  8
0
  6
CONTINUOUS
 10
2.808960
 20
5.571720
  0
VERTEX
  8
0
  6
CONTINUOUS
 10
2.761000
 20
5.673800
  0
VERTEX
  8
0
  6
CONTINUOUS
 10
2.753960
 20
5.683480
  0
VERTEX
  8
0
  6
CONTINUOUS
 10
2.749120
 20
5.694920
  0
VERTEX
  8
0
  6
CONTINUOUS
 10
2.747800
 20
5.721760
  0
VERTEX
  8
0
  6
CONTINUOUS
 10
2.747800
 20
6.392760
  0
VERTEX
  8
0
  6
CONTINUOUS
 10
2.752640
 20
6.398480
  0
SEQEND
  8
0
  0
TEXT
  8
0
 10
3.242800
 20
3.732960
 40
0.138224
  1
BA  1105  2-1/2" x 2-1/2"
 41
1.000000
  7
SN0
 71
     0
 72
     5
 11
5.073623
 21
3.732960
  0
TEXT
  8
0
 10
3.242800
 20
3.541120
 40
0.138224
  1
BA  688 Top
 41
1.000000
  7
SN0
 71
     0
 72
     5
 11
4.168438
 21
3.541120
  0
POLYLINE
  8
0
  6
CONTINUOUS
 66
     1
 40
0.014080
 41
0.014080
  0
VERTEX
  8
0
  6
CONTINUOUS
 10
2.985400
 20
9.903520
  0
VERTEX
  8
0
  6
CONTINUOUS
 10
2.985840
 20
9.216240
  0
VERTEX
  8
0
  6
CONTINUOUS
 10
2.987600
 20
9.201720
  0
VERTEX
  8
0
  6
CONTINUOUS
 10
3.006080
 20
9.170040
  0
VERTEX
  8
0
  6
CONTINUOUS
 10
3.023240
 20
9.132640
  0
VERTEX
  8
0
  6
CONTINUOUS
 10
3.046560
 20
9.082480
  0
VERTEX
  8
0
  6
CONTINUOUS
 10
3.064600
 20
9.032320
  0
VERTEX
  8
0
  6
CONTINUOUS
 10
3.078240
 20
8.983480
  0
VERTEX
  8
0
  6
CONTINUOUS
 10
3.091000
 20
8.924080
  0
VERTEX
  8
0
  6
CONTINUOUS
 10
3.102440
 20
8.852800
  0
VERTEX
  8
0
  6
CONTINUOUS
 10
3.112120
 20
8.767440
  0
VERTEX
  8
0
  6
CONTINUOUS
 10
3.118720
 20
8.668000
  0
VERTEX
  8
0
  6
CONTINUOUS
 10
3.120040
 20
8.631040
  0
VERTEX
  8
0
  6
CONTINUOUS
 10
3.125320
 20
8.591880
  0
VERTEX
  8
0
  6
CONTINUOUS
 10
3.129720
 20
8.571640
  0
VERTEX
  8
0
  6
CONTINUOUS
 10
3.139400
 20
8.543920
  0
VERTEX
  8
0
  6
CONTINUOUS
 10
3.148200
 20
8.528520
  0
VERTEX
  8
0
  6
CONTINUOUS
 10
3.159640
 20
8.517080
  0
VERTEX
  8
0
  6
CONTINUOUS
 10
3.173720
 20
8.510480
  0
VERTEX
  8
0
  6
CONTINUOUS
 10
3.182080
 20
8.509600
  0
VERTEX
  8
0
  6
CONTINUOUS
 10
3.182080
 20
8.411920
  0
VERTEX
  8
0
  6
CONTINUOUS
 10
3.237960
 20
8.411920
  0
VERTEX
  8
0
  6
CONTINUOUS
 10
3.237960
 20
7.522240
  0
VERTEX
  8
0
  6
CONTINUOUS
 10
5.214880
 20
7.521800
  0
VERTEX
  8
0
  6
CONTINUOUS
 10
5.214880
 20
8.411480
  0
VERTEX
  8
0
  6
CONTINUOUS
 10
5.271200
 20
8.411480
  0
VERTEX
  8
0
  6
CONTINUOUS
 10
5.271200
 20
8.509600
  0
VERTEX
  8
0
  6
CONTINUOUS
 10
5.279120
 20
8.510480
  0
VERTEX
  8
0
  6
CONTINUOUS
 10
5.293200
 20
8.517080
  0
VERTEX
  8
0
  6
CONTINUOUS
 10
5.304640
 20
8.528520
  0
VERTEX
  8
0
  6
CONTINUOUS
 10
5.309480
 20
8.535560
  0
VERTEX
  8
0
  6
CONTINUOUS
 10
5.317400
 20
8.552280
  0
VERTEX
  8
0
  6
CONTINUOUS
 10
5.327520
 20
8.591880
  0
VERTEX
  8
0
  6
CONTINUOUS
 10
5.332800
 20
8.631040
  0
VERTEX
  8
0
  6
CONTINUOUS
 10
5.338520
 20
8.736200
  0
VERTEX
  8
0
  6
CONTINUOUS
 10
5.346880
 20
8.825960
  0
VERTEX
  8
0
  6
CONTINUOUS
 10
5.361840
 20
8.924080
  0
VERTEX
  8
0
  6
CONTINUOUS
 10
5.379440
 20
9.000640
  0
VERTEX
  8
0
  6
CONTINUOUS
 10
5.397480
 20
9.059160
  0
VERTEX
  8
0
  6
CONTINUOUS
 10
5.419040
 20
9.110640
  0
VERTEX
  8
0
  6
CONTINUOUS
 10
5.454240
 20
9.184120
  0
VERTEX
  8
0
  6
CONTINUOUS
 10
5.464360
 20
9.198640
  0
VERTEX
  8
0
  6
CONTINUOUS
 10
5.467440
 20
9.216240
  0
VERTEX
  8
0
  6
CONTINUOUS
 10
5.467880
 20
9.903080
  0
VERTEX
  8
0
  6
CONTINUOUS
 10
5.467000
 20
9.907920
  0
VERTEX
  8
0
  6
CONTINUOUS
 10
5.316080
 20
9.948840
  0
VERTEX
  8
0
  6
CONTINUOUS
 10
5.163400
 20
9.984480
  0
VERTEX
  8
0
  6
CONTINUOUS
 10
5.008960
 20
10.015280
  0
VERTEX
  8
0
  6
CONTINUOUS
 10
4.854080
 20
10.040360
  0
VERTEX
  8
0
  6
CONTINUOUS
 10
4.697880
 20
10.060160
  0
VERTEX
  8
0
  6
CONTINUOUS
 10
4.541240
 20
10.074680
  0
VERTEX
  8
0
  6
CONTINUOUS
 10
4.384160
 20
10.083920
  0
VERTEX
  8
0
  6
CONTINUOUS
 10
4.305400
 20
10.086560
  0
VERTEX
  8
0
  6
CONTINUOUS
 10
4.147880
 20
10.087000
  0
VERTEX
  8
0
  6
CONTINUOUS
 10
3.990800
 20
10.082160
  0
VERTEX
  8
0
  6
CONTINUOUS
 10
3.912480
 20
10.077760
  0
VERTEX
  8
0
  6
CONTINUOUS
 10
3.755840
 20
10.064120
  0
VERTEX
  8
0
  6
CONTINUOUS
 10
3.600520
 20
10.045200
  0
VERTEX
  8
0
  6
CONTINUOUS
 10
3.445640
 20
10.020120
  0
VERTEX
  8
0
  6
CONTINUOUS
 10
3.292520
 20
9.988880
  0
VERTEX
  8
0
  6
CONTINUOUS
 10
3.140280
 20
9.952360
  0
VERTEX
  8
0
  6
CONTINUOUS
 10
2.990240
 20
9.909240
  0
VERTEX
  8
0
  6
CONTINUOUS
 10
2.985400
 20
9.903520
  0
SEQEND
  8
0
  0
TEXT
  8
0
 10
3.167120
 20
9.386520
 40
0.138224
  1
BA  1105  2-1/2" x 2-1/2"
 41
1.000000
  7
SN0
 71
     0
 72
     5
 11
4.997943
 21
9.386520
  0
TEXT
  8
0
 10
3.167120
 20
9.195120
 40
0.138224
  1
BA  688 Top
 41
1.000000
  7
SN0
 71
     0
 72
     5
 11
4.092758
 21
9.195120
  0
ENDSEC
  0
EOF
