  0
SECTION
  2
HEADER
  9
$ACADVER
  1
AC1006
  9
$EXTMIN
 10
-0.886600
 20
3.619440
  9
$EXTMAX
 10
6.248000
 20
10.008680
  9
$LTSCALE
 40
0.044000
  9
$PDMODE
 70
    35
  9
$PDSIZE
 40
0.035200
  0
ENDSEC
  0
SECTION
  2
TABLES
  0
TABLE
  2
LTYPE
 70
     9
  0
LTYPE
  2
CONTINUOUS
 70
    64
  3
Solid line
 72
    65
 73
     0
 40
0.000000
  0
LTYPE
  2
DASHED
 70
    64
  3
__ __ __ __ __ __ __ __ __ __ __ __ __ __ __
 72
    65
 73
     2
 40
0.000330
 49
0.000220
 49
-0.000110
  0
LTYPE
  2
HIDDEN
 70
    64
  3
 _ _ _ _ _ _ _ _ _ _ _ _ _ _ _ _ _ _ _ _ _ _
 72
    65
 73
     2
 40
0.000165
 49
0.000110
 49
-0.000055
  0
LTYPE
  2
CENTER
 70
    64
  3
____ _ ____ _ ____ _ ____ _ ____ _ ____ _ ____
 72
    65
 73
     4
 40
0.000880
 49
0.000550
 49
-0.000110
 49
0.000110
 49
-0.000110
  0
LTYPE
  2
PHANTOM
 70
    64
  3
_____ _ _ _____ _ _ _____ _ _ _____ _ _ ____
 72
    65
 73
     6
 40
0.001100
 49
0.000550
 49
-0.000110
 49
0.000110
 49
-0.000110
 49
0.000110
 49
-0.000110
  0
LTYPE
  2
DOT
 70
    64
  3
...............................................
 72
    65
 73
     2
 40
0.000110
 49
0.000000
 49
-0.000110
  0
LTYPE
  2
DASHDOT
 70
    64
  3
__ . __ . __ . __ . __ . __ . __ . __ . __ . __
 72
    65
 73
     4
 40
0.000440
 49
0.000220
 49
-0.000110
 49
0.000000
 49
-0.000110
  0
LTYPE
  2
BORDER
 70
    64
  3
__ __ . __ __ . __ __ . __ __ . __ __ . __ __
 72
    65
 73
     6
 40
0.000770
 49
0.000220
 49
-0.000110
 49
0.000220
 49
-0.000110
 49
0.000000
 49
-0.000110
  0
LTYPE
  2
DIVIDE
 70
    64
  3
__ . . __ . . __ . . __ . . __ . . __ . . __
 72
    65
 73
     6
 40
0.000550
 49
0.000220
 49
-0.000110
 49
0.000000
 49
-0.000110
 49
0.000000
 49
-0.000110
  0
LTYPE
  2
DOTDOT
 70
    64
  3
 . .  . .  . .  . .  . .  . . 
 72
    65
 73
     5
 40
0.000242
 49
-0.000110
 49
0.000000
 49
-0.000110
 49
0.000000
 49
-0.000110
  0
ENDTAB
  0
TABLE
  2
STYLE
 70
     2
  0
STYLE
 70
     0
  2
SN0
 40
0.000000
 41
0.000440
 50
0.000000
 71
     0
 42
0.000000
  3
ROMAND
  0
STYLE
 70
    68
  2
SV0
 40
0.000000
 41
0.000440
 50
0.000000
 71
     0
 42
0.000000
  3
ROMAND
  0
ENDTAB
  0
TABLE
  2
LAYER
 70
     3
  0
LAYER
  2
FOREGROUND
 70
    64
 62
     7
  6
CONTINUOUS
  0
LAYER
  2
BACKGROUND
 70
    65
 62
    -7
  6
CONTINUOUS
  0
LAYER
  2
0
 70
    64
 62
     7
  6
CONTINUOUS
  0
ENDTAB
  0
ENDSEC
  0
SECTION
  2
ENTITIES
  0
POLYLINE
  8
FOREGROUND
  6
CONTINUOUS
 66
     1
 40
0.000000
 41
0.000000
  0
VERTEX
  8
FOREGROUND
  6
CONTINUOUS
 10
0.000000
 20
13.628120
  0
VERTEX
  8
FOREGROUND
  6
CONTINUOUS
 10
8.499920
 20
13.628120
  0
VERTEX
  8
FOREGROUND
  6
CONTINUOUS
 10
8.499920
 20
2.628120
  0
VERTEX
  8
FOREGROUND
  6
CONTINUOUS
 10
0.000000
 20
2.628120
  0
VERTEX
  8
FOREGROUND
  6
CONTINUOUS
 10
0.000000
 20
13.628120
  0
SEQEND
  8
0
  0
POLYLINE
  8
FOREGROUND
  6
CONTINUOUS
 66
     1
 40
0.000000
 41
0.000000
  0
VERTEX
  8
FOREGROUND
  6
CONTINUOUS
 10
0.000000
 20
13.628120
  0
VERTEX
  8
FOREGROUND
  6
CONTINUOUS
 10
8.499920
 20
13.628120
  0
VERTEX
  8
FOREGROUND
  6
CONTINUOUS
 10
8.499920
 20
2.628120
  0
VERTEX
  8
FOREGROUND
  6
CONTINUOUS
 10
0.000000
 20
2.628120
  0
VERTEX
  8
FOREGROUND
  6
CONTINUOUS
 10
0.000000
 20
13.628120
  0
SEQEND
  8
0
  0
POLYLINE
  8
0
  6
CONTINUOUS
 66
     1
 40
0.000000
 41
0.000000
  0
VERTEX
  8
0
  6
CONTINUOUS
 10
2.484680
 20
5.874880
  0
VERTEX
  8
0
  6
CONTINUOUS
 10
5.970800
 20
5.874880
  0
VERTEX
  8
0
  6
CONTINUOUS
 10
5.970800
 20
6.016560
  0
VERTEX
  8
0
  6
CONTINUOUS
 10
6.212360
 20
6.048240
  0
VERTEX
  8
0
  6
CONTINUOUS
 10
6.212360
 20
6.175400
  0
VERTEX
  8
0
  6
CONTINUOUS
 10
5.970800
 20
6.202240
  0
VERTEX
  8
0
  6
CONTINUOUS
 10
5.970800
 20
6.246240
  0
VERTEX
  8
0
  6
CONTINUOUS
 10
5.968600
 20
6.245800
  0
VERTEX
  8
0
  6
CONTINUOUS
 10
5.968160
 20
6.257240
  0
VERTEX
  8
0
  6
CONTINUOUS
 10
5.966400
 20
6.268680
  0
VERTEX
  8
0
  6
CONTINUOUS
 10
5.963760
 20
6.279240
  0
VERTEX
  8
0
  6
CONTINUOUS
 10
5.959800
 20
6.289800
  0
VERTEX
  8
0
  6
CONTINUOUS
 10
5.954960
 20
6.299480
  0
VERTEX
  8
0
  6
CONTINUOUS
 10
5.949240
 20
6.308720
  0
VERTEX
  8
0
  6
CONTINUOUS
 10
5.943080
 20
6.317520
  0
VERTEX
  8
0
  6
CONTINUOUS
 10
5.935600
 20
6.325440
  0
VERTEX
  8
0
  6
CONTINUOUS
 10
5.927680
 20
6.332920
  0
VERTEX
  8
0
  6
CONTINUOUS
 10
5.919320
 20
6.339080
  0
VERTEX
  8
0
  6
CONTINUOUS
 10
5.910080
 20
6.344800
  0
VERTEX
  8
0
  6
CONTINUOUS
 10
5.899960
 20
6.349640
  0
VERTEX
  8
0
  6
CONTINUOUS
 10
5.889840
 20
6.353600
  0
VERTEX
  8
0
  6
CONTINUOUS
 10
5.878840
 20
6.356240
  0
VERTEX
  8
0
  6
CONTINUOUS
 10
5.867840
 20
6.358000
  0
VERTEX
  8
0
  6
CONTINUOUS
 10
5.856400
 20
6.358440
  0
VERTEX
  8
0
  6
CONTINUOUS
 10
5.844520
 20
6.358000
  0
VERTEX
  8
0
  6
CONTINUOUS
 10
5.833080
 20
6.356240
  0
VERTEX
  8
0
  6
CONTINUOUS
 10
5.822080
 20
6.353160
  0
VERTEX
  8
0
  6
CONTINUOUS
 10
5.811520
 20
6.349200
  0
VERTEX
  8
0
  6
CONTINUOUS
 10
5.801400
 20
6.344360
  0
VERTEX
  8
0
  6
CONTINUOUS
 10
5.792160
 20
6.338200
  0
VERTEX
  8
0
  6
CONTINUOUS
 10
5.783360
 20
6.331160
  0
VERTEX
  8
0
  6
CONTINUOUS
 10
5.775440
 20
6.323680
  0
VERTEX
  8
0
  6
CONTINUOUS
 10
5.735840
 20
6.364160
  0
VERTEX
  8
0
  6
CONTINUOUS
 10
2.478080
 20
6.364160
  0
VERTEX
  8
0
  6
CONTINUOUS
 10
2.479840
 20
6.364600
  0
VERTEX
  8
0
  6
CONTINUOUS
 10
2.479840
 20
6.196520
  0
VERTEX
  8
0
  6
CONTINUOUS
 10
2.742080
 20
6.180680
  0
VERTEX
  8
0
  6
CONTINUOUS
 10
2.745600
 20
6.055720
  0
VERTEX
  8
0
  6
CONTINUOUS
 10
2.479840
 20
6.020520
  0
VERTEX
  8
0
  6
CONTINUOUS
 10
2.479840
 20
5.874000
  0
VERTEX
  8
0
  6
CONTINUOUS
 10
2.484680
 20
5.874880
  0
SEQEND
  8
0
  0
POLYLINE
  8
0
  6
CONTINUOUS
 66
     1
 40
0.000000
 41
0.000000
  0
VERTEX
  8
0
  6
CONTINUOUS
 10
6.151640
 20
6.742560
  0
VERTEX
  8
0
  6
CONTINUOUS
 10
2.665520
 20
6.742560
  0
VERTEX
  8
0
  6
CONTINUOUS
 10
2.665520
 20
6.884240
  0
VERTEX
  8
0
  6
CONTINUOUS
 10
2.423520
 20
6.915920
  0
VERTEX
  8
0
  6
CONTINUOUS
 10
2.423520
 20
7.042640
  0
VERTEX
  8
0
  6
CONTINUOUS
 10
2.665520
 20
7.069480
  0
VERTEX
  8
0
  6
CONTINUOUS
 10
2.665520
 20
7.113480
  0
VERTEX
  8
0
  6
CONTINUOUS
 10
2.667280
 20
7.113480
  0
VERTEX
  8
0
  6
CONTINUOUS
 10
2.667720
 20
7.124920
  0
VERTEX
  8
0
  6
CONTINUOUS
 10
2.669480
 20
7.135920
  0
VERTEX
  8
0
  6
CONTINUOUS
 10
2.672120
 20
7.146920
  0
VERTEX
  8
0
  6
CONTINUOUS
 10
2.676080
 20
7.157040
  0
VERTEX
  8
0
  6
CONTINUOUS
 10
2.680920
 20
7.167160
  0
VERTEX
  8
0
  6
CONTINUOUS
 10
2.686640
 20
7.176400
  0
VERTEX
  8
0
  6
CONTINUOUS
 10
2.692800
 20
7.185200
  0
VERTEX
  8
0
  6
CONTINUOUS
 10
2.700280
 20
7.193120
  0
VERTEX
  8
0
  6
CONTINUOUS
 10
2.708200
 20
7.200160
  0
VERTEX
  8
0
  6
CONTINUOUS
 10
2.716560
 20
7.206760
  0
VERTEX
  8
0
  6
CONTINUOUS
 10
2.725800
 20
7.212480
  0
VERTEX
  8
0
  6
CONTINUOUS
 10
2.735920
 20
7.217320
  0
VERTEX
  8
0
  6
CONTINUOUS
 10
2.746040
 20
7.220840
  0
VERTEX
  8
0
  6
CONTINUOUS
 10
2.757040
 20
7.223920
  0
VERTEX
  8
0
  6
CONTINUOUS
 10
2.768040
 20
7.225680
  0
VERTEX
  8
0
  6
CONTINUOUS
 10
2.779480
 20
7.226120
  0
VERTEX
  8
0
  6
CONTINUOUS
 10
2.791360
 20
7.225680
  0
VERTEX
  8
0
  6
CONTINUOUS
 10
2.802800
 20
7.223920
  0
VERTEX
  8
0
  6
CONTINUOUS
 10
2.813800
 20
7.220840
  0
VERTEX
  8
0
  6
CONTINUOUS
 10
2.824360
 20
7.216880
  0
VERTEX
  8
0
  6
CONTINUOUS
 10
2.834480
 20
7.212040
  0
VERTEX
  8
0
  6
CONTINUOUS
 10
2.844160
 20
7.205880
  0
VERTEX
  8
0
  6
CONTINUOUS
 10
2.852960
 20
7.198840
  0
VERTEX
  8
0
  6
CONTINUOUS
 10
2.860880
 20
7.191360
  0
VERTEX
  8
0
  6
CONTINUOUS
 10
2.900040
 20
7.231840
  0
VERTEX
  8
0
  6
CONTINUOUS
 10
6.158240
 20
7.231840
  0
VERTEX
  8
0
  6
CONTINUOUS
 10
6.156040
 20
7.232280
  0
VERTEX
  8
0
  6
CONTINUOUS
 10
6.156040
 20
7.064200
  0
VERTEX
  8
0
  6
CONTINUOUS
 10
5.893800
 20
7.048360
  0
VERTEX
  8
0
  6
CONTINUOUS
 10
5.890720
 20
6.923400
  0
VERTEX
  8
0
  6
CONTINUOUS
 10
6.156040
 20
6.888200
  0
VERTEX
  8
0
  6
CONTINUOUS
 10
6.156040
 20
6.741680
  0
VERTEX
  8
0
  6
CONTINUOUS
 10
6.151640
 20
6.742560
  0
SEQEND
  8
0
  0
SOLID
  8
0
 62
    15
 10
5.928120
 20
8.472200
 11
5.931640
 21
9.212280
 12
5.944840
 22
8.458560
 13
5.948360
 23
9.198640
  0
POLYLINE
  8
0
  6
CONTINUOUS
 66
     1
 40
0.000000
 41
0.000000
  0
VERTEX
  8
0
  6
CONTINUOUS
 10
5.928120
 20
8.472200
  0
VERTEX
  8
0
  6
CONTINUOUS
 10
5.931640
 20
9.212280
  0
VERTEX
  8
0
  6
CONTINUOUS
 10
5.948360
 20
9.198640
  0
VERTEX
  8
0
  6
CONTINUOUS
 10
5.944840
 20
8.458560
  0
VERTEX
  8
0
  6
CONTINUOUS
 10
5.928120
 20
8.472200
  0
SEQEND
  8
0
  0
SOLID
  8
0
 62
    15
 10
2.489080
 20
8.153640
 11
2.492600
 21
8.893720
 12
2.754400
 22
8.188840
 13
2.757920
 23
8.928920
  0
POLYLINE
  8
0
  6
CONTINUOUS
 66
     1
 40
0.000000
 41
0.000000
  0
VERTEX
  8
0
  6
CONTINUOUS
 10
2.489080
 20
8.153640
  0
VERTEX
  8
0
  6
CONTINUOUS
 10
2.492600
 20
8.893720
  0
VERTEX
  8
0
  6
CONTINUOUS
 10
2.757920
 20
8.928920
  0
VERTEX
  8
0
  6
CONTINUOUS
 10
2.754400
 20
8.188840
  0
VERTEX
  8
0
  6
CONTINUOUS
 10
2.489080
 20
8.153640
  0
SEQEND
  8
0
  0
SOLID
  8
0
 62
    15
 10
5.745080
 20
8.496840
 11
5.748600
 21
9.237360
 12
5.784240
 22
8.456800
 13
5.787760
 23
9.196880
  0
POLYLINE
  8
0
  6
CONTINUOUS
 66
     1
 40
0.000000
 41
0.000000
  0
VERTEX
  8
0
  6
CONTINUOUS
 10
5.745080
 20
8.496840
  0
VERTEX
  8
0
  6
CONTINUOUS
 10
5.748600
 20
9.237360
  0
VERTEX
  8
0
  6
CONTINUOUS
 10
5.787760
 20
9.196880
  0
VERTEX
  8
0
  6
CONTINUOUS
 10
5.784240
 20
8.456800
  0
VERTEX
  8
0
  6
CONTINUOUS
 10
5.745080
 20
8.496840
  0
SEQEND
  8
0
  0
SOLID
  8
0
 62
    15
 10
5.784240
 20
8.456800
 11
5.787760
 21
9.196880
 12
5.800960
 22
8.470880
 13
5.804480
 23
9.211400
  0
POLYLINE
  8
0
  6
CONTINUOUS
 66
     1
 40
0.000000
 41
0.000000
  0
VERTEX
  8
0
  6
CONTINUOUS
 10
5.784240
 20
8.456800
  0
VERTEX
  8
0
  6
CONTINUOUS
 10
5.787760
 20
9.196880
  0
VERTEX
  8
0
  6
CONTINUOUS
 10
5.804480
 20
9.211400
  0
VERTEX
  8
0
  6
CONTINUOUS
 10
5.800960
 20
8.470880
  0
VERTEX
  8
0
  6
CONTINUOUS
 10
5.784240
 20
8.456800
  0
SEQEND
  8
0
  0
SOLID
  8
0
 62
    15
 10
5.800960
 20
8.470880
 11
5.804480
 21
9.211400
 12
5.820760
 22
8.481880
 13
5.823840
 23
9.221960
  0
POLYLINE
  8
0
  6
CONTINUOUS
 66
     1
 40
0.000000
 41
0.000000
  0
VERTEX
  8
0
  6
CONTINUOUS
 10
5.800960
 20
8.470880
  0
VERTEX
  8
0
  6
CONTINUOUS
 10
5.804480
 20
9.211400
  0
VERTEX
  8
0
  6
CONTINUOUS
 10
5.823840
 20
9.221960
  0
VERTEX
  8
0
  6
CONTINUOUS
 10
5.820760
 20
8.481880
  0
VERTEX
  8
0
  6
CONTINUOUS
 10
5.800960
 20
8.470880
  0
SEQEND
  8
0
  0
SOLID
  8
0
 62
    15
 10
5.820760
 20
8.481880
 11
5.823840
 21
9.221960
 12
5.842320
 22
8.488920
 13
5.845840
 23
9.229000
  0
POLYLINE
  8
0
  6
CONTINUOUS
 66
     1
 40
0.000000
 41
0.000000
  0
VERTEX
  8
0
  6
CONTINUOUS
 10
5.820760
 20
8.481880
  0
VERTEX
  8
0
  6
CONTINUOUS
 10
5.823840
 20
9.221960
  0
VERTEX
  8
0
  6
CONTINUOUS
 10
5.845840
 20
9.229000
  0
VERTEX
  8
0
  6
CONTINUOUS
 10
5.842320
 20
8.488920
  0
VERTEX
  8
0
  6
CONTINUOUS
 10
5.820760
 20
8.481880
  0
SEQEND
  8
0
  0
SOLID
  8
0
 62
    15
 10
5.842320
 20
8.488920
 11
5.845840
 21
9.229000
 12
5.865640
 22
8.491120
 13
5.868720
 23
9.231640
  0
POLYLINE
  8
0
  6
CONTINUOUS
 66
     1
 40
0.000000
 41
0.000000
  0
VERTEX
  8
0
  6
CONTINUOUS
 10
5.842320
 20
8.488920
  0
VERTEX
  8
0
  6
CONTINUOUS
 10
5.845840
 20
9.229000
  0
VERTEX
  8
0
  6
CONTINUOUS
 10
5.868720
 20
9.231640
  0
VERTEX
  8
0
  6
CONTINUOUS
 10
5.865640
 20
8.491120
  0
VERTEX
  8
0
  6
CONTINUOUS
 10
5.842320
 20
8.488920
  0
SEQEND
  8
0
  0
SOLID
  8
0
 62
    15
 10
5.865640
 20
8.491120
 11
5.868720
 21
9.231640
 12
5.888080
 22
8.488920
 13
5.891600
 23
9.229000
  0
POLYLINE
  8
0
  6
CONTINUOUS
 66
     1
 40
0.000000
 41
0.000000
  0
VERTEX
  8
0
  6
CONTINUOUS
 10
5.865640
 20
8.491120
  0
VERTEX
  8
0
  6
CONTINUOUS
 10
5.868720
 20
9.231640
  0
VERTEX
  8
0
  6
CONTINUOUS
 10
5.891600
 20
9.229000
  0
VERTEX
  8
0
  6
CONTINUOUS
 10
5.888080
 20
8.488920
  0
VERTEX
  8
0
  6
CONTINUOUS
 10
5.865640
 20
8.491120
  0
SEQEND
  8
0
  0
SOLID
  8
0
 62
    15
 10
5.888080
 20
8.488920
 11
5.891600
 21
9.229000
 12
5.909200
 22
8.482320
 13
5.912720
 23
9.222840
  0
POLYLINE
  8
0
  6
CONTINUOUS
 66
     1
 40
0.000000
 41
0.000000
  0
VERTEX
  8
0
  6
CONTINUOUS
 10
5.888080
 20
8.488920
  0
VERTEX
  8
0
  6
CONTINUOUS
 10
5.891600
 20
9.229000
  0
VERTEX
  8
0
  6
CONTINUOUS
 10
5.912720
 20
9.222840
  0
VERTEX
  8
0
  6
CONTINUOUS
 10
5.909200
 20
8.482320
  0
VERTEX
  8
0
  6
CONTINUOUS
 10
5.888080
 20
8.488920
  0
SEQEND
  8
0
  0
SOLID
  8
0
 62
    15
 10
5.909200
 20
8.482320
 11
5.912720
 21
9.222840
 12
5.928120
 22
8.472200
 13
5.931640
 23
9.212280
  0
POLYLINE
  8
0
  6
CONTINUOUS
 66
     1
 40
0.000000
 41
0.000000
  0
VERTEX
  8
0
  6
CONTINUOUS
 10
5.909200
 20
8.482320
  0
VERTEX
  8
0
  6
CONTINUOUS
 10
5.912720
 20
9.222840
  0
VERTEX
  8
0
  6
CONTINUOUS
 10
5.931640
 20
9.212280
  0
VERTEX
  8
0
  6
CONTINUOUS
 10
5.928120
 20
8.472200
  0
VERTEX
  8
0
  6
CONTINUOUS
 10
5.909200
 20
8.482320
  0
SEQEND
  8
0
  0
SOLID
  8
0
 62
    15
 10
2.486880
 20
8.496840
 11
2.490400
 21
9.237360
 12
5.745080
 22
8.496840
 13
5.748600
 23
9.237360
  0
POLYLINE
  8
0
  6
CONTINUOUS
 66
     1
 40
0.000000
 41
0.000000
  0
VERTEX
  8
0
  6
CONTINUOUS
 10
2.486880
 20
8.496840
  0
VERTEX
  8
0
  6
CONTINUOUS
 10
2.490400
 20
9.237360
  0
VERTEX
  8
0
  6
CONTINUOUS
 10
5.748600
 20
9.237360
  0
VERTEX
  8
0
  6
CONTINUOUS
 10
5.745080
 20
8.496840
  0
VERTEX
  8
0
  6
CONTINUOUS
 10
2.486880
 20
8.496840
  0
SEQEND
  8
0
  0
SOLID
  8
0
 62
    15
 10
5.944840
 20
8.458560
 11
5.948360
 21
9.198640
 12
5.958480
 22
8.441840
 13
5.962000
 23
9.181920
  0
POLYLINE
  8
0
  6
CONTINUOUS
 66
     1
 40
0.000000
 41
0.000000
  0
VERTEX
  8
0
  6
CONTINUOUS
 10
5.944840
 20
8.458560
  0
VERTEX
  8
0
  6
CONTINUOUS
 10
5.948360
 20
9.198640
  0
VERTEX
  8
0
  6
CONTINUOUS
 10
5.962000
 20
9.181920
  0
VERTEX
  8
0
  6
CONTINUOUS
 10
5.958480
 20
8.441840
  0
VERTEX
  8
0
  6
CONTINUOUS
 10
5.944840
 20
8.458560
  0
SEQEND
  8
0
  0
SOLID
  8
0
 62
    15
 10
5.958480
 20
8.441840
 11
5.962000
 21
9.181920
 12
5.969040
 22
8.422480
 13
5.972560
 23
9.163000
  0
POLYLINE
  8
0
  6
CONTINUOUS
 66
     1
 40
0.000000
 41
0.000000
  0
VERTEX
  8
0
  6
CONTINUOUS
 10
5.958480
 20
8.441840
  0
VERTEX
  8
0
  6
CONTINUOUS
 10
5.962000
 20
9.181920
  0
VERTEX
  8
0
  6
CONTINUOUS
 10
5.972560
 20
9.163000
  0
VERTEX
  8
0
  6
CONTINUOUS
 10
5.969040
 20
8.422480
  0
VERTEX
  8
0
  6
CONTINUOUS
 10
5.958480
 20
8.441840
  0
SEQEND
  8
0
  0
SOLID
  8
0
 62
    15
 10
6.221600
 20
8.308080
 11
6.224680
 21
9.048160
 12
6.221600
 22
8.180920
 13
6.224680
 23
8.921440
  0
POLYLINE
  8
0
  6
CONTINUOUS
 66
     1
 40
0.000000
 41
0.000000
  0
VERTEX
  8
0
  6
CONTINUOUS
 10
6.221600
 20
8.308080
  0
VERTEX
  8
0
  6
CONTINUOUS
 10
6.224680
 20
9.048160
  0
VERTEX
  8
0
  6
CONTINUOUS
 10
6.224680
 20
8.921440
  0
VERTEX
  8
0
  6
CONTINUOUS
 10
6.221600
 20
8.180920
  0
VERTEX
  8
0
  6
CONTINUOUS
 10
6.221600
 20
8.308080
  0
SEQEND
  8
0
  0
SOLID
  8
0
 62
    15
 10
5.979600
 20
8.334920
 11
5.983120
 21
9.075000
 12
6.221600
 22
8.308080
 13
6.224680
 23
9.048160
  0
POLYLINE
  8
0
  6
CONTINUOUS
 66
     1
 40
0.000000
 41
0.000000
  0
VERTEX
  8
0
  6
CONTINUOUS
 10
5.979600
 20
8.334920
  0
VERTEX
  8
0
  6
CONTINUOUS
 10
5.983120
 20
9.075000
  0
VERTEX
  8
0
  6
CONTINUOUS
 10
6.224680
 20
9.048160
  0
VERTEX
  8
0
  6
CONTINUOUS
 10
6.221600
 20
8.308080
  0
VERTEX
  8
0
  6
CONTINUOUS
 10
5.979600
 20
8.334920
  0
SEQEND
  8
0
  0
SOLID
  8
0
 62
    15
 10
5.979600
 20
8.378920
 11
5.983120
 21
9.119000
 12
5.979600
 22
8.334920
 13
5.983120
 23
9.075000
  0
POLYLINE
  8
0
  6
CONTINUOUS
 66
     1
 40
0.000000
 41
0.000000
  0
VERTEX
  8
0
  6
CONTINUOUS
 10
5.979600
 20
8.378920
  0
VERTEX
  8
0
  6
CONTINUOUS
 10
5.983120
 20
9.119000
  0
VERTEX
  8
0
  6
CONTINUOUS
 10
5.983120
 20
9.075000
  0
VERTEX
  8
0
  6
CONTINUOUS
 10
5.979600
 20
8.334920
  0
VERTEX
  8
0
  6
CONTINUOUS
 10
5.979600
 20
8.378920
  0
SEQEND
  8
0
  0
SOLID
  8
0
 62
    15
 10
5.977840
 20
8.378920
 11
5.981360
 21
9.119000
 12
5.979600
 22
8.378920
 13
5.983120
 23
9.119000
  0
POLYLINE
  8
0
  6
CONTINUOUS
 66
     1
 40
0.000000
 41
0.000000
  0
VERTEX
  8
0
  6
CONTINUOUS
 10
5.977840
 20
8.378920
  0
VERTEX
  8
0
  6
CONTINUOUS
 10
5.981360
 20
9.119000
  0
VERTEX
  8
0
  6
CONTINUOUS
 10
5.983120
 20
9.119000
  0
VERTEX
  8
0
  6
CONTINUOUS
 10
5.979600
 20
8.378920
  0
VERTEX
  8
0
  6
CONTINUOUS
 10
5.977840
 20
8.378920
  0
SEQEND
  8
0
  0
SOLID
  8
0
 62
    15
 10
5.975640
 20
8.401360
 11
5.979160
 21
9.141880
 12
5.977840
 22
8.378920
 13
5.981360
 23
9.119000
  0
POLYLINE
  8
0
  6
CONTINUOUS
 66
     1
 40
0.000000
 41
0.000000
  0
VERTEX
  8
0
  6
CONTINUOUS
 10
5.975640
 20
8.401360
  0
VERTEX
  8
0
  6
CONTINUOUS
 10
5.979160
 20
9.141880
  0
VERTEX
  8
0
  6
CONTINUOUS
 10
5.981360
 20
9.119000
  0
VERTEX
  8
0
  6
CONTINUOUS
 10
5.977840
 20
8.378920
  0
VERTEX
  8
0
  6
CONTINUOUS
 10
5.975640
 20
8.401360
  0
SEQEND
  8
0
  0
SOLID
  8
0
 62
    15
 10
5.969040
 20
8.422480
 11
5.972560
 21
9.163000
 12
5.975640
 22
8.401360
 13
5.979160
 23
9.141880
  0
POLYLINE
  8
0
  6
CONTINUOUS
 66
     1
 40
0.000000
 41
0.000000
  0
VERTEX
  8
0
  6
CONTINUOUS
 10
5.969040
 20
8.422480
  0
VERTEX
  8
0
  6
CONTINUOUS
 10
5.972560
 20
9.163000
  0
VERTEX
  8
0
  6
CONTINUOUS
 10
5.979160
 20
9.141880
  0
VERTEX
  8
0
  6
CONTINUOUS
 10
5.975640
 20
8.401360
  0
VERTEX
  8
0
  6
CONTINUOUS
 10
5.969040
 20
8.422480
  0
SEQEND
  8
0
  0
SOLID
  8
0
 62
    15
 10
5.979600
 20
8.149240
 11
5.983120
 21
8.889320
 12
5.979600
 22
8.007560
 13
5.983120
 23
8.748080
  0
POLYLINE
  8
0
  6
CONTINUOUS
 66
     1
 40
0.000000
 41
0.000000
  0
VERTEX
  8
0
  6
CONTINUOUS
 10
5.979600
 20
8.149240
  0
VERTEX
  8
0
  6
CONTINUOUS
 10
5.983120
 20
8.889320
  0
VERTEX
  8
0
  6
CONTINUOUS
 10
5.983120
 20
8.748080
  0
VERTEX
  8
0
  6
CONTINUOUS
 10
5.979600
 20
8.007560
  0
VERTEX
  8
0
  6
CONTINUOUS
 10
5.979600
 20
8.149240
  0
SEQEND
  8
0
  0
POLYLINE
  8
0
  6
CONTINUOUS
 66
     1
 40
0.000000
 41
0.000000
  0
VERTEX
  8
0
  6
CONTINUOUS
 10
2.489080
 20
8.006680
  0
VERTEX
  8
0
  6
CONTINUOUS
 10
2.489080
 20
8.153640
  0
VERTEX
  8
0
  6
CONTINUOUS
 10
2.754400
 20
8.188840
  0
VERTEX
  8
0
  6
CONTINUOUS
 10
2.751320
 20
8.313360
  0
VERTEX
  8
0
  6
CONTINUOUS
 10
2.489080
 20
8.329640
  0
VERTEX
  8
0
  6
CONTINUOUS
 10
2.489080
 20
8.497280
  0
VERTEX
  8
0
  6
CONTINUOUS
 10
2.486880
 20
8.496840
  0
VERTEX
  8
0
  6
CONTINUOUS
 10
5.745080
 20
8.496840
  0
VERTEX
  8
0
  6
CONTINUOUS
 10
5.784240
 20
8.456800
  0
VERTEX
  8
0
  6
CONTINUOUS
 10
5.800960
 20
8.470880
  0
VERTEX
  8
0
  6
CONTINUOUS
 10
5.820760
 20
8.481880
  0
VERTEX
  8
0
  6
CONTINUOUS
 10
5.842320
 20
8.488920
  0
VERTEX
  8
0
  6
CONTINUOUS
 10
5.865640
 20
8.491120
  0
VERTEX
  8
0
  6
CONTINUOUS
 10
5.888080
 20
8.488920
  0
VERTEX
  8
0
  6
CONTINUOUS
 10
5.909200
 20
8.482320
  0
VERTEX
  8
0
  6
CONTINUOUS
 10
5.928120
 20
8.472200
  0
VERTEX
  8
0
  6
CONTINUOUS
 10
5.944840
 20
8.458560
  0
VERTEX
  8
0
  6
CONTINUOUS
 10
5.958480
 20
8.441840
  0
VERTEX
  8
0
  6
CONTINUOUS
 10
5.969040
 20
8.422480
  0
VERTEX
  8
0
  6
CONTINUOUS
 10
5.975640
 20
8.401360
  0
VERTEX
  8
0
  6
CONTINUOUS
 10
5.977840
 20
8.378920
  0
VERTEX
  8
0
  6
CONTINUOUS
 10
5.979600
 20
8.378920
  0
VERTEX
  8
0
  6
CONTINUOUS
 10
5.979600
 20
8.334920
  0
VERTEX
  8
0
  6
CONTINUOUS
 10
6.221600
 20
8.308080
  0
VERTEX
  8
0
  6
CONTINUOUS
 10
6.221600
 20
8.180920
  0
VERTEX
  8
0
  6
CONTINUOUS
 10
5.979600
 20
8.149240
  0
VERTEX
  8
0
  6
CONTINUOUS
 10
5.979600
 20
8.007560
  0
VERTEX
  8
0
  6
CONTINUOUS
 10
2.493480
 20
8.007560
  0
VERTEX
  8
0
  6
CONTINUOUS
 10
2.489080
 20
8.006680
  0
SEQEND
  8
0
  0
TEXT
  8
0
 10
4.014120
 20
7.765120
 40
0.138327
  1
BA  1103
 41
1.000000
  7
SN0
 71
     0
 72
     5
 11
4.697258
 21
7.765120
  0
TEXT
  8
0
 10
3.765960
 20
7.573280
 40
0.138327
  1
1/2" x 3 - 13/16"
 41
1.000000
  7
SN0
 71
     0
 72
     5
 11
4.945309
 21
7.573280
  0
POLYLINE
  8
0
  6
CONTINUOUS
 66
     1
 40
0.014080
 41
0.014080
  0
VERTEX
  8
0
  6
CONTINUOUS
 10
2.512840
 20
9.509720
  0
VERTEX
  8
0
  6
CONTINUOUS
 10
5.998960
 20
9.509720
  0
VERTEX
  8
0
  6
CONTINUOUS
 10
5.998960
 20
9.651400
  0
VERTEX
  8
0
  6
CONTINUOUS
 10
6.240520
 20
9.683080
  0
VERTEX
  8
0
  6
CONTINUOUS
 10
6.240520
 20
9.809800
  0
VERTEX
  8
0
  6
CONTINUOUS
 10
5.998960
 20
9.836640
  0
VERTEX
  8
0
  6
CONTINUOUS
 10
5.998960
 20
9.880640
  0
VERTEX
  8
0
  6
CONTINUOUS
 10
5.997200
 20
9.880640
  0
VERTEX
  8
0
  6
CONTINUOUS
 10
5.996760
 20
9.892080
  0
VERTEX
  8
0
  6
CONTINUOUS
 10
5.995000
 20
9.903080
  0
VERTEX
  8
0
  6
CONTINUOUS
 10
5.991920
 20
9.914080
  0
VERTEX
  8
0
  6
CONTINUOUS
 10
5.988400
 20
9.924200
  0
VERTEX
  8
0
  6
CONTINUOUS
 10
5.983560
 20
9.934320
  0
VERTEX
  8
0
  6
CONTINUOUS
 10
5.977840
 20
9.943560
  0
VERTEX
  8
0
  6
CONTINUOUS
 10
5.971240
 20
9.952360
  0
VERTEX
  8
0
  6
CONTINUOUS
 10
5.964200
 20
9.960280
  0
VERTEX
  8
0
  6
CONTINUOUS
 10
5.956280
 20
9.967320
  0
VERTEX
  8
0
  6
CONTINUOUS
 10
5.947480
 20
9.973920
  0
VERTEX
  8
0
  6
CONTINUOUS
 10
5.938240
 20
9.979640
  0
VERTEX
  8
0
  6
CONTINUOUS
 10
5.928120
 20
9.984480
  0
VERTEX
  8
0
  6
CONTINUOUS
 10
5.918000
 20
9.988000
  0
VERTEX
  8
0
  6
CONTINUOUS
 10
5.907000
 20
9.991080
  0
VERTEX
  8
0
  6
CONTINUOUS
 10
5.896000
 20
9.992840
  0
VERTEX
  8
0
  6
CONTINUOUS
 10
5.884560
 20
9.993280
  0
VERTEX
  8
0
  6
CONTINUOUS
 10
5.872680
 20
9.992840
  0
VERTEX
  8
0
  6
CONTINUOUS
 10
5.861240
 20
9.990640
  0
VERTEX
  8
0
  6
CONTINUOUS
 10
5.850240
 20
9.988000
  0
VERTEX
  8
0
  6
CONTINUOUS
 10
5.839680
 20
9.983600
  0
VERTEX
  8
0
  6
CONTINUOUS
 10
5.829560
 20
9.978760
  0
VERTEX
  8
0
  6
CONTINUOUS
 10
5.820320
 20
9.973040
  0
VERTEX
  8
0
  6
CONTINUOUS
 10
5.811520
 20
9.966000
  0
VERTEX
  8
0
  6
CONTINUOUS
 10
5.803600
 20
9.958520
  0
VERTEX
  8
0
  6
CONTINUOUS
 10
5.764440
 20
9.999000
  0
VERTEX
  8
0
  6
CONTINUOUS
 10
2.506240
 20
9.999000
  0
VERTEX
  8
0
  6
CONTINUOUS
 10
2.508000
 20
9.999440
  0
VERTEX
  8
0
  6
CONTINUOUS
 10
2.508000
 20
9.831360
  0
VERTEX
  8
0
  6
CONTINUOUS
 10
2.770680
 20
9.815080
  0
VERTEX
  8
0
  6
CONTINUOUS
 10
2.773760
 20
9.690560
  0
VERTEX
  8
0
  6
CONTINUOUS
 10
2.508000
 20
9.655360
  0
VERTEX
  8
0
  6
CONTINUOUS
 10
2.508000
 20
9.508840
  0
VERTEX
  8
0
  6
CONTINUOUS
 10
2.512840
 20
9.509720
  0
SEQEND
  8
0
  0
TEXT
  8
0
 10
4.040080
 20
9.773720
 40
0.138327
  1
BA  1103
 41
1.000000
  7
SN0
 71
     0
 72
     5
 11
4.723218
 21
9.773720
  0
TEXT
  8
0
 10
3.791920
 20
9.581880
 40
0.138327
  1
1/2" x 3 - 13/16"
 41
1.000000
  7
SN0
 71
     0
 72
     5
 11
4.971269
 21
9.581880
  0
ENDSEC
  0
EOF
