  0
SECTION
  2
HEADER
  9
$ACADVER
  1
AC1006
  9
$EXTMIN
 10
1.265440
 20
0.467280
  9
$EXTMAX
 10
7.143840
 20
10.028040
  9
$LTSCALE
 40
0.044000
  9
$PDMODE
 70
    35
  9
$PDSIZE
 40
0.035200
  0
ENDSEC
  0
SECTION
  2
TABLES
  0
TABLE
  2
LTYPE
 70
     9
  0
LTYPE
  2
CONTINUOUS
 70
    64
  3
Solid line
 72
    65
 73
     0
 40
0.000000
  0
LTYPE
  2
DASHED
 70
    64
  3
__ __ __ __ __ __ __ __ __ __ __ __ __ __ __
 72
    65
 73
     2
 40
0.000330
 49
0.000220
 49
-0.000110
  0
LTYPE
  2
HIDDEN
 70
    64
  3
 _ _ _ _ _ _ _ _ _ _ _ _ _ _ _ _ _ _ _ _ _ _
 72
    65
 73
     2
 40
0.000165
 49
0.000110
 49
-0.000055
  0
LTYPE
  2
CENTER
 70
    64
  3
____ _ ____ _ ____ _ ____ _ ____ _ ____ _ ____
 72
    65
 73
     4
 40
0.000880
 49
0.000550
 49
-0.000110
 49
0.000110
 49
-0.000110
  0
LTYPE
  2
PHANTOM
 70
    64
  3
_____ _ _ _____ _ _ _____ _ _ _____ _ _ ____
 72
    65
 73
     6
 40
0.001100
 49
0.000550
 49
-0.000110
 49
0.000110
 49
-0.000110
 49
0.000110
 49
-0.000110
  0
LTYPE
  2
DOT
 70
    64
  3
...............................................
 72
    65
 73
     2
 40
0.000110
 49
0.000000
 49
-0.000110
  0
LTYPE
  2
DASHDOT
 70
    64
  3
__ . __ . __ . __ . __ . __ . __ . __ . __ . __
 72
    65
 73
     4
 40
0.000440
 49
0.000220
 49
-0.000110
 49
0.000000
 49
-0.000110
  0
LTYPE
  2
BORDER
 70
    64
  3
__ __ . __ __ . __ __ . __ __ . __ __ . __ __
 72
    65
 73
     6
 40
0.000770
 49
0.000220
 49
-0.000110
 49
0.000220
 49
-0.000110
 49
0.000000
 49
-0.000110
  0
LTYPE
  2
DIVIDE
 70
    64
  3
__ . . __ . . __ . . __ . . __ . . __ . . __
 72
    65
 73
     6
 40
0.000550
 49
0.000220
 49
-0.000110
 49
0.000000
 49
-0.000110
 49
0.000000
 49
-0.000110
  0
LTYPE
  2
DOTDOT
 70
    64
  3
 . .  . .  . .  . .  . .  . . 
 72
    65
 73
     5
 40
0.000242
 49
-0.000110
 49
0.000000
 49
-0.000110
 49
0.000000
 49
-0.000110
  0
ENDTAB
  0
TABLE
  2
STYLE
 70
     2
  0
STYLE
 70
     0
  2
SN0
 40
0.000000
 41
0.000440
 50
0.000000
 71
     0
 42
0.000000
  3
ROMAND
  0
STYLE
 70
    68
  2
SV0
 40
0.000000
 41
0.000440
 50
0.000000
 71
     0
 42
0.000000
  3
ROMAND
  0
ENDTAB
  0
TABLE
  2
LAYER
 70
     3
  0
LAYER
  2
FOREGROUND
 70
    64
 62
     7
  6
CONTINUOUS
  0
LAYER
  2
BACKGROUND
 70
    65
 62
    -7
  6
CONTINUOUS
  0
LAYER
  2
0
 70
    64
 62
     7
  6
CONTINUOUS
  0
ENDTAB
  0
ENDSEC
  0
SECTION
  2
ENTITIES
  0
POLYLINE
  8
FOREGROUND
  6
CONTINUOUS
 66
     1
 40
0.000000
 41
0.000000
  0
VERTEX
  8
FOREGROUND
  6
CONTINUOUS
 10
0.000000
 20
10.495320
  0
VERTEX
  8
FOREGROUND
  6
CONTINUOUS
 10
8.499920
 20
10.495320
  0
VERTEX
  8
FOREGROUND
  6
CONTINUOUS
 10
8.499920
 20
-0.504680
  0
VERTEX
  8
FOREGROUND
  6
CONTINUOUS
 10
0.000000
 20
-0.504680
  0
VERTEX
  8
FOREGROUND
  6
CONTINUOUS
 10
0.000000
 20
10.495320
  0
SEQEND
  8
0
  0
POLYLINE
  8
FOREGROUND
  6
CONTINUOUS
 66
     1
 40
0.000000
 41
0.000000
  0
VERTEX
  8
FOREGROUND
  6
CONTINUOUS
 10
0.000000
 20
10.495320
  0
VERTEX
  8
FOREGROUND
  6
CONTINUOUS
 10
8.499920
 20
10.495320
  0
VERTEX
  8
FOREGROUND
  6
CONTINUOUS
 10
8.499920
 20
-0.504680
  0
VERTEX
  8
FOREGROUND
  6
CONTINUOUS
 10
0.000000
 20
-0.504680
  0
VERTEX
  8
FOREGROUND
  6
CONTINUOUS
 10
0.000000
 20
10.495320
  0
SEQEND
  8
0
  0
POLYLINE
  8
0
  6
CONTINUOUS
 66
     1
 40
0.000000
 41
0.000000
  0
VERTEX
  8
0
  6
CONTINUOUS
 10
7.032520
 20
3.208920
  0
VERTEX
  8
0
  6
CONTINUOUS
 10
4.563240
 20
3.208480
  0
VERTEX
  8
0
  6
CONTINUOUS
 10
4.545640
 20
3.203640
  0
VERTEX
  8
0
  6
CONTINUOUS
 10
4.531560
 20
3.195720
  0
VERTEX
  8
0
  6
CONTINUOUS
 10
4.516600
 20
3.177680
  0
VERTEX
  8
0
  6
CONTINUOUS
 10
4.510000
 20
3.162720
  0
VERTEX
  8
0
  6
CONTINUOUS
 10
4.506040
 20
3.147320
  0
VERTEX
  8
0
  6
CONTINUOUS
 10
4.502960
 20
3.114760
  0
VERTEX
  8
0
  6
CONTINUOUS
 10
4.491520
 20
3.114760
  0
VERTEX
  8
0
  6
CONTINUOUS
 10
4.489760
 20
3.131040
  0
VERTEX
  8
0
  6
CONTINUOUS
 10
4.485360
 20
3.146440
  0
VERTEX
  8
0
  6
CONTINUOUS
 10
4.473040
 20
3.166240
  0
VERTEX
  8
0
  6
CONTINUOUS
 10
4.455880
 20
3.182080
  0
VERTEX
  8
0
  6
CONTINUOUS
 10
4.434760
 20
3.192200
  0
VERTEX
  8
0
  6
CONTINUOUS
 10
4.418920
 20
3.195280
  0
VERTEX
  8
0
  6
CONTINUOUS
 10
4.410560
 20
3.195720
  0
VERTEX
  8
0
  6
CONTINUOUS
 10
4.412760
 20
3.195280
  0
VERTEX
  8
0
  6
CONTINUOUS
 10
4.396480
 20
3.193520
  0
VERTEX
  8
0
  6
CONTINUOUS
 10
4.381080
 20
3.188680
  0
VERTEX
  8
0
  6
CONTINUOUS
 10
4.367440
 20
3.181200
  0
VERTEX
  8
0
  6
CONTINUOUS
 10
4.350280
 20
3.165800
  0
VERTEX
  8
0
  6
CONTINUOUS
 10
4.337960
 20
3.145560
  0
VERTEX
  8
0
  6
CONTINUOUS
 10
4.332240
 20
3.122240
  0
VERTEX
  8
0
  6
CONTINUOUS
 10
4.331800
 20
3.113880
  0
VERTEX
  8
0
  6
CONTINUOUS
 10
4.320360
 20
3.113880
  0
VERTEX
  8
0
  6
CONTINUOUS
 10
4.317280
 20
3.146440
  0
VERTEX
  8
0
  6
CONTINUOUS
 10
4.310240
 20
3.169760
  0
VERTEX
  8
0
  6
CONTINUOUS
 10
4.297480
 20
3.189560
  0
VERTEX
  8
0
  6
CONTINUOUS
 10
4.285160
 20
3.199680
  0
VERTEX
  8
0
  6
CONTINUOUS
 10
4.269320
 20
3.206280
  0
VERTEX
  8
0
  6
CONTINUOUS
 10
4.249960
 20
3.208480
  0
VERTEX
  8
0
  6
CONTINUOUS
 10
1.817200
 20
3.208480
  0
VERTEX
  8
0
  6
CONTINUOUS
 10
1.803560
 20
3.210680
  0
VERTEX
  8
0
  6
CONTINUOUS
 10
1.792120
 20
3.210240
  0
VERTEX
  8
0
  6
CONTINUOUS
 10
1.778040
 20
3.205400
  0
VERTEX
  8
0
  6
CONTINUOUS
 10
1.762640
 20
3.195720
  0
VERTEX
  8
0
  6
CONTINUOUS
 10
1.746360
 20
3.178560
  0
VERTEX
  8
0
  6
CONTINUOUS
 10
1.730080
 20
3.152160
  0
VERTEX
  8
0
  6
CONTINUOUS
 10
1.722160
 20
3.135440
  0
VERTEX
  8
0
  6
CONTINUOUS
 10
1.707640
 20
3.153920
  0
VERTEX
  8
0
  6
CONTINUOUS
 10
1.688720
 20
3.168440
  0
VERTEX
  8
0
  6
CONTINUOUS
 10
1.666720
 20
3.177680
  0
VERTEX
  8
0
  6
CONTINUOUS
 10
1.642080
 20
3.180760
  0
VERTEX
  8
0
  6
CONTINUOUS
 10
1.623160
 20
3.179000
  0
VERTEX
  8
0
  6
CONTINUOUS
 10
1.597200
 20
3.169320
  0
VERTEX
  8
0
  6
CONTINUOUS
 10
1.582240
 20
3.159200
  0
VERTEX
  8
0
  6
CONTINUOUS
 10
1.564200
 20
3.139400
  0
VERTEX
  8
0
  6
CONTINUOUS
 10
1.555400
 20
3.123120
  0
VERTEX
  8
0
  6
CONTINUOUS
 10
1.549680
 20
3.105520
  0
VERTEX
  8
0
  6
CONTINUOUS
 10
1.547920
 20
3.086600
  0
VERTEX
  8
0
  6
CONTINUOUS
 10
1.546160
 20
3.085280
  0
VERTEX
  8
0
  6
CONTINUOUS
 10
1.546160
 20
3.041280
  0
VERTEX
  8
0
  6
CONTINUOUS
 10
1.304600
 20
3.014440
  0
VERTEX
  8
0
  6
CONTINUOUS
 10
1.304600
 20
2.887280
  0
VERTEX
  8
0
  6
CONTINUOUS
 10
1.546160
 20
2.855600
  0
VERTEX
  8
0
  6
CONTINUOUS
 10
1.546160
 20
2.713920
  0
VERTEX
  8
0
  6
CONTINUOUS
 10
7.032960
 20
2.713920
  0
VERTEX
  8
0
  6
CONTINUOUS
 10
7.032520
 20
2.712600
  0
VERTEX
  8
0
  6
CONTINUOUS
 10
7.032520
 20
2.863960
  0
VERTEX
  8
0
  6
CONTINUOUS
 10
6.767200
 20
2.899160
  0
VERTEX
  8
0
  6
CONTINUOUS
 10
6.770280
 20
3.024120
  0
VERTEX
  8
0
  6
CONTINUOUS
 10
7.032520
 20
3.039960
  0
VERTEX
  8
0
  6
CONTINUOUS
 10
7.032520
 20
3.208920
  0
SEQEND
  8
0
  0
POLYLINE
  8
0
  6
CONTINUOUS
 66
     1
 40
0.000000
 41
0.000000
  0
VERTEX
  8
0
  6
CONTINUOUS
 10
1.413280
 20
2.504040
  0
VERTEX
  8
0
  6
CONTINUOUS
 10
3.882560
 20
2.503600
  0
VERTEX
  8
0
  6
CONTINUOUS
 10
3.900160
 20
2.498760
  0
VERTEX
  8
0
  6
CONTINUOUS
 10
3.914240
 20
2.490400
  0
VERTEX
  8
0
  6
CONTINUOUS
 10
3.924800
 20
2.478960
  0
VERTEX
  8
0
  6
CONTINUOUS
 10
3.935800
 20
2.457840
  0
VERTEX
  8
0
  6
CONTINUOUS
 10
3.939760
 20
2.442000
  0
VERTEX
  8
0
  6
CONTINUOUS
 10
3.942840
 20
2.409880
  0
VERTEX
  8
0
  6
CONTINUOUS
 10
3.954280
 20
2.409880
  0
VERTEX
  8
0
  6
CONTINUOUS
 10
3.956040
 20
2.426160
  0
VERTEX
  8
0
  6
CONTINUOUS
 10
3.960440
 20
2.441560
  0
VERTEX
  8
0
  6
CONTINUOUS
 10
3.972760
 20
2.461360
  0
VERTEX
  8
0
  6
CONTINUOUS
 10
3.989920
 20
2.477200
  0
VERTEX
  8
0
  6
CONTINUOUS
 10
4.011040
 20
2.487320
  0
VERTEX
  8
0
  6
CONTINUOUS
 10
4.026880
 20
2.490400
  0
VERTEX
  8
0
  6
CONTINUOUS
 10
4.035240
 20
2.490840
  0
VERTEX
  8
0
  6
CONTINUOUS
 10
4.033040
 20
2.490400
  0
VERTEX
  8
0
  6
CONTINUOUS
 10
4.049320
 20
2.488640
  0
VERTEX
  8
0
  6
CONTINUOUS
 10
4.064720
 20
2.483800
  0
VERTEX
  8
0
  6
CONTINUOUS
 10
4.078360
 20
2.476320
  0
VERTEX
  8
0
  6
CONTINUOUS
 10
4.095520
 20
2.460920
  0
VERTEX
  8
0
  6
CONTINUOUS
 10
4.107840
 20
2.440680
  0
VERTEX
  8
0
  6
CONTINUOUS
 10
4.113560
 20
2.417360
  0
VERTEX
  8
0
  6
CONTINUOUS
 10
4.114000
 20
2.409000
  0
VERTEX
  8
0
  6
CONTINUOUS
 10
4.125880
 20
2.409000
  0
VERTEX
  8
0
  6
CONTINUOUS
 10
4.128960
 20
2.441560
  0
VERTEX
  8
0
  6
CONTINUOUS
 10
4.136000
 20
2.464880
  0
VERTEX
  8
0
  6
CONTINUOUS
 10
4.143480
 20
2.478520
  0
VERTEX
  8
0
  6
CONTINUOUS
 10
4.160640
 20
2.494800
  0
VERTEX
  8
0
  6
CONTINUOUS
 10
4.176480
 20
2.501400
  0
VERTEX
  8
0
  6
CONTINUOUS
 10
4.195840
 20
2.503600
  0
VERTEX
  8
0
  6
CONTINUOUS
 10
6.628600
 20
2.503600
  0
VERTEX
  8
0
  6
CONTINUOUS
 10
6.642240
 20
2.505800
  0
VERTEX
  8
0
  6
CONTINUOUS
 10
6.653680
 20
2.505360
  0
VERTEX
  8
0
  6
CONTINUOUS
 10
6.667760
 20
2.500520
  0
VERTEX
  8
0
  6
CONTINUOUS
 10
6.683160
 20
2.490840
  0
VERTEX
  8
0
  6
CONTINUOUS
 10
6.699440
 20
2.473680
  0
VERTEX
  8
0
  6
CONTINUOUS
 10
6.715720
 20
2.447280
  0
VERTEX
  8
0
  6
CONTINUOUS
 10
6.723640
 20
2.430560
  0
VERTEX
  8
0
  6
CONTINUOUS
 10
6.738160
 20
2.449040
  0
VERTEX
  8
0
  6
CONTINUOUS
 10
6.757080
 20
2.463560
  0
VERTEX
  8
0
  6
CONTINUOUS
 10
6.779080
 20
2.472800
  0
VERTEX
  8
0
  6
CONTINUOUS
 10
6.803720
 20
2.475880
  0
VERTEX
  8
0
  6
CONTINUOUS
 10
6.822640
 20
2.474120
  0
VERTEX
  8
0
  6
CONTINUOUS
 10
6.848600
 20
2.464440
  0
VERTEX
  8
0
  6
CONTINUOUS
 10
6.863560
 20
2.454320
  0
VERTEX
  8
0
  6
CONTINUOUS
 10
6.881600
 20
2.434520
  0
VERTEX
  8
0
  6
CONTINUOUS
 10
6.890400
 20
2.418240
  0
VERTEX
  8
0
  6
CONTINUOUS
 10
6.896120
 20
2.400640
  0
VERTEX
  8
0
  6
CONTINUOUS
 10
6.897880
 20
2.381720
  0
VERTEX
  8
0
  6
CONTINUOUS
 10
6.899640
 20
2.379960
  0
VERTEX
  8
0
  6
CONTINUOUS
 10
6.899640
 20
2.336400
  0
VERTEX
  8
0
  6
CONTINUOUS
 10
7.141200
 20
2.309120
  0
VERTEX
  8
0
  6
CONTINUOUS
 10
7.141200
 20
2.182400
  0
VERTEX
  8
0
  6
CONTINUOUS
 10
6.899640
 20
2.150720
  0
VERTEX
  8
0
  6
CONTINUOUS
 10
6.899640
 20
2.009040
  0
VERTEX
  8
0
  6
CONTINUOUS
 10
1.412840
 20
2.009040
  0
VERTEX
  8
0
  6
CONTINUOUS
 10
1.413280
 20
2.007720
  0
VERTEX
  8
0
  6
CONTINUOUS
 10
1.413280
 20
2.159080
  0
VERTEX
  8
0
  6
CONTINUOUS
 10
1.678600
 20
2.194280
  0
VERTEX
  8
0
  6
CONTINUOUS
 10
1.675520
 20
2.319240
  0
VERTEX
  8
0
  6
CONTINUOUS
 10
1.413280
 20
2.335080
  0
VERTEX
  8
0
  6
CONTINUOUS
 10
1.413280
 20
2.504040
  0
SEQEND
  8
0
  0
SOLID
  8
0
 62
    15
 10
4.162840
 20
8.274200
 11
4.159760
 21
9.005920
 12
4.178680
 22
8.280360
 13
4.175160
 23
9.012520
  0
POLYLINE
  8
0
  6
CONTINUOUS
 66
     1
 40
0.000000
 41
0.000000
  0
VERTEX
  8
0
  6
CONTINUOUS
 10
4.162840
 20
8.274200
  0
VERTEX
  8
0
  6
CONTINUOUS
 10
4.159760
 20
9.005920
  0
VERTEX
  8
0
  6
CONTINUOUS
 10
4.175160
 20
9.012520
  0
VERTEX
  8
0
  6
CONTINUOUS
 10
4.178680
 20
8.280360
  0
VERTEX
  8
0
  6
CONTINUOUS
 10
4.162840
 20
8.274200
  0
SEQEND
  8
0
  0
SOLID
  8
0
 62
    15
 10
3.874640
 20
8.283440
 11
3.871120
 21
9.015600
 12
3.894000
 22
8.281240
 13
3.890920
 23
9.013400
  0
POLYLINE
  8
0
  6
CONTINUOUS
 66
     1
 40
0.000000
 41
0.000000
  0
VERTEX
  8
0
  6
CONTINUOUS
 10
3.874640
 20
8.283440
  0
VERTEX
  8
0
  6
CONTINUOUS
 10
3.871120
 20
9.015600
  0
VERTEX
  8
0
  6
CONTINUOUS
 10
3.890920
 20
9.013400
  0
VERTEX
  8
0
  6
CONTINUOUS
 10
3.894000
 20
8.281240
  0
VERTEX
  8
0
  6
CONTINUOUS
 10
3.874640
 20
8.283440
  0
SEQEND
  8
0
  0
SOLID
  8
0
 62
    15
 10
3.894000
 20
8.281240
 11
3.890920
 21
9.013400
 12
3.909840
 22
8.274640
 13
3.906320
 23
9.006800
  0
POLYLINE
  8
0
  6
CONTINUOUS
 66
     1
 40
0.000000
 41
0.000000
  0
VERTEX
  8
0
  6
CONTINUOUS
 10
3.894000
 20
8.281240
  0
VERTEX
  8
0
  6
CONTINUOUS
 10
3.890920
 20
9.013400
  0
VERTEX
  8
0
  6
CONTINUOUS
 10
3.906320
 20
9.006800
  0
VERTEX
  8
0
  6
CONTINUOUS
 10
3.909840
 20
8.274640
  0
VERTEX
  8
0
  6
CONTINUOUS
 10
3.894000
 20
8.281240
  0
SEQEND
  8
0
  0
SOLID
  8
0
 62
    15
 10
3.909840
 20
8.274640
 11
3.906320
 21
9.006800
 12
3.922160
 22
8.264960
 13
3.918640
 23
8.996680
  0
POLYLINE
  8
0
  6
CONTINUOUS
 66
     1
 40
0.000000
 41
0.000000
  0
VERTEX
  8
0
  6
CONTINUOUS
 10
3.909840
 20
8.274640
  0
VERTEX
  8
0
  6
CONTINUOUS
 10
3.906320
 20
9.006800
  0
VERTEX
  8
0
  6
CONTINUOUS
 10
3.918640
 20
8.996680
  0
VERTEX
  8
0
  6
CONTINUOUS
 10
3.922160
 20
8.264960
  0
VERTEX
  8
0
  6
CONTINUOUS
 10
3.909840
 20
8.274640
  0
SEQEND
  8
0
  0
SOLID
  8
0
 62
    15
 10
3.922160
 20
8.264960
 11
3.918640
 21
8.996680
 12
3.931400
 22
8.252200
 13
3.927880
 23
8.983920
  0
POLYLINE
  8
0
  6
CONTINUOUS
 66
     1
 40
0.000000
 41
0.000000
  0
VERTEX
  8
0
  6
CONTINUOUS
 10
3.922160
 20
8.264960
  0
VERTEX
  8
0
  6
CONTINUOUS
 10
3.918640
 20
8.996680
  0
VERTEX
  8
0
  6
CONTINUOUS
 10
3.927880
 20
8.983920
  0
VERTEX
  8
0
  6
CONTINUOUS
 10
3.931400
 20
8.252200
  0
VERTEX
  8
0
  6
CONTINUOUS
 10
3.922160
 20
8.264960
  0
SEQEND
  8
0
  0
SOLID
  8
0
 62
    15
 10
3.931400
 20
8.252200
 11
3.927880
 21
8.983920
 12
3.938000
 22
8.237240
 13
3.934480
 23
8.969400
  0
POLYLINE
  8
0
  6
CONTINUOUS
 66
     1
 40
0.000000
 41
0.000000
  0
VERTEX
  8
0
  6
CONTINUOUS
 10
3.931400
 20
8.252200
  0
VERTEX
  8
0
  6
CONTINUOUS
 10
3.927880
 20
8.983920
  0
VERTEX
  8
0
  6
CONTINUOUS
 10
3.934480
 20
8.969400
  0
VERTEX
  8
0
  6
CONTINUOUS
 10
3.938000
 20
8.237240
  0
VERTEX
  8
0
  6
CONTINUOUS
 10
3.931400
 20
8.252200
  0
SEQEND
  8
0
  0
SOLID
  8
0
 62
    15
 10
3.938000
 20
8.237240
 11
3.934480
 21
8.969400
 12
3.941960
 22
8.221400
 13
3.938880
 23
8.953560
  0
POLYLINE
  8
0
  6
CONTINUOUS
 66
     1
 40
0.000000
 41
0.000000
  0
VERTEX
  8
0
  6
CONTINUOUS
 10
3.938000
 20
8.237240
  0
VERTEX
  8
0
  6
CONTINUOUS
 10
3.934480
 20
8.969400
  0
VERTEX
  8
0
  6
CONTINUOUS
 10
3.938880
 20
8.953560
  0
VERTEX
  8
0
  6
CONTINUOUS
 10
3.941960
 20
8.221400
  0
VERTEX
  8
0
  6
CONTINUOUS
 10
3.938000
 20
8.237240
  0
SEQEND
  8
0
  0
SOLID
  8
0
 62
    15
 10
3.941960
 20
8.221400
 11
3.938880
 21
8.953560
 12
3.945040
 22
8.189280
 13
3.941520
 23
8.921440
  0
POLYLINE
  8
0
  6
CONTINUOUS
 66
     1
 40
0.000000
 41
0.000000
  0
VERTEX
  8
0
  6
CONTINUOUS
 10
3.941960
 20
8.221400
  0
VERTEX
  8
0
  6
CONTINUOUS
 10
3.938880
 20
8.953560
  0
VERTEX
  8
0
  6
CONTINUOUS
 10
3.941520
 20
8.921440
  0
VERTEX
  8
0
  6
CONTINUOUS
 10
3.945040
 20
8.189280
  0
VERTEX
  8
0
  6
CONTINUOUS
 10
3.941960
 20
8.221400
  0
SEQEND
  8
0
  0
SOLID
  8
0
 62
    15
 10
3.945040
 20
8.189280
 11
3.941520
 21
8.921440
 12
3.956480
 22
8.189280
 13
3.952960
 23
8.921440
  0
POLYLINE
  8
0
  6
CONTINUOUS
 66
     1
 40
0.000000
 41
0.000000
  0
VERTEX
  8
0
  6
CONTINUOUS
 10
3.945040
 20
8.189280
  0
VERTEX
  8
0
  6
CONTINUOUS
 10
3.941520
 20
8.921440
  0
VERTEX
  8
0
  6
CONTINUOUS
 10
3.952960
 20
8.921440
  0
VERTEX
  8
0
  6
CONTINUOUS
 10
3.956480
 20
8.189280
  0
VERTEX
  8
0
  6
CONTINUOUS
 10
3.945040
 20
8.189280
  0
SEQEND
  8
0
  0
SOLID
  8
0
 62
    15
 10
3.956480
 20
8.189280
 11
3.952960
 21
8.921440
 12
3.958240
 22
8.205560
 13
3.954720
 23
8.937720
  0
POLYLINE
  8
0
  6
CONTINUOUS
 66
     1
 40
0.000000
 41
0.000000
  0
VERTEX
  8
0
  6
CONTINUOUS
 10
3.956480
 20
8.189280
  0
VERTEX
  8
0
  6
CONTINUOUS
 10
3.952960
 20
8.921440
  0
VERTEX
  8
0
  6
CONTINUOUS
 10
3.954720
 20
8.937720
  0
VERTEX
  8
0
  6
CONTINUOUS
 10
3.958240
 20
8.205560
  0
VERTEX
  8
0
  6
CONTINUOUS
 10
3.956480
 20
8.189280
  0
SEQEND
  8
0
  0
SOLID
  8
0
 62
    15
 10
3.958240
 20
8.205560
 11
3.954720
 21
8.937720
 12
3.962640
 22
8.220960
 13
3.959560
 23
8.952680
  0
POLYLINE
  8
0
  6
CONTINUOUS
 66
     1
 40
0.000000
 41
0.000000
  0
VERTEX
  8
0
  6
CONTINUOUS
 10
3.958240
 20
8.205560
  0
VERTEX
  8
0
  6
CONTINUOUS
 10
3.954720
 20
8.937720
  0
VERTEX
  8
0
  6
CONTINUOUS
 10
3.959560
 20
8.952680
  0
VERTEX
  8
0
  6
CONTINUOUS
 10
3.962640
 20
8.220960
  0
VERTEX
  8
0
  6
CONTINUOUS
 10
3.958240
 20
8.205560
  0
SEQEND
  8
0
  0
SOLID
  8
0
 62
    15
 10
3.962640
 20
8.220960
 11
3.959560
 21
8.952680
 12
3.970120
 22
8.234600
 13
3.967040
 23
8.966760
  0
POLYLINE
  8
0
  6
CONTINUOUS
 66
     1
 40
0.000000
 41
0.000000
  0
VERTEX
  8
0
  6
CONTINUOUS
 10
3.962640
 20
8.220960
  0
VERTEX
  8
0
  6
CONTINUOUS
 10
3.959560
 20
8.952680
  0
VERTEX
  8
0
  6
CONTINUOUS
 10
3.967040
 20
8.966760
  0
VERTEX
  8
0
  6
CONTINUOUS
 10
3.970120
 20
8.234600
  0
VERTEX
  8
0
  6
CONTINUOUS
 10
3.962640
 20
8.220960
  0
SEQEND
  8
0
  0
SOLID
  8
0
 62
    15
 10
3.970120
 20
8.234600
 11
3.967040
 21
8.966760
 12
3.980240
 22
8.246480
 13
3.976720
 23
8.978640
  0
POLYLINE
  8
0
  6
CONTINUOUS
 66
     1
 40
0.000000
 41
0.000000
  0
VERTEX
  8
0
  6
CONTINUOUS
 10
3.970120
 20
8.234600
  0
VERTEX
  8
0
  6
CONTINUOUS
 10
3.967040
 20
8.966760
  0
VERTEX
  8
0
  6
CONTINUOUS
 10
3.976720
 20
8.978640
  0
VERTEX
  8
0
  6
CONTINUOUS
 10
3.980240
 20
8.246480
  0
VERTEX
  8
0
  6
CONTINUOUS
 10
3.970120
 20
8.234600
  0
SEQEND
  8
0
  0
SOLID
  8
0
 62
    15
 10
3.980240
 20
8.246480
 11
3.976720
 21
8.978640
 12
3.992120
 22
8.256600
 13
3.989040
 23
8.988760
  0
POLYLINE
  8
0
  6
CONTINUOUS
 66
     1
 40
0.000000
 41
0.000000
  0
VERTEX
  8
0
  6
CONTINUOUS
 10
3.980240
 20
8.246480
  0
VERTEX
  8
0
  6
CONTINUOUS
 10
3.976720
 20
8.978640
  0
VERTEX
  8
0
  6
CONTINUOUS
 10
3.989040
 20
8.988760
  0
VERTEX
  8
0
  6
CONTINUOUS
 10
3.992120
 20
8.256600
  0
VERTEX
  8
0
  6
CONTINUOUS
 10
3.980240
 20
8.246480
  0
SEQEND
  8
0
  0
SOLID
  8
0
 62
    15
 10
3.992120
 20
8.256600
 11
3.989040
 21
8.988760
 12
4.006200
 22
8.264080
 13
4.002680
 23
8.996240
  0
POLYLINE
  8
0
  6
CONTINUOUS
 66
     1
 40
0.000000
 41
0.000000
  0
VERTEX
  8
0
  6
CONTINUOUS
 10
3.992120
 20
8.256600
  0
VERTEX
  8
0
  6
CONTINUOUS
 10
3.989040
 20
8.988760
  0
VERTEX
  8
0
  6
CONTINUOUS
 10
4.002680
 20
8.996240
  0
VERTEX
  8
0
  6
CONTINUOUS
 10
4.006200
 20
8.264080
  0
VERTEX
  8
0
  6
CONTINUOUS
 10
3.992120
 20
8.256600
  0
SEQEND
  8
0
  0
SOLID
  8
0
 62
    15
 10
4.006200
 20
8.264080
 11
4.002680
 21
8.996240
 12
4.021160
 22
8.268920
 13
4.018080
 23
9.000640
  0
POLYLINE
  8
0
  6
CONTINUOUS
 66
     1
 40
0.000000
 41
0.000000
  0
VERTEX
  8
0
  6
CONTINUOUS
 10
4.006200
 20
8.264080
  0
VERTEX
  8
0
  6
CONTINUOUS
 10
4.002680
 20
8.996240
  0
VERTEX
  8
0
  6
CONTINUOUS
 10
4.018080
 20
9.000640
  0
VERTEX
  8
0
  6
CONTINUOUS
 10
4.021160
 20
8.268920
  0
VERTEX
  8
0
  6
CONTINUOUS
 10
4.006200
 20
8.264080
  0
SEQEND
  8
0
  0
SOLID
  8
0
 62
    15
 10
4.035240
 20
8.269800
 11
4.031720
 21
9.001520
 12
4.051520
 22
8.268040
 13
4.048440
 23
9.000200
  0
POLYLINE
  8
0
  6
CONTINUOUS
 66
     1
 40
0.000000
 41
0.000000
  0
VERTEX
  8
0
  6
CONTINUOUS
 10
4.035240
 20
8.269800
  0
VERTEX
  8
0
  6
CONTINUOUS
 10
4.031720
 20
9.001520
  0
VERTEX
  8
0
  6
CONTINUOUS
 10
4.048440
 20
9.000200
  0
VERTEX
  8
0
  6
CONTINUOUS
 10
4.051520
 20
8.268040
  0
VERTEX
  8
0
  6
CONTINUOUS
 10
4.035240
 20
8.269800
  0
SEQEND
  8
0
  0
SOLID
  8
0
 62
    15
 10
4.021160
 20
8.268920
 11
4.018080
 21
9.000640
 12
4.037440
 22
8.270680
 13
4.034360
 23
9.002400
  0
POLYLINE
  8
0
  6
CONTINUOUS
 66
     1
 40
0.000000
 41
0.000000
  0
VERTEX
  8
0
  6
CONTINUOUS
 10
4.021160
 20
8.268920
  0
VERTEX
  8
0
  6
CONTINUOUS
 10
4.018080
 20
9.000640
  0
VERTEX
  8
0
  6
CONTINUOUS
 10
4.034360
 20
9.002400
  0
VERTEX
  8
0
  6
CONTINUOUS
 10
4.037440
 20
8.270680
  0
VERTEX
  8
0
  6
CONTINUOUS
 10
4.021160
 20
8.268920
  0
SEQEND
  8
0
  0
SOLID
  8
0
 62
    15
 10
4.051520
 20
8.268040
 11
4.048440
 21
9.000200
 12
4.066920
 22
8.263200
 13
4.063400
 23
8.995360
  0
POLYLINE
  8
0
  6
CONTINUOUS
 66
     1
 40
0.000000
 41
0.000000
  0
VERTEX
  8
0
  6
CONTINUOUS
 10
4.051520
 20
8.268040
  0
VERTEX
  8
0
  6
CONTINUOUS
 10
4.048440
 20
9.000200
  0
VERTEX
  8
0
  6
CONTINUOUS
 10
4.063400
 20
8.995360
  0
VERTEX
  8
0
  6
CONTINUOUS
 10
4.066920
 20
8.263200
  0
VERTEX
  8
0
  6
CONTINUOUS
 10
4.051520
 20
8.268040
  0
SEQEND
  8
0
  0
SOLID
  8
0
 62
    15
 10
4.066920
 20
8.263200
 11
4.063400
 21
8.995360
 12
4.080560
 22
8.255720
 13
4.077040
 23
8.987880
  0
POLYLINE
  8
0
  6
CONTINUOUS
 66
     1
 40
0.000000
 41
0.000000
  0
VERTEX
  8
0
  6
CONTINUOUS
 10
4.066920
 20
8.263200
  0
VERTEX
  8
0
  6
CONTINUOUS
 10
4.063400
 20
8.995360
  0
VERTEX
  8
0
  6
CONTINUOUS
 10
4.077040
 20
8.987880
  0
VERTEX
  8
0
  6
CONTINUOUS
 10
4.080560
 20
8.255720
  0
VERTEX
  8
0
  6
CONTINUOUS
 10
4.066920
 20
8.263200
  0
SEQEND
  8
0
  0
SOLID
  8
0
 62
    15
 10
4.080560
 20
8.255720
 11
4.077040
 21
8.987880
 12
4.092440
 22
8.246040
 13
4.089360
 23
8.977760
  0
POLYLINE
  8
0
  6
CONTINUOUS
 66
     1
 40
0.000000
 41
0.000000
  0
VERTEX
  8
0
  6
CONTINUOUS
 10
4.080560
 20
8.255720
  0
VERTEX
  8
0
  6
CONTINUOUS
 10
4.077040
 20
8.987880
  0
VERTEX
  8
0
  6
CONTINUOUS
 10
4.089360
 20
8.977760
  0
VERTEX
  8
0
  6
CONTINUOUS
 10
4.092440
 20
8.246040
  0
VERTEX
  8
0
  6
CONTINUOUS
 10
4.080560
 20
8.255720
  0
SEQEND
  8
0
  0
SOLID
  8
0
 62
    15
 10
4.092440
 20
8.246040
 11
4.089360
 21
8.977760
 12
4.102560
 22
8.234160
 13
4.099040
 23
8.965880
  0
POLYLINE
  8
0
  6
CONTINUOUS
 66
     1
 40
0.000000
 41
0.000000
  0
VERTEX
  8
0
  6
CONTINUOUS
 10
4.092440
 20
8.246040
  0
VERTEX
  8
0
  6
CONTINUOUS
 10
4.089360
 20
8.977760
  0
VERTEX
  8
0
  6
CONTINUOUS
 10
4.099040
 20
8.965880
  0
VERTEX
  8
0
  6
CONTINUOUS
 10
4.102560
 20
8.234160
  0
VERTEX
  8
0
  6
CONTINUOUS
 10
4.092440
 20
8.246040
  0
SEQEND
  8
0
  0
SOLID
  8
0
 62
    15
 10
4.102560
 20
8.234160
 11
4.099040
 21
8.965880
 12
4.110040
 22
8.220080
 13
4.106520
 23
8.952240
  0
POLYLINE
  8
0
  6
CONTINUOUS
 66
     1
 40
0.000000
 41
0.000000
  0
VERTEX
  8
0
  6
CONTINUOUS
 10
4.102560
 20
8.234160
  0
VERTEX
  8
0
  6
CONTINUOUS
 10
4.099040
 20
8.965880
  0
VERTEX
  8
0
  6
CONTINUOUS
 10
4.106520
 20
8.952240
  0
VERTEX
  8
0
  6
CONTINUOUS
 10
4.110040
 20
8.220080
  0
VERTEX
  8
0
  6
CONTINUOUS
 10
4.102560
 20
8.234160
  0
SEQEND
  8
0
  0
SOLID
  8
0
 62
    15
 10
4.110040
 20
8.220080
 11
4.106520
 21
8.952240
 12
4.114880
 22
8.205120
 13
4.111360
 23
8.936840
  0
POLYLINE
  8
0
  6
CONTINUOUS
 66
     1
 40
0.000000
 41
0.000000
  0
VERTEX
  8
0
  6
CONTINUOUS
 10
4.110040
 20
8.220080
  0
VERTEX
  8
0
  6
CONTINUOUS
 10
4.106520
 20
8.952240
  0
VERTEX
  8
0
  6
CONTINUOUS
 10
4.111360
 20
8.936840
  0
VERTEX
  8
0
  6
CONTINUOUS
 10
4.114880
 20
8.205120
  0
VERTEX
  8
0
  6
CONTINUOUS
 10
4.110040
 20
8.220080
  0
SEQEND
  8
0
  0
SOLID
  8
0
 62
    15
 10
4.114880
 20
8.205120
 11
4.111360
 21
8.936840
 12
4.116200
 22
8.188400
 13
4.113120
 23
8.920560
  0
POLYLINE
  8
0
  6
CONTINUOUS
 66
     1
 40
0.000000
 41
0.000000
  0
VERTEX
  8
0
  6
CONTINUOUS
 10
4.114880
 20
8.205120
  0
VERTEX
  8
0
  6
CONTINUOUS
 10
4.111360
 20
8.936840
  0
VERTEX
  8
0
  6
CONTINUOUS
 10
4.113120
 20
8.920560
  0
VERTEX
  8
0
  6
CONTINUOUS
 10
4.116200
 20
8.188400
  0
VERTEX
  8
0
  6
CONTINUOUS
 10
4.114880
 20
8.205120
  0
SEQEND
  8
0
  0
SOLID
  8
0
 62
    15
 10
4.116200
 20
8.188400
 11
4.113120
 21
8.920560
 12
4.128080
 22
8.188400
 13
4.124560
 23
8.920560
  0
POLYLINE
  8
0
  6
CONTINUOUS
 66
     1
 40
0.000000
 41
0.000000
  0
VERTEX
  8
0
  6
CONTINUOUS
 10
4.116200
 20
8.188400
  0
VERTEX
  8
0
  6
CONTINUOUS
 10
4.113120
 20
8.920560
  0
VERTEX
  8
0
  6
CONTINUOUS
 10
4.124560
 20
8.920560
  0
VERTEX
  8
0
  6
CONTINUOUS
 10
4.128080
 20
8.188400
  0
VERTEX
  8
0
  6
CONTINUOUS
 10
4.116200
 20
8.188400
  0
SEQEND
  8
0
  0
SOLID
  8
0
 62
    15
 10
4.128080
 20
8.188400
 11
4.124560
 21
8.920560
 12
4.130720
 22
8.220960
 13
4.127200
 23
8.952680
  0
POLYLINE
  8
0
  6
CONTINUOUS
 66
     1
 40
0.000000
 41
0.000000
  0
VERTEX
  8
0
  6
CONTINUOUS
 10
4.128080
 20
8.188400
  0
VERTEX
  8
0
  6
CONTINUOUS
 10
4.124560
 20
8.920560
  0
VERTEX
  8
0
  6
CONTINUOUS
 10
4.127200
 20
8.952680
  0
VERTEX
  8
0
  6
CONTINUOUS
 10
4.130720
 20
8.220960
  0
VERTEX
  8
0
  6
CONTINUOUS
 10
4.128080
 20
8.188400
  0
SEQEND
  8
0
  0
SOLID
  8
0
 62
    15
 10
4.130720
 20
8.220960
 11
4.127200
 21
8.952680
 12
4.135120
 22
8.236800
 13
4.131600
 23
8.968520
  0
POLYLINE
  8
0
  6
CONTINUOUS
 66
     1
 40
0.000000
 41
0.000000
  0
VERTEX
  8
0
  6
CONTINUOUS
 10
4.130720
 20
8.220960
  0
VERTEX
  8
0
  6
CONTINUOUS
 10
4.127200
 20
8.952680
  0
VERTEX
  8
0
  6
CONTINUOUS
 10
4.131600
 20
8.968520
  0
VERTEX
  8
0
  6
CONTINUOUS
 10
4.135120
 20
8.236800
  0
VERTEX
  8
0
  6
CONTINUOUS
 10
4.130720
 20
8.220960
  0
SEQEND
  8
0
  0
SOLID
  8
0
 62
    15
 10
4.135120
 20
8.236800
 11
4.131600
 21
8.968520
 12
4.141280
 22
8.251320
 13
4.138200
 23
8.983040
  0
POLYLINE
  8
0
  6
CONTINUOUS
 66
     1
 40
0.000000
 41
0.000000
  0
VERTEX
  8
0
  6
CONTINUOUS
 10
4.135120
 20
8.236800
  0
VERTEX
  8
0
  6
CONTINUOUS
 10
4.131600
 20
8.968520
  0
VERTEX
  8
0
  6
CONTINUOUS
 10
4.138200
 20
8.983040
  0
VERTEX
  8
0
  6
CONTINUOUS
 10
4.141280
 20
8.251320
  0
VERTEX
  8
0
  6
CONTINUOUS
 10
4.135120
 20
8.236800
  0
SEQEND
  8
0
  0
SOLID
  8
0
 62
    15
 10
4.141280
 20
8.251320
 11
4.138200
 21
8.983040
 12
4.150520
 22
8.264080
 13
4.147440
 23
8.995800
  0
POLYLINE
  8
0
  6
CONTINUOUS
 66
     1
 40
0.000000
 41
0.000000
  0
VERTEX
  8
0
  6
CONTINUOUS
 10
4.141280
 20
8.251320
  0
VERTEX
  8
0
  6
CONTINUOUS
 10
4.138200
 20
8.983040
  0
VERTEX
  8
0
  6
CONTINUOUS
 10
4.147440
 20
8.995800
  0
VERTEX
  8
0
  6
CONTINUOUS
 10
4.150520
 20
8.264080
  0
VERTEX
  8
0
  6
CONTINUOUS
 10
4.141280
 20
8.251320
  0
SEQEND
  8
0
  0
SOLID
  8
0
 62
    15
 10
4.150520
 20
8.264080
 11
4.147440
 21
8.995800
 12
4.162840
 22
8.274200
 13
4.159760
 23
9.005920
  0
POLYLINE
  8
0
  6
CONTINUOUS
 66
     1
 40
0.000000
 41
0.000000
  0
VERTEX
  8
0
  6
CONTINUOUS
 10
4.150520
 20
8.264080
  0
VERTEX
  8
0
  6
CONTINUOUS
 10
4.147440
 20
8.995800
  0
VERTEX
  8
0
  6
CONTINUOUS
 10
4.159760
 20
9.005920
  0
VERTEX
  8
0
  6
CONTINUOUS
 10
4.162840
 20
8.274200
  0
VERTEX
  8
0
  6
CONTINUOUS
 10
4.150520
 20
8.264080
  0
SEQEND
  8
0
  0
SOLID
  8
0
 62
     7
 10
1.415040
 20
7.788440
 11
1.411960
 21
8.520160
 12
1.415480
 22
7.787120
 13
1.411960
 23
8.519280
  0
POLYLINE
  8
0
  6
CONTINUOUS
 66
     1
 40
0.000000
 41
0.000000
  0
VERTEX
  8
0
  6
CONTINUOUS
 10
1.415040
 20
7.788440
  0
VERTEX
  8
0
  6
CONTINUOUS
 10
1.411960
 20
8.520160
  0
VERTEX
  8
0
  6
CONTINUOUS
 10
1.411960
 20
8.519280
  0
VERTEX
  8
0
  6
CONTINUOUS
 10
1.415480
 20
7.787120
  0
VERTEX
  8
0
  6
CONTINUOUS
 10
1.415040
 20
7.788440
  0
SEQEND
  8
0
  0
SOLID
  8
0
 62
    15
 10
4.178680
 20
8.280360
 11
4.175160
 21
9.012520
 12
4.198040
 22
8.283000
 13
4.194960
 23
9.014720
  0
POLYLINE
  8
0
  6
CONTINUOUS
 66
     1
 40
0.000000
 41
0.000000
  0
VERTEX
  8
0
  6
CONTINUOUS
 10
4.178680
 20
8.280360
  0
VERTEX
  8
0
  6
CONTINUOUS
 10
4.175160
 20
9.012520
  0
VERTEX
  8
0
  6
CONTINUOUS
 10
4.194960
 20
9.014720
  0
VERTEX
  8
0
  6
CONTINUOUS
 10
4.198040
 20
8.283000
  0
VERTEX
  8
0
  6
CONTINUOUS
 10
4.178680
 20
8.280360
  0
SEQEND
  8
0
  0
SOLID
  8
0
 62
    15
 10
4.198040
 20
8.283000
 11
4.194960
 21
9.014720
 12
4.198920
 22
8.282560
 13
4.195400
 23
9.014280
  0
POLYLINE
  8
0
  6
CONTINUOUS
 66
     1
 40
0.000000
 41
0.000000
  0
VERTEX
  8
0
  6
CONTINUOUS
 10
4.198040
 20
8.283000
  0
VERTEX
  8
0
  6
CONTINUOUS
 10
4.194960
 20
9.014720
  0
VERTEX
  8
0
  6
CONTINUOUS
 10
4.195400
 20
9.014280
  0
VERTEX
  8
0
  6
CONTINUOUS
 10
4.198920
 20
8.282560
  0
VERTEX
  8
0
  6
CONTINUOUS
 10
4.198040
 20
8.283000
  0
SEQEND
  8
0
  0
SOLID
  8
0
 62
    15
 10
4.198920
 20
8.282560
 11
4.195400
 21
9.014280
 12
6.630360
 22
8.282560
 13
6.627280
 23
9.014280
  0
POLYLINE
  8
0
  6
CONTINUOUS
 66
     1
 40
0.000000
 41
0.000000
  0
VERTEX
  8
0
  6
CONTINUOUS
 10
4.198920
 20
8.282560
  0
VERTEX
  8
0
  6
CONTINUOUS
 10
4.195400
 20
9.014280
  0
VERTEX
  8
0
  6
CONTINUOUS
 10
6.627280
 20
9.014280
  0
VERTEX
  8
0
  6
CONTINUOUS
 10
6.630360
 20
8.282560
  0
VERTEX
  8
0
  6
CONTINUOUS
 10
4.198920
 20
8.282560
  0
SEQEND
  8
0
  0
SOLID
  8
0
 62
    15
 10
6.630360
 20
8.282560
 11
6.627280
 21
9.014280
 12
6.633000
 22
8.283440
 13
6.629480
 23
9.015600
  0
POLYLINE
  8
0
  6
CONTINUOUS
 66
     1
 40
0.000000
 41
0.000000
  0
VERTEX
  8
0
  6
CONTINUOUS
 10
6.630360
 20
8.282560
  0
VERTEX
  8
0
  6
CONTINUOUS
 10
6.627280
 20
9.014280
  0
VERTEX
  8
0
  6
CONTINUOUS
 10
6.629480
 20
9.015600
  0
VERTEX
  8
0
  6
CONTINUOUS
 10
6.633000
 20
8.283440
  0
VERTEX
  8
0
  6
CONTINUOUS
 10
6.630360
 20
8.282560
  0
SEQEND
  8
0
  0
SOLID
  8
0
 62
    15
 10
6.633000
 20
8.283440
 11
6.629480
 21
9.015600
 12
6.639600
 22
8.285200
 13
6.636080
 23
9.016920
  0
POLYLINE
  8
0
  6
CONTINUOUS
 66
     1
 40
0.000000
 41
0.000000
  0
VERTEX
  8
0
  6
CONTINUOUS
 10
6.633000
 20
8.283440
  0
VERTEX
  8
0
  6
CONTINUOUS
 10
6.629480
 20
9.015600
  0
VERTEX
  8
0
  6
CONTINUOUS
 10
6.636080
 20
9.016920
  0
VERTEX
  8
0
  6
CONTINUOUS
 10
6.639600
 20
8.285200
  0
VERTEX
  8
0
  6
CONTINUOUS
 10
6.633000
 20
8.283440
  0
SEQEND
  8
0
  0
SOLID
  8
0
 62
    15
 10
6.639600
 20
8.285200
 11
6.636080
 21
9.016920
 12
6.649720
 22
8.285640
 13
6.646640
 23
9.017360
  0
POLYLINE
  8
0
  6
CONTINUOUS
 66
     1
 40
0.000000
 41
0.000000
  0
VERTEX
  8
0
  6
CONTINUOUS
 10
6.639600
 20
8.285200
  0
VERTEX
  8
0
  6
CONTINUOUS
 10
6.636080
 20
9.016920
  0
VERTEX
  8
0
  6
CONTINUOUS
 10
6.646640
 20
9.017360
  0
VERTEX
  8
0
  6
CONTINUOUS
 10
6.649720
 20
8.285640
  0
VERTEX
  8
0
  6
CONTINUOUS
 10
6.639600
 20
8.285200
  0
SEQEND
  8
0
  0
SOLID
  8
0
 62
    15
 10
6.649720
 20
8.285640
 11
6.646640
 21
9.017360
 12
6.662920
 22
8.283000
 13
6.659400
 23
9.014720
  0
POLYLINE
  8
0
  6
CONTINUOUS
 66
     1
 40
0.000000
 41
0.000000
  0
VERTEX
  8
0
  6
CONTINUOUS
 10
6.649720
 20
8.285640
  0
VERTEX
  8
0
  6
CONTINUOUS
 10
6.646640
 20
9.017360
  0
VERTEX
  8
0
  6
CONTINUOUS
 10
6.659400
 20
9.014720
  0
VERTEX
  8
0
  6
CONTINUOUS
 10
6.662920
 20
8.283000
  0
VERTEX
  8
0
  6
CONTINUOUS
 10
6.649720
 20
8.285640
  0
SEQEND
  8
0
  0
SOLID
  8
0
 62
    15
 10
6.662920
 20
8.283000
 11
6.659400
 21
9.014720
 12
6.677440
 22
8.275960
 13
6.674360
 23
9.008120
  0
POLYLINE
  8
0
  6
CONTINUOUS
 66
     1
 40
0.000000
 41
0.000000
  0
VERTEX
  8
0
  6
CONTINUOUS
 10
6.662920
 20
8.283000
  0
VERTEX
  8
0
  6
CONTINUOUS
 10
6.659400
 20
9.014720
  0
VERTEX
  8
0
  6
CONTINUOUS
 10
6.674360
 20
9.008120
  0
VERTEX
  8
0
  6
CONTINUOUS
 10
6.677440
 20
8.275960
  0
VERTEX
  8
0
  6
CONTINUOUS
 10
6.662920
 20
8.283000
  0
SEQEND
  8
0
  0
SOLID
  8
0
 62
    15
 10
6.677440
 20
8.275960
 11
6.674360
 21
9.008120
 12
6.693720
 22
8.262760
 13
6.690200
 23
8.994480
  0
POLYLINE
  8
0
  6
CONTINUOUS
 66
     1
 40
0.000000
 41
0.000000
  0
VERTEX
  8
0
  6
CONTINUOUS
 10
6.677440
 20
8.275960
  0
VERTEX
  8
0
  6
CONTINUOUS
 10
6.674360
 20
9.008120
  0
VERTEX
  8
0
  6
CONTINUOUS
 10
6.690200
 20
8.994480
  0
VERTEX
  8
0
  6
CONTINUOUS
 10
6.693720
 20
8.262760
  0
VERTEX
  8
0
  6
CONTINUOUS
 10
6.677440
 20
8.275960
  0
SEQEND
  8
0
  0
SOLID
  8
0
 62
    15
 10
6.710000
 20
8.241200
 11
6.706480
 21
8.973360
 12
6.717920
 22
8.227120
 13
6.714400
 23
8.959280
  0
POLYLINE
  8
0
  6
CONTINUOUS
 66
     1
 40
0.000000
 41
0.000000
  0
VERTEX
  8
0
  6
CONTINUOUS
 10
6.710000
 20
8.241200
  0
VERTEX
  8
0
  6
CONTINUOUS
 10
6.706480
 20
8.973360
  0
VERTEX
  8
0
  6
CONTINUOUS
 10
6.714400
 20
8.959280
  0
VERTEX
  8
0
  6
CONTINUOUS
 10
6.717920
 20
8.227120
  0
VERTEX
  8
0
  6
CONTINUOUS
 10
6.710000
 20
8.241200
  0
SEQEND
  8
0
  0
SOLID
  8
0
 62
    15
 10
6.693720
 20
8.262760
 11
6.690200
 21
8.994480
 12
6.710000
 22
8.241200
 13
6.706480
 23
8.973360
  0
POLYLINE
  8
0
  6
CONTINUOUS
 66
     1
 40
0.000000
 41
0.000000
  0
VERTEX
  8
0
  6
CONTINUOUS
 10
6.693720
 20
8.262760
  0
VERTEX
  8
0
  6
CONTINUOUS
 10
6.690200
 20
8.994480
  0
VERTEX
  8
0
  6
CONTINUOUS
 10
6.706480
 20
8.973360
  0
VERTEX
  8
0
  6
CONTINUOUS
 10
6.710000
 20
8.241200
  0
VERTEX
  8
0
  6
CONTINUOUS
 10
6.693720
 20
8.262760
  0
SEQEND
  8
0
  0
SOLID
  8
0
 62
    15
 10
6.725840
 20
8.210400
 11
6.722320
 21
8.942120
 12
6.740360
 22
8.228880
 13
6.737280
 23
8.960600
  0
POLYLINE
  8
0
  6
CONTINUOUS
 66
     1
 40
0.000000
 41
0.000000
  0
VERTEX
  8
0
  6
CONTINUOUS
 10
6.725840
 20
8.210400
  0
VERTEX
  8
0
  6
CONTINUOUS
 10
6.722320
 20
8.942120
  0
VERTEX
  8
0
  6
CONTINUOUS
 10
6.737280
 20
8.960600
  0
VERTEX
  8
0
  6
CONTINUOUS
 10
6.740360
 20
8.228880
  0
VERTEX
  8
0
  6
CONTINUOUS
 10
6.725840
 20
8.210400
  0
SEQEND
  8
0
  0
SOLID
  8
0
 62
    15
 10
6.717920
 20
8.227120
 11
6.714400
 21
8.959280
 12
6.725840
 22
8.210400
 13
6.722320
 23
8.942120
  0
POLYLINE
  8
0
  6
CONTINUOUS
 66
     1
 40
0.000000
 41
0.000000
  0
VERTEX
  8
0
  6
CONTINUOUS
 10
6.717920
 20
8.227120
  0
VERTEX
  8
0
  6
CONTINUOUS
 10
6.714400
 20
8.959280
  0
VERTEX
  8
0
  6
CONTINUOUS
 10
6.722320
 20
8.942120
  0
VERTEX
  8
0
  6
CONTINUOUS
 10
6.725840
 20
8.210400
  0
VERTEX
  8
0
  6
CONTINUOUS
 10
6.717920
 20
8.227120
  0
SEQEND
  8
0
  0
SOLID
  8
0
 62
    15
 10
6.740360
 20
8.228880
 11
6.737280
 21
8.960600
 12
6.759280
 22
8.242960
 13
6.756200
 23
8.974680
  0
POLYLINE
  8
0
  6
CONTINUOUS
 66
     1
 40
0.000000
 41
0.000000
  0
VERTEX
  8
0
  6
CONTINUOUS
 10
6.740360
 20
8.228880
  0
VERTEX
  8
0
  6
CONTINUOUS
 10
6.737280
 20
8.960600
  0
VERTEX
  8
0
  6
CONTINUOUS
 10
6.756200
 20
8.974680
  0
VERTEX
  8
0
  6
CONTINUOUS
 10
6.759280
 20
8.242960
  0
VERTEX
  8
0
  6
CONTINUOUS
 10
6.740360
 20
8.228880
  0
SEQEND
  8
0
  0
SOLID
  8
0
 62
    15
 10
6.759280
 20
8.242960
 11
6.756200
 21
8.974680
 12
6.781720
 22
8.252200
 13
6.778200
 23
8.983920
  0
POLYLINE
  8
0
  6
CONTINUOUS
 66
     1
 40
0.000000
 41
0.000000
  0
VERTEX
  8
0
  6
CONTINUOUS
 10
6.759280
 20
8.242960
  0
VERTEX
  8
0
  6
CONTINUOUS
 10
6.756200
 20
8.974680
  0
VERTEX
  8
0
  6
CONTINUOUS
 10
6.778200
 20
8.983920
  0
VERTEX
  8
0
  6
CONTINUOUS
 10
6.781720
 20
8.252200
  0
VERTEX
  8
0
  6
CONTINUOUS
 10
6.759280
 20
8.242960
  0
SEQEND
  8
0
  0
SOLID
  8
0
 62
    15
 10
6.781720
 20
8.252200
 11
6.778200
 21
8.983920
 12
6.806360
 22
8.255280
 13
6.802840
 23
8.987000
  0
POLYLINE
  8
0
  6
CONTINUOUS
 66
     1
 40
0.000000
 41
0.000000
  0
VERTEX
  8
0
  6
CONTINUOUS
 10
6.781720
 20
8.252200
  0
VERTEX
  8
0
  6
CONTINUOUS
 10
6.778200
 20
8.983920
  0
VERTEX
  8
0
  6
CONTINUOUS
 10
6.802840
 20
8.987000
  0
VERTEX
  8
0
  6
CONTINUOUS
 10
6.806360
 20
8.255280
  0
VERTEX
  8
0
  6
CONTINUOUS
 10
6.781720
 20
8.252200
  0
SEQEND
  8
0
  0
SOLID
  8
0
 62
    15
 10
6.806360
 20
8.255280
 11
6.802840
 21
8.987000
 12
6.824840
 22
8.253520
 13
6.821760
 23
8.985240
  0
POLYLINE
  8
0
  6
CONTINUOUS
 66
     1
 40
0.000000
 41
0.000000
  0
VERTEX
  8
0
  6
CONTINUOUS
 10
6.806360
 20
8.255280
  0
VERTEX
  8
0
  6
CONTINUOUS
 10
6.802840
 20
8.987000
  0
VERTEX
  8
0
  6
CONTINUOUS
 10
6.821760
 20
8.985240
  0
VERTEX
  8
0
  6
CONTINUOUS
 10
6.824840
 20
8.253520
  0
VERTEX
  8
0
  6
CONTINUOUS
 10
6.806360
 20
8.255280
  0
SEQEND
  8
0
  0
SOLID
  8
0
 62
    15
 10
6.824840
 20
8.253520
 11
6.821760
 21
8.985240
 12
6.842880
 22
8.247800
 13
6.839360
 23
8.979960
  0
POLYLINE
  8
0
  6
CONTINUOUS
 66
     1
 40
0.000000
 41
0.000000
  0
VERTEX
  8
0
  6
CONTINUOUS
 10
6.824840
 20
8.253520
  0
VERTEX
  8
0
  6
CONTINUOUS
 10
6.821760
 20
8.985240
  0
VERTEX
  8
0
  6
CONTINUOUS
 10
6.839360
 20
8.979960
  0
VERTEX
  8
0
  6
CONTINUOUS
 10
6.842880
 20
8.247800
  0
VERTEX
  8
0
  6
CONTINUOUS
 10
6.824840
 20
8.253520
  0
SEQEND
  8
0
  0
SOLID
  8
0
 62
    15
 10
6.842880
 20
8.247800
 11
6.839360
 21
8.979960
 12
6.858720
 22
8.239440
 13
6.855200
 23
8.971160
  0
POLYLINE
  8
0
  6
CONTINUOUS
 66
     1
 40
0.000000
 41
0.000000
  0
VERTEX
  8
0
  6
CONTINUOUS
 10
6.842880
 20
8.247800
  0
VERTEX
  8
0
  6
CONTINUOUS
 10
6.839360
 20
8.979960
  0
VERTEX
  8
0
  6
CONTINUOUS
 10
6.855200
 20
8.971160
  0
VERTEX
  8
0
  6
CONTINUOUS
 10
6.858720
 20
8.239440
  0
VERTEX
  8
0
  6
CONTINUOUS
 10
6.842880
 20
8.247800
  0
SEQEND
  8
0
  0
SOLID
  8
0
 62
    15
 10
6.858720
 20
8.239440
 11
6.855200
 21
8.971160
 12
6.872360
 22
8.228000
 13
6.869280
 23
8.959720
  0
POLYLINE
  8
0
  6
CONTINUOUS
 66
     1
 40
0.000000
 41
0.000000
  0
VERTEX
  8
0
  6
CONTINUOUS
 10
6.858720
 20
8.239440
  0
VERTEX
  8
0
  6
CONTINUOUS
 10
6.855200
 20
8.971160
  0
VERTEX
  8
0
  6
CONTINUOUS
 10
6.869280
 20
8.959720
  0
VERTEX
  8
0
  6
CONTINUOUS
 10
6.872360
 20
8.228000
  0
VERTEX
  8
0
  6
CONTINUOUS
 10
6.858720
 20
8.239440
  0
SEQEND
  8
0
  0
SOLID
  8
0
 62
    15
 10
6.883800
 20
8.213920
 11
6.880720
 21
8.946080
 12
6.892600
 22
8.198080
 13
6.889080
 23
8.929800
  0
POLYLINE
  8
0
  6
CONTINUOUS
 66
     1
 40
0.000000
 41
0.000000
  0
VERTEX
  8
0
  6
CONTINUOUS
 10
6.883800
 20
8.213920
  0
VERTEX
  8
0
  6
CONTINUOUS
 10
6.880720
 20
8.946080
  0
VERTEX
  8
0
  6
CONTINUOUS
 10
6.889080
 20
8.929800
  0
VERTEX
  8
0
  6
CONTINUOUS
 10
6.892600
 20
8.198080
  0
VERTEX
  8
0
  6
CONTINUOUS
 10
6.883800
 20
8.213920
  0
SEQEND
  8
0
  0
SOLID
  8
0
 62
    15
 10
6.872360
 20
8.228000
 11
6.869280
 21
8.959720
 12
6.883800
 22
8.213920
 13
6.880720
 23
8.946080
  0
POLYLINE
  8
0
  6
CONTINUOUS
 66
     1
 40
0.000000
 41
0.000000
  0
VERTEX
  8
0
  6
CONTINUOUS
 10
6.872360
 20
8.228000
  0
VERTEX
  8
0
  6
CONTINUOUS
 10
6.869280
 20
8.959720
  0
VERTEX
  8
0
  6
CONTINUOUS
 10
6.880720
 20
8.946080
  0
VERTEX
  8
0
  6
CONTINUOUS
 10
6.883800
 20
8.213920
  0
VERTEX
  8
0
  6
CONTINUOUS
 10
6.872360
 20
8.228000
  0
SEQEND
  8
0
  0
SOLID
  8
0
 62
    15
 10
6.892600
 20
8.198080
 11
6.889080
 21
8.929800
 12
6.898320
 22
8.180480
 13
6.894800
 23
8.912200
  0
POLYLINE
  8
0
  6
CONTINUOUS
 66
     1
 40
0.000000
 41
0.000000
  0
VERTEX
  8
0
  6
CONTINUOUS
 10
6.892600
 20
8.198080
  0
VERTEX
  8
0
  6
CONTINUOUS
 10
6.889080
 20
8.929800
  0
VERTEX
  8
0
  6
CONTINUOUS
 10
6.894800
 20
8.912200
  0
VERTEX
  8
0
  6
CONTINUOUS
 10
6.898320
 20
8.180480
  0
VERTEX
  8
0
  6
CONTINUOUS
 10
6.892600
 20
8.198080
  0
SEQEND
  8
0
  0
SOLID
  8
0
 62
    15
 10
6.901840
 20
8.115800
 11
6.898320
 21
8.847520
 12
7.143840
 22
8.088960
 13
7.140320
 23
8.820680
  0
POLYLINE
  8
0
  6
CONTINUOUS
 66
     1
 40
0.000000
 41
0.000000
  0
VERTEX
  8
0
  6
CONTINUOUS
 10
6.901840
 20
8.115800
  0
VERTEX
  8
0
  6
CONTINUOUS
 10
6.898320
 20
8.847520
  0
VERTEX
  8
0
  6
CONTINUOUS
 10
7.140320
 20
8.820680
  0
VERTEX
  8
0
  6
CONTINUOUS
 10
7.143840
 20
8.088960
  0
VERTEX
  8
0
  6
CONTINUOUS
 10
6.901840
 20
8.115800
  0
SEQEND
  8
0
  0
SOLID
  8
0
 62
    15
 10
6.900080
 20
8.161560
 11
6.896560
 21
8.893280
 12
6.901840
 22
8.159800
 13
6.898320
 23
8.891520
  0
POLYLINE
  8
0
  6
CONTINUOUS
 66
     1
 40
0.000000
 41
0.000000
  0
VERTEX
  8
0
  6
CONTINUOUS
 10
6.900080
 20
8.161560
  0
VERTEX
  8
0
  6
CONTINUOUS
 10
6.896560
 20
8.893280
  0
VERTEX
  8
0
  6
CONTINUOUS
 10
6.898320
 20
8.891520
  0
VERTEX
  8
0
  6
CONTINUOUS
 10
6.901840
 20
8.159800
  0
VERTEX
  8
0
  6
CONTINUOUS
 10
6.900080
 20
8.161560
  0
SEQEND
  8
0
  0
SOLID
  8
0
 62
    15
 10
6.898320
 20
8.180480
 11
6.894800
 21
8.912200
 12
6.900080
 22
8.161560
 13
6.896560
 23
8.893280
  0
POLYLINE
  8
0
  6
CONTINUOUS
 66
     1
 40
0.000000
 41
0.000000
  0
VERTEX
  8
0
  6
CONTINUOUS
 10
6.898320
 20
8.180480
  0
VERTEX
  8
0
  6
CONTINUOUS
 10
6.894800
 20
8.912200
  0
VERTEX
  8
0
  6
CONTINUOUS
 10
6.896560
 20
8.893280
  0
VERTEX
  8
0
  6
CONTINUOUS
 10
6.900080
 20
8.161560
  0
VERTEX
  8
0
  6
CONTINUOUS
 10
6.898320
 20
8.180480
  0
SEQEND
  8
0
  0
SOLID
  8
0
 62
    15
 10
1.415480
 20
7.787120
 11
1.411960
 21
8.519280
 12
1.415480
 22
7.938480
 13
1.411960
 23
8.670640
  0
POLYLINE
  8
0
  6
CONTINUOUS
 66
     1
 40
0.000000
 41
0.000000
  0
VERTEX
  8
0
  6
CONTINUOUS
 10
1.415480
 20
7.787120
  0
VERTEX
  8
0
  6
CONTINUOUS
 10
1.411960
 20
8.519280
  0
VERTEX
  8
0
  6
CONTINUOUS
 10
1.411960
 20
8.670640
  0
VERTEX
  8
0
  6
CONTINUOUS
 10
1.415480
 20
7.938480
  0
VERTEX
  8
0
  6
CONTINUOUS
 10
1.415480
 20
7.787120
  0
SEQEND
  8
0
  0
SOLID
  8
0
 62
    15
 10
1.415480
 20
7.938480
 11
1.411960
 21
8.670640
 12
1.680800
 22
7.973680
 13
1.677720
 23
8.705840
  0
POLYLINE
  8
0
  6
CONTINUOUS
 66
     1
 40
0.000000
 41
0.000000
  0
VERTEX
  8
0
  6
CONTINUOUS
 10
1.415480
 20
7.938480
  0
VERTEX
  8
0
  6
CONTINUOUS
 10
1.411960
 20
8.670640
  0
VERTEX
  8
0
  6
CONTINUOUS
 10
1.677720
 20
8.705840
  0
VERTEX
  8
0
  6
CONTINUOUS
 10
1.680800
 20
7.973680
  0
VERTEX
  8
0
  6
CONTINUOUS
 10
1.415480
 20
7.938480
  0
SEQEND
  8
0
  0
SOLID
  8
0
 62
    15
 10
1.415480
 20
8.283440
 11
1.411960
 21
9.015600
 12
3.874640
 22
8.283440
 13
3.871120
 23
9.015600
  0
POLYLINE
  8
0
  6
CONTINUOUS
 66
     1
 40
0.000000
 41
0.000000
  0
VERTEX
  8
0
  6
CONTINUOUS
 10
1.415480
 20
8.283440
  0
VERTEX
  8
0
  6
CONTINUOUS
 10
1.411960
 20
9.015600
  0
VERTEX
  8
0
  6
CONTINUOUS
 10
3.871120
 20
9.015600
  0
VERTEX
  8
0
  6
CONTINUOUS
 10
3.874640
 20
8.283440
  0
VERTEX
  8
0
  6
CONTINUOUS
 10
1.415480
 20
8.283440
  0
SEQEND
  8
0
  0
SOLID
  8
0
 62
    15
 10
1.415480
 20
8.114480
 11
1.411960
 21
8.846640
 12
1.415480
 22
8.283440
 13
1.411960
 23
9.015600
  0
POLYLINE
  8
0
  6
CONTINUOUS
 66
     1
 40
0.000000
 41
0.000000
  0
VERTEX
  8
0
  6
CONTINUOUS
 10
1.415480
 20
8.114480
  0
VERTEX
  8
0
  6
CONTINUOUS
 10
1.411960
 20
8.846640
  0
VERTEX
  8
0
  6
CONTINUOUS
 10
1.411960
 20
9.015600
  0
VERTEX
  8
0
  6
CONTINUOUS
 10
1.415480
 20
8.283440
  0
VERTEX
  8
0
  6
CONTINUOUS
 10
1.415480
 20
8.114480
  0
SEQEND
  8
0
  0
POLYLINE
  8
0
  6
CONTINUOUS
 66
     1
 40
0.000000
 41
0.000000
  0
VERTEX
  8
0
  6
CONTINUOUS
 10
1.415480
 20
8.283440
  0
VERTEX
  8
0
  6
CONTINUOUS
 10
1.411960
 20
9.015600
  0
VERTEX
  8
0
  6
CONTINUOUS
 10
1.415480
 20
8.283440
  0
SEQEND
  8
0
  0
POLYLINE
  8
0
  6
CONTINUOUS
 66
     1
 40
0.000000
 41
0.000000
  0
VERTEX
  8
0
  6
CONTINUOUS
 10
1.415480
 20
8.283440
  0
VERTEX
  8
0
  6
CONTINUOUS
 10
3.874640
 20
8.283440
  0
VERTEX
  8
0
  6
CONTINUOUS
 10
3.894000
 20
8.281240
  0
VERTEX
  8
0
  6
CONTINUOUS
 10
3.909840
 20
8.274640
  0
VERTEX
  8
0
  6
CONTINUOUS
 10
3.922160
 20
8.264960
  0
VERTEX
  8
0
  6
CONTINUOUS
 10
3.931400
 20
8.252200
  0
VERTEX
  8
0
  6
CONTINUOUS
 10
3.938000
 20
8.237240
  0
VERTEX
  8
0
  6
CONTINUOUS
 10
3.941960
 20
8.221400
  0
VERTEX
  8
0
  6
CONTINUOUS
 10
3.945040
 20
8.189280
  0
VERTEX
  8
0
  6
CONTINUOUS
 10
3.956480
 20
8.189280
  0
VERTEX
  8
0
  6
CONTINUOUS
 10
3.958240
 20
8.205560
  0
VERTEX
  8
0
  6
CONTINUOUS
 10
3.962640
 20
8.220960
  0
VERTEX
  8
0
  6
CONTINUOUS
 10
3.970120
 20
8.234600
  0
VERTEX
  8
0
  6
CONTINUOUS
 10
3.980240
 20
8.246480
  0
VERTEX
  8
0
  6
CONTINUOUS
 10
3.992120
 20
8.256600
  0
VERTEX
  8
0
  6
CONTINUOUS
 10
4.006200
 20
8.264080
  0
VERTEX
  8
0
  6
CONTINUOUS
 10
4.021160
 20
8.268920
  0
VERTEX
  8
0
  6
CONTINUOUS
 10
4.037440
 20
8.270680
  0
VERTEX
  8
0
  6
CONTINUOUS
 10
4.035240
 20
8.269800
  0
VERTEX
  8
0
  6
CONTINUOUS
 10
4.051520
 20
8.268040
  0
VERTEX
  8
0
  6
CONTINUOUS
 10
4.066920
 20
8.263200
  0
VERTEX
  8
0
  6
CONTINUOUS
 10
4.080560
 20
8.255720
  0
VERTEX
  8
0
  6
CONTINUOUS
 10
4.092440
 20
8.246040
  0
VERTEX
  8
0
  6
CONTINUOUS
 10
4.102560
 20
8.234160
  0
VERTEX
  8
0
  6
CONTINUOUS
 10
4.110040
 20
8.220080
  0
VERTEX
  8
0
  6
CONTINUOUS
 10
4.114880
 20
8.205120
  0
VERTEX
  8
0
  6
CONTINUOUS
 10
4.116200
 20
8.188400
  0
VERTEX
  8
0
  6
CONTINUOUS
 10
4.128080
 20
8.188400
  0
VERTEX
  8
0
  6
CONTINUOUS
 10
4.130720
 20
8.220960
  0
VERTEX
  8
0
  6
CONTINUOUS
 10
4.135120
 20
8.236800
  0
VERTEX
  8
0
  6
CONTINUOUS
 10
4.141280
 20
8.251320
  0
VERTEX
  8
0
  6
CONTINUOUS
 10
4.150520
 20
8.264080
  0
VERTEX
  8
0
  6
CONTINUOUS
 10
4.162840
 20
8.274200
  0
VERTEX
  8
0
  6
CONTINUOUS
 10
4.178680
 20
8.280360
  0
VERTEX
  8
0
  6
CONTINUOUS
 10
4.198920
 20
8.282560
  0
VERTEX
  8
0
  6
CONTINUOUS
 10
6.630360
 20
8.282560
  0
VERTEX
  8
0
  6
CONTINUOUS
 10
6.639600
 20
8.285200
  0
VERTEX
  8
0
  6
CONTINUOUS
 10
6.649720
 20
8.285640
  0
VERTEX
  8
0
  6
CONTINUOUS
 10
6.662920
 20
8.283000
  0
VERTEX
  8
0
  6
CONTINUOUS
 10
6.677440
 20
8.275960
  0
VERTEX
  8
0
  6
CONTINUOUS
 10
6.693720
 20
8.262760
  0
VERTEX
  8
0
  6
CONTINUOUS
 10
6.710000
 20
8.241200
  0
VERTEX
  8
0
  6
CONTINUOUS
 10
6.725840
 20
8.210400
  0
VERTEX
  8
0
  6
CONTINUOUS
 10
6.740360
 20
8.228880
  0
VERTEX
  8
0
  6
CONTINUOUS
 10
6.759280
 20
8.242960
  0
VERTEX
  8
0
  6
CONTINUOUS
 10
6.781720
 20
8.252200
  0
VERTEX
  8
0
  6
CONTINUOUS
 10
6.806360
 20
8.255280
  0
VERTEX
  8
0
  6
CONTINUOUS
 10
6.824840
 20
8.253520
  0
VERTEX
  8
0
  6
CONTINUOUS
 10
6.842880
 20
8.247800
  0
VERTEX
  8
0
  6
CONTINUOUS
 10
6.858720
 20
8.239440
  0
VERTEX
  8
0
  6
CONTINUOUS
 10
6.872360
 20
8.228000
  0
VERTEX
  8
0
  6
CONTINUOUS
 10
6.883800
 20
8.213920
  0
VERTEX
  8
0
  6
CONTINUOUS
 10
6.892600
 20
8.198080
  0
VERTEX
  8
0
  6
CONTINUOUS
 10
6.898320
 20
8.180480
  0
VERTEX
  8
0
  6
CONTINUOUS
 10
6.900080
 20
8.161560
  0
VERTEX
  8
0
  6
CONTINUOUS
 10
6.901840
 20
8.159800
  0
VERTEX
  8
0
  6
CONTINUOUS
 10
6.901840
 20
8.115800
  0
VERTEX
  8
0
  6
CONTINUOUS
 10
7.143840
 20
8.088960
  0
VERTEX
  8
0
  6
CONTINUOUS
 10
7.143840
 20
7.961800
  0
VERTEX
  8
0
  6
CONTINUOUS
 10
6.901840
 20
7.930120
  0
VERTEX
  8
0
  6
CONTINUOUS
 10
6.901840
 20
7.788440
  0
VERTEX
  8
0
  6
CONTINUOUS
 10
1.415040
 20
7.788440
  0
VERTEX
  8
0
  6
CONTINUOUS
 10
1.415480
 20
7.787120
  0
VERTEX
  8
0
  6
CONTINUOUS
 10
1.415480
 20
7.938480
  0
VERTEX
  8
0
  6
CONTINUOUS
 10
1.680800
 20
7.973680
  0
VERTEX
  8
0
  6
CONTINUOUS
 10
1.677720
 20
8.098640
  0
VERTEX
  8
0
  6
CONTINUOUS
 10
1.415480
 20
8.114480
  0
VERTEX
  8
0
  6
CONTINUOUS
 10
1.415480
 20
8.283440
  0
SEQEND
  8
0
  0
TEXT
  8
0
 10
3.936240
 20
7.533680
 40
0.138038
  1
BA  1102
 41
1.000000
  7
SN0
 71
     0
 72
     5
 11
4.621746
 21
7.533680
  0
TEXT
  8
0
 10
3.780040
 20
7.341840
 40
0.138038
  1
1/2" x 5 - 3/4"
 41
1.000000
  7
SN0
 71
     0
 72
     5
 11
4.779139
 21
7.341840
  0
POLYLINE
  8
0
  6
CONTINUOUS
 66
     1
 40
0.014080
 41
0.014080
  0
VERTEX
  8
0
  6
CONTINUOUS
 10
7.001280
 20
10.018360
  0
VERTEX
  8
0
  6
CONTINUOUS
 10
4.532000
 20
10.017920
  0
VERTEX
  8
0
  6
CONTINUOUS
 10
4.514400
 20
10.013080
  0
VERTEX
  8
0
  6
CONTINUOUS
 10
4.500320
 20
10.004720
  0
VERTEX
  8
0
  6
CONTINUOUS
 10
4.489760
 20
9.993280
  0
VERTEX
  8
0
  6
CONTINUOUS
 10
4.478760
 20
9.972160
  0
VERTEX
  8
0
  6
CONTINUOUS
 10
4.474800
 20
9.956320
  0
VERTEX
  8
0
  6
CONTINUOUS
 10
4.471720
 20
9.924200
  0
VERTEX
  8
0
  6
CONTINUOUS
 10
4.460280
 20
9.924200
  0
VERTEX
  8
0
  6
CONTINUOUS
 10
4.458520
 20
9.940480
  0
VERTEX
  8
0
  6
CONTINUOUS
 10
4.453680
 20
9.955880
  0
VERTEX
  8
0
  6
CONTINUOUS
 10
4.446200
 20
9.969520
  0
VERTEX
  8
0
  6
CONTINUOUS
 10
4.430800
 20
9.986680
  0
VERTEX
  8
0
  6
CONTINUOUS
 10
4.410560
 20
9.999000
  0
VERTEX
  8
0
  6
CONTINUOUS
 10
4.387240
 20
10.004720
  0
VERTEX
  8
0
  6
CONTINUOUS
 10
4.378880
 20
10.005160
  0
VERTEX
  8
0
  6
CONTINUOUS
 10
4.381520
 20
10.004280
  0
VERTEX
  8
0
  6
CONTINUOUS
 10
4.365240
 20
10.002520
  0
VERTEX
  8
0
  6
CONTINUOUS
 10
4.349840
 20
9.998120
  0
VERTEX
  8
0
  6
CONTINUOUS
 10
4.329600
 20
9.985800
  0
VERTEX
  8
0
  6
CONTINUOUS
 10
4.314200
 20
9.968640
  0
VERTEX
  8
0
  6
CONTINUOUS
 10
4.306720
 20
9.955000
  0
VERTEX
  8
0
  6
CONTINUOUS
 10
4.301880
 20
9.939600
  0
VERTEX
  8
0
  6
CONTINUOUS
 10
4.300120
 20
9.923320
  0
VERTEX
  8
0
  6
CONTINUOUS
 10
4.288680
 20
9.923320
  0
VERTEX
  8
0
  6
CONTINUOUS
 10
4.288240
 20
9.939160
  0
VERTEX
  8
0
  6
CONTINUOUS
 10
4.281640
 20
9.971280
  0
VERTEX
  8
0
  6
CONTINUOUS
 10
4.271080
 20
9.992400
  0
VERTEX
  8
0
  6
CONTINUOUS
 10
4.253920
 20
10.008680
  0
VERTEX
  8
0
  6
CONTINUOUS
 10
4.238080
 20
10.015280
  0
VERTEX
  8
0
  6
CONTINUOUS
 10
4.218720
 20
10.017480
  0
VERTEX
  8
0
  6
CONTINUOUS
 10
1.785520
 20
10.017920
  0
VERTEX
  8
0
  6
CONTINUOUS
 10
1.772320
 20
10.020120
  0
VERTEX
  8
0
  6
CONTINUOUS
 10
1.760440
 20
10.019680
  0
VERTEX
  8
0
  6
CONTINUOUS
 10
1.746360
 20
10.014840
  0
VERTEX
  8
0
  6
CONTINUOUS
 10
1.730960
 20
10.005160
  0
VERTEX
  8
0
  6
CONTINUOUS
 10
1.714680
 20
9.988000
  0
VERTEX
  8
0
  6
CONTINUOUS
 10
1.698840
 20
9.961600
  0
VERTEX
  8
0
  6
CONTINUOUS
 10
1.690920
 20
9.944880
  0
VERTEX
  8
0
  6
CONTINUOUS
 10
1.675960
 20
9.963360
  0
VERTEX
  8
0
  6
CONTINUOUS
 10
1.657480
 20
9.977880
  0
VERTEX
  8
0
  6
CONTINUOUS
 10
1.635040
 20
9.987120
  0
VERTEX
  8
0
  6
CONTINUOUS
 10
1.610400
 20
9.990200
  0
VERTEX
  8
0
  6
CONTINUOUS
 10
1.591480
 20
9.988440
  0
VERTEX
  8
0
  6
CONTINUOUS
 10
1.565520
 20
9.978760
  0
VERTEX
  8
0
  6
CONTINUOUS
 10
1.550560
 20
9.968640
  0
VERTEX
  8
0
  6
CONTINUOUS
 10
1.532520
 20
9.948840
  0
VERTEX
  8
0
  6
CONTINUOUS
 10
1.521080
 20
9.924200
  0
VERTEX
  8
0
  6
CONTINUOUS
 10
1.517120
 20
9.905720
  0
VERTEX
  8
0
  6
CONTINUOUS
 10
1.516680
 20
9.896040
  0
VERTEX
  8
0
  6
CONTINUOUS
 10
1.514920
 20
9.894280
  0
VERTEX
  8
0
  6
CONTINUOUS
 10
1.514920
 20
9.850280
  0
VERTEX
  8
0
  6
CONTINUOUS
 10
1.272920
 20
9.823440
  0
VERTEX
  8
0
  6
CONTINUOUS
 10
1.272920
 20
9.696720
  0
VERTEX
  8
0
  6
CONTINUOUS
 10
1.514920
 20
9.664600
  0
VERTEX
  8
0
  6
CONTINUOUS
 10
1.514920
 20
9.523360
  0
VERTEX
  8
0
  6
CONTINUOUS
 10
7.001280
 20
9.523360
  0
VERTEX
  8
0
  6
CONTINUOUS
 10
7.001280
 20
9.522040
  0
VERTEX
  8
0
  6
CONTINUOUS
 10
7.001280
 20
9.673400
  0
VERTEX
  8
0
  6
CONTINUOUS
 10
6.735520
 20
9.708600
  0
VERTEX
  8
0
  6
CONTINUOUS
 10
6.739040
 20
9.833120
  0
VERTEX
  8
0
  6
CONTINUOUS
 10
7.001280
 20
9.849400
  0
VERTEX
  8
0
  6
CONTINUOUS
 10
7.001280
 20
10.018360
  0
SEQEND
  8
0
  0
TEXT
  8
0
 10
3.151280
 20
9.795280
 40
0.138038
  1
BA  1102
 41
1.000000
  7
SN0
 71
     0
 72
     5
 11
3.836786
 21
9.795280
  0
TEXT
  8
0
 10
2.995520
 20
9.603440
 40
0.138038
  1
1/2" x 5 - 3/4"
 41
1.000000
  7
SN0
 71
     0
 72
     5
 11
3.994619
 21
9.603440
  0
ENDSEC
  0
EOF
