  0
SECTION
  2
HEADER
  9
$ACADVER
  1
AC1006
  9
$EXTMIN
 10
2.825680
 20
0.705320
  9
$EXTMAX
 10
6.167920
 20
5.935600
  9
$LTSCALE
 40
0.044000
  9
$PDMODE
 70
    35
  9
$PDSIZE
 40
0.035200
  0
ENDSEC
  0
SECTION
  2
TABLES
  0
TABLE
  2
LTYPE
 70
     9
  0
LTYPE
  2
CONTINUOUS
 70
    64
  3
Solid line
 72
    65
 73
     0
 40
0.000000
  0
LTYPE
  2
DASHED
 70
    64
  3
__ __ __ __ __ __ __ __ __ __ __ __ __ __ __
 72
    65
 73
     2
 40
0.000330
 49
0.000220
 49
-0.000110
  0
LTYPE
  2
HIDDEN
 70
    64
  3
 _ _ _ _ _ _ _ _ _ _ _ _ _ _ _ _ _ _ _ _ _ _
 72
    65
 73
     2
 40
0.000165
 49
0.000110
 49
-0.000055
  0
LTYPE
  2
CENTER
 70
    64
  3
____ _ ____ _ ____ _ ____ _ ____ _ ____ _ ____
 72
    65
 73
     4
 40
0.000880
 49
0.000550
 49
-0.000110
 49
0.000110
 49
-0.000110
  0
LTYPE
  2
PHANTOM
 70
    64
  3
_____ _ _ _____ _ _ _____ _ _ _____ _ _ ____
 72
    65
 73
     6
 40
0.001100
 49
0.000550
 49
-0.000110
 49
0.000110
 49
-0.000110
 49
0.000110
 49
-0.000110
  0
LTYPE
  2
DOT
 70
    64
  3
...............................................
 72
    65
 73
     2
 40
0.000110
 49
0.000000
 49
-0.000110
  0
LTYPE
  2
DASHDOT
 70
    64
  3
__ . __ . __ . __ . __ . __ . __ . __ . __ . __
 72
    65
 73
     4
 40
0.000440
 49
0.000220
 49
-0.000110
 49
0.000000
 49
-0.000110
  0
LTYPE
  2
BORDER
 70
    64
  3
__ __ . __ __ . __ __ . __ __ . __ __ . __ __
 72
    65
 73
     6
 40
0.000770
 49
0.000220
 49
-0.000110
 49
0.000220
 49
-0.000110
 49
0.000000
 49
-0.000110
  0
LTYPE
  2
DIVIDE
 70
    64
  3
__ . . __ . . __ . . __ . . __ . . __ . . __
 72
    65
 73
     6
 40
0.000550
 49
0.000220
 49
-0.000110
 49
0.000000
 49
-0.000110
 49
0.000000
 49
-0.000110
  0
LTYPE
  2
DOTDOT
 70
    64
  3
 . .  . .  . .  . .  . .  . . 
 72
    65
 73
     5
 40
0.000242
 49
-0.000110
 49
0.000000
 49
-0.000110
 49
0.000000
 49
-0.000110
  0
ENDTAB
  0
TABLE
  2
STYLE
 70
     2
  0
STYLE
 70
     0
  2
SN0
 40
0.000000
 41
0.000440
 50
0.000000
 71
     0
 42
0.000000
  3
ROMAND
  0
STYLE
 70
    68
  2
SV0
 40
0.000000
 41
0.000440
 50
0.000000
 71
     0
 42
0.000000
  3
ROMAND
  0
ENDTAB
  0
TABLE
  2
LAYER
 70
     3
  0
LAYER
  2
FOREGROUND
 70
    64
 62
     7
  6
CONTINUOUS
  0
LAYER
  2
BACKGROUND
 70
    65
 62
    -7
  6
CONTINUOUS
  0
LAYER
  2
0
 70
    64
 62
     7
  6
CONTINUOUS
  0
ENDTAB
  0
ENDSEC
  0
SECTION
  2
ENTITIES
  0
POLYLINE
  8
FOREGROUND
  6
CONTINUOUS
 66
     1
 40
0.000000
 41
0.000000
  0
VERTEX
  8
FOREGROUND
  6
CONTINUOUS
 10
0.000000
 20
6.640920
  0
VERTEX
  8
FOREGROUND
  6
CONTINUOUS
 10
8.499920
 20
6.640920
  0
VERTEX
  8
FOREGROUND
  6
CONTINUOUS
 10
8.499920
 20
-4.359080
  0
VERTEX
  8
FOREGROUND
  6
CONTINUOUS
 10
0.000000
 20
-4.359080
  0
VERTEX
  8
FOREGROUND
  6
CONTINUOUS
 10
0.000000
 20
6.640920
  0
SEQEND
  8
0
  0
POLYLINE
  8
FOREGROUND
  6
CONTINUOUS
 66
     1
 40
0.000000
 41
0.000000
  0
VERTEX
  8
FOREGROUND
  6
CONTINUOUS
 10
0.000000
 20
6.640920
  0
VERTEX
  8
FOREGROUND
  6
CONTINUOUS
 10
8.499920
 20
6.640920
  0
VERTEX
  8
FOREGROUND
  6
CONTINUOUS
 10
8.499920
 20
-4.359080
  0
VERTEX
  8
FOREGROUND
  6
CONTINUOUS
 10
0.000000
 20
-4.359080
  0
VERTEX
  8
FOREGROUND
  6
CONTINUOUS
 10
0.000000
 20
6.640920
  0
SEQEND
  8
0
  0
SOLID
  8
0
 62
    15
 10
3.795000
 20
1.940840
 11
4.444000
 21
2.310880
 12
3.788400
 22
1.884520
 13
4.437840
 23
2.254560
  0
POLYLINE
  8
0
  6
CONTINUOUS
 66
     1
 40
0.000000
 41
0.000000
  0
VERTEX
  8
0
  6
CONTINUOUS
 10
3.795000
 20
1.940840
  0
VERTEX
  8
0
  6
CONTINUOUS
 10
4.444000
 20
2.310880
  0
VERTEX
  8
0
  6
CONTINUOUS
 10
4.437840
 20
2.254560
  0
VERTEX
  8
0
  6
CONTINUOUS
 10
3.788400
 20
1.884520
  0
VERTEX
  8
0
  6
CONTINUOUS
 10
3.795000
 20
1.940840
  0
SEQEND
  8
0
  0
SOLID
  8
0
 62
    15
 10
4.419800
 20
4.302760
 11
5.069240
 21
4.672800
 12
4.379320
 22
4.276360
 13
5.028760
 23
4.646400
  0
POLYLINE
  8
0
  6
CONTINUOUS
 66
     1
 40
0.000000
 41
0.000000
  0
VERTEX
  8
0
  6
CONTINUOUS
 10
4.419800
 20
4.302760
  0
VERTEX
  8
0
  6
CONTINUOUS
 10
5.069240
 20
4.672800
  0
VERTEX
  8
0
  6
CONTINUOUS
 10
5.028760
 20
4.646400
  0
VERTEX
  8
0
  6
CONTINUOUS
 10
4.379320
 20
4.276360
  0
VERTEX
  8
0
  6
CONTINUOUS
 10
4.419800
 20
4.302760
  0
SEQEND
  8
0
  0
SOLID
  8
0
 62
    15
 10
4.379320
 20
4.276360
 11
5.028760
 21
4.646400
 12
4.343680
 22
4.242040
 13
4.992680
 23
4.612080
  0
POLYLINE
  8
0
  6
CONTINUOUS
 66
     1
 40
0.000000
 41
0.000000
  0
VERTEX
  8
0
  6
CONTINUOUS
 10
4.379320
 20
4.276360
  0
VERTEX
  8
0
  6
CONTINUOUS
 10
5.028760
 20
4.646400
  0
VERTEX
  8
0
  6
CONTINUOUS
 10
4.992680
 20
4.612080
  0
VERTEX
  8
0
  6
CONTINUOUS
 10
4.343680
 20
4.242040
  0
VERTEX
  8
0
  6
CONTINUOUS
 10
4.379320
 20
4.276360
  0
SEQEND
  8
0
  0
SOLID
  8
0
 62
    15
 10
4.343680
 20
4.242040
 11
4.992680
 21
4.612080
 12
4.313760
 22
4.201120
 13
4.963200
 23
4.571160
  0
POLYLINE
  8
0
  6
CONTINUOUS
 66
     1
 40
0.000000
 41
0.000000
  0
VERTEX
  8
0
  6
CONTINUOUS
 10
4.343680
 20
4.242040
  0
VERTEX
  8
0
  6
CONTINUOUS
 10
4.992680
 20
4.612080
  0
VERTEX
  8
0
  6
CONTINUOUS
 10
4.963200
 20
4.571160
  0
VERTEX
  8
0
  6
CONTINUOUS
 10
4.313760
 20
4.201120
  0
VERTEX
  8
0
  6
CONTINUOUS
 10
4.343680
 20
4.242040
  0
SEQEND
  8
0
  0
SOLID
  8
0
 62
    15
 10
4.313760
 20
4.201120
 11
4.963200
 21
4.571160
 12
4.290880
 22
4.155360
 13
4.940320
 23
4.525400
  0
POLYLINE
  8
0
  6
CONTINUOUS
 66
     1
 40
0.000000
 41
0.000000
  0
VERTEX
  8
0
  6
CONTINUOUS
 10
4.313760
 20
4.201120
  0
VERTEX
  8
0
  6
CONTINUOUS
 10
4.963200
 20
4.571160
  0
VERTEX
  8
0
  6
CONTINUOUS
 10
4.940320
 20
4.525400
  0
VERTEX
  8
0
  6
CONTINUOUS
 10
4.290880
 20
4.155360
  0
VERTEX
  8
0
  6
CONTINUOUS
 10
4.313760
 20
4.201120
  0
SEQEND
  8
0
  0
SOLID
  8
0
 62
    15
 10
4.290880
 20
4.155360
 11
4.940320
 21
4.525400
 12
4.276360
 22
4.105640
 13
4.925800
 23
4.475680
  0
POLYLINE
  8
0
  6
CONTINUOUS
 66
     1
 40
0.000000
 41
0.000000
  0
VERTEX
  8
0
  6
CONTINUOUS
 10
4.290880
 20
4.155360
  0
VERTEX
  8
0
  6
CONTINUOUS
 10
4.940320
 20
4.525400
  0
VERTEX
  8
0
  6
CONTINUOUS
 10
4.925800
 20
4.475680
  0
VERTEX
  8
0
  6
CONTINUOUS
 10
4.276360
 20
4.105640
  0
VERTEX
  8
0
  6
CONTINUOUS
 10
4.290880
 20
4.155360
  0
SEQEND
  8
0
  0
SOLID
  8
0
 62
    15
 10
3.928320
 20
2.195600
 11
4.577760
 21
2.565640
 12
3.896640
 22
2.170520
 13
4.545640
 23
2.540560
  0
POLYLINE
  8
0
  6
CONTINUOUS
 66
     1
 40
0.000000
 41
0.000000
  0
VERTEX
  8
0
  6
CONTINUOUS
 10
3.928320
 20
2.195600
  0
VERTEX
  8
0
  6
CONTINUOUS
 10
4.577760
 20
2.565640
  0
VERTEX
  8
0
  6
CONTINUOUS
 10
4.545640
 20
2.540560
  0
VERTEX
  8
0
  6
CONTINUOUS
 10
3.896640
 20
2.170520
  0
VERTEX
  8
0
  6
CONTINUOUS
 10
3.928320
 20
2.195600
  0
SEQEND
  8
0
  0
SOLID
  8
0
 62
    15
 10
3.965720
 20
2.218040
 11
4.614720
 21
2.588080
 12
3.928320
 22
2.195600
 13
4.577760
 23
2.565640
  0
POLYLINE
  8
0
  6
CONTINUOUS
 66
     1
 40
0.000000
 41
0.000000
  0
VERTEX
  8
0
  6
CONTINUOUS
 10
3.965720
 20
2.218040
  0
VERTEX
  8
0
  6
CONTINUOUS
 10
4.614720
 20
2.588080
  0
VERTEX
  8
0
  6
CONTINUOUS
 10
4.577760
 20
2.565640
  0
VERTEX
  8
0
  6
CONTINUOUS
 10
3.928320
 20
2.195600
  0
VERTEX
  8
0
  6
CONTINUOUS
 10
3.965720
 20
2.218040
  0
SEQEND
  8
0
  0
SOLID
  8
0
 62
    15
 10
3.896640
 20
2.170520
 11
4.545640
 21
2.540560
 12
3.869800
 22
2.142360
 13
4.519240
 23
2.512840
  0
POLYLINE
  8
0
  6
CONTINUOUS
 66
     1
 40
0.000000
 41
0.000000
  0
VERTEX
  8
0
  6
CONTINUOUS
 10
3.896640
 20
2.170520
  0
VERTEX
  8
0
  6
CONTINUOUS
 10
4.545640
 20
2.540560
  0
VERTEX
  8
0
  6
CONTINUOUS
 10
4.519240
 20
2.512840
  0
VERTEX
  8
0
  6
CONTINUOUS
 10
3.869800
 20
2.142360
  0
VERTEX
  8
0
  6
CONTINUOUS
 10
3.896640
 20
2.170520
  0
SEQEND
  8
0
  0
SOLID
  8
0
 62
    15
 10
3.869800
 20
2.142360
 11
4.519240
 21
2.512840
 12
3.847800
 22
2.111120
 13
4.496800
 23
2.481160
  0
POLYLINE
  8
0
  6
CONTINUOUS
 66
     1
 40
0.000000
 41
0.000000
  0
VERTEX
  8
0
  6
CONTINUOUS
 10
3.869800
 20
2.142360
  0
VERTEX
  8
0
  6
CONTINUOUS
 10
4.519240
 20
2.512840
  0
VERTEX
  8
0
  6
CONTINUOUS
 10
4.496800
 20
2.481160
  0
VERTEX
  8
0
  6
CONTINUOUS
 10
3.847800
 20
2.111120
  0
VERTEX
  8
0
  6
CONTINUOUS
 10
3.869800
 20
2.142360
  0
SEQEND
  8
0
  0
SOLID
  8
0
 62
    15
 10
4.115760
 20
2.539240
 11
4.765200
 21
2.909280
 12
4.115760
 22
2.276560
 13
4.765200
 23
2.646600
  0
POLYLINE
  8
0
  6
CONTINUOUS
 66
     1
 40
0.000000
 41
0.000000
  0
VERTEX
  8
0
  6
CONTINUOUS
 10
4.115760
 20
2.539240
  0
VERTEX
  8
0
  6
CONTINUOUS
 10
4.765200
 20
2.909280
  0
VERTEX
  8
0
  6
CONTINUOUS
 10
4.765200
 20
2.646600
  0
VERTEX
  8
0
  6
CONTINUOUS
 10
4.115760
 20
2.276560
  0
VERTEX
  8
0
  6
CONTINUOUS
 10
4.115760
 20
2.539240
  0
SEQEND
  8
0
  0
SOLID
  8
0
 62
    15
 10
4.207720
 20
4.053720
 11
4.857160
 21
4.423760
 12
4.207720
 22
2.539240
 13
4.857160
 23
2.909280
  0
POLYLINE
  8
0
  6
CONTINUOUS
 66
     1
 40
0.000000
 41
0.000000
  0
VERTEX
  8
0
  6
CONTINUOUS
 10
4.207720
 20
4.053720
  0
VERTEX
  8
0
  6
CONTINUOUS
 10
4.857160
 20
4.423760
  0
VERTEX
  8
0
  6
CONTINUOUS
 10
4.857160
 20
2.909280
  0
VERTEX
  8
0
  6
CONTINUOUS
 10
4.207720
 20
2.539240
  0
VERTEX
  8
0
  6
CONTINUOUS
 10
4.207720
 20
4.053720
  0
SEQEND
  8
0
  0
SOLID
  8
0
 62
    15
 10
4.276360
 20
4.105640
 11
4.925800
 21
4.475680
 12
4.271520
 22
4.053720
 13
4.920960
 23
4.423760
  0
POLYLINE
  8
0
  6
CONTINUOUS
 66
     1
 40
0.000000
 41
0.000000
  0
VERTEX
  8
0
  6
CONTINUOUS
 10
4.276360
 20
4.105640
  0
VERTEX
  8
0
  6
CONTINUOUS
 10
4.925800
 20
4.475680
  0
VERTEX
  8
0
  6
CONTINUOUS
 10
4.920960
 20
4.423760
  0
VERTEX
  8
0
  6
CONTINUOUS
 10
4.271520
 20
4.053720
  0
VERTEX
  8
0
  6
CONTINUOUS
 10
4.276360
 20
4.105640
  0
SEQEND
  8
0
  0
SOLID
  8
0
 62
    15
 10
3.847800
 20
2.111120
 11
4.496800
 21
2.481160
 12
3.829760
 22
2.075920
 13
4.478760
 23
2.445960
  0
POLYLINE
  8
0
  6
CONTINUOUS
 66
     1
 40
0.000000
 41
0.000000
  0
VERTEX
  8
0
  6
CONTINUOUS
 10
3.847800
 20
2.111120
  0
VERTEX
  8
0
  6
CONTINUOUS
 10
4.496800
 20
2.481160
  0
VERTEX
  8
0
  6
CONTINUOUS
 10
4.478760
 20
2.445960
  0
VERTEX
  8
0
  6
CONTINUOUS
 10
3.829760
 20
2.075920
  0
VERTEX
  8
0
  6
CONTINUOUS
 10
3.847800
 20
2.111120
  0
SEQEND
  8
0
  0
SOLID
  8
0
 62
    15
 10
3.829760
 20
2.075920
 11
4.478760
 21
2.445960
 12
3.815240
 22
2.035880
 13
4.464240
 23
2.406360
  0
POLYLINE
  8
0
  6
CONTINUOUS
 66
     1
 40
0.000000
 41
0.000000
  0
VERTEX
  8
0
  6
CONTINUOUS
 10
3.829760
 20
2.075920
  0
VERTEX
  8
0
  6
CONTINUOUS
 10
4.478760
 20
2.445960
  0
VERTEX
  8
0
  6
CONTINUOUS
 10
4.464240
 20
2.406360
  0
VERTEX
  8
0
  6
CONTINUOUS
 10
3.815240
 20
2.035880
  0
VERTEX
  8
0
  6
CONTINUOUS
 10
3.829760
 20
2.075920
  0
SEQEND
  8
0
  0
SOLID
  8
0
 62
    15
 10
3.815240
 20
2.035880
 11
4.464240
 21
2.406360
 12
3.803800
 22
1.991440
 13
4.452800
 23
2.361480
  0
POLYLINE
  8
0
  6
CONTINUOUS
 66
     1
 40
0.000000
 41
0.000000
  0
VERTEX
  8
0
  6
CONTINUOUS
 10
3.815240
 20
2.035880
  0
VERTEX
  8
0
  6
CONTINUOUS
 10
4.464240
 20
2.406360
  0
VERTEX
  8
0
  6
CONTINUOUS
 10
4.452800
 20
2.361480
  0
VERTEX
  8
0
  6
CONTINUOUS
 10
3.803800
 20
1.991440
  0
VERTEX
  8
0
  6
CONTINUOUS
 10
3.815240
 20
2.035880
  0
SEQEND
  8
0
  0
SOLID
  8
0
 62
    15
 10
3.803800
 20
1.991440
 11
4.452800
 21
2.361480
 12
3.795000
 22
1.940840
 13
4.444000
 23
2.310880
  0
POLYLINE
  8
0
  6
CONTINUOUS
 66
     1
 40
0.000000
 41
0.000000
  0
VERTEX
  8
0
  6
CONTINUOUS
 10
3.803800
 20
1.991440
  0
VERTEX
  8
0
  6
CONTINUOUS
 10
4.452800
 20
2.361480
  0
VERTEX
  8
0
  6
CONTINUOUS
 10
4.444000
 20
2.310880
  0
VERTEX
  8
0
  6
CONTINUOUS
 10
3.795000
 20
1.940840
  0
VERTEX
  8
0
  6
CONTINUOUS
 10
3.803800
 20
1.991440
  0
SEQEND
  8
0
  0
SOLID
  8
0
 62
    15
 10
3.612840
 20
4.548280
 11
4.261840
 21
4.918760
 12
4.510880
 22
4.548280
 13
5.159880
 23
4.918760
  0
POLYLINE
  8
0
  6
CONTINUOUS
 66
     1
 40
0.000000
 41
0.000000
  0
VERTEX
  8
0
  6
CONTINUOUS
 10
3.612840
 20
4.548280
  0
VERTEX
  8
0
  6
CONTINUOUS
 10
4.261840
 20
4.918760
  0
VERTEX
  8
0
  6
CONTINUOUS
 10
5.159880
 20
4.918760
  0
VERTEX
  8
0
  6
CONTINUOUS
 10
4.510880
 20
4.548280
  0
VERTEX
  8
0
  6
CONTINUOUS
 10
3.612840
 20
4.548280
  0
SEQEND
  8
0
  0
SOLID
  8
0
 62
    15
 10
3.788400
 20
1.884520
 11
4.437840
 21
2.254560
 12
3.783120
 22
1.821600
 13
4.432560
 23
2.191640
  0
POLYLINE
  8
0
  6
CONTINUOUS
 66
     1
 40
0.000000
 41
0.000000
  0
VERTEX
  8
0
  6
CONTINUOUS
 10
3.788400
 20
1.884520
  0
VERTEX
  8
0
  6
CONTINUOUS
 10
4.437840
 20
2.254560
  0
VERTEX
  8
0
  6
CONTINUOUS
 10
4.432560
 20
2.191640
  0
VERTEX
  8
0
  6
CONTINUOUS
 10
3.783120
 20
1.821600
  0
VERTEX
  8
0
  6
CONTINUOUS
 10
3.788400
 20
1.884520
  0
SEQEND
  8
0
  0
SOLID
  8
0
 62
    15
 10
3.783120
 20
1.821600
 11
4.432560
 21
2.191640
 12
3.779600
 22
1.751640
 13
4.429040
 23
2.121680
  0
POLYLINE
  8
0
  6
CONTINUOUS
 66
     1
 40
0.000000
 41
0.000000
  0
VERTEX
  8
0
  6
CONTINUOUS
 10
3.783120
 20
1.821600
  0
VERTEX
  8
0
  6
CONTINUOUS
 10
4.432560
 20
2.191640
  0
VERTEX
  8
0
  6
CONTINUOUS
 10
4.429040
 20
2.121680
  0
VERTEX
  8
0
  6
CONTINUOUS
 10
3.779600
 20
1.751640
  0
VERTEX
  8
0
  6
CONTINUOUS
 10
3.783120
 20
1.821600
  0
SEQEND
  8
0
  0
SOLID
  8
0
 62
    15
 10
3.779600
 20
1.751640
 11
4.429040
 21
2.121680
 12
3.776520
 22
1.674200
 13
4.425960
 23
2.044240
  0
POLYLINE
  8
0
  6
CONTINUOUS
 66
     1
 40
0.000000
 41
0.000000
  0
VERTEX
  8
0
  6
CONTINUOUS
 10
3.779600
 20
1.751640
  0
VERTEX
  8
0
  6
CONTINUOUS
 10
4.429040
 20
2.121680
  0
VERTEX
  8
0
  6
CONTINUOUS
 10
4.425960
 20
2.044240
  0
VERTEX
  8
0
  6
CONTINUOUS
 10
3.776520
 20
1.674200
  0
VERTEX
  8
0
  6
CONTINUOUS
 10
3.779600
 20
1.751640
  0
SEQEND
  8
0
  0
SOLID
  8
0
 62
    15
 10
3.776520
 20
1.674200
 11
4.425960
 21
2.044240
 12
3.773440
 22
1.588400
 13
4.422880
 23
1.958440
  0
POLYLINE
  8
0
  6
CONTINUOUS
 66
     1
 40
0.000000
 41
0.000000
  0
VERTEX
  8
0
  6
CONTINUOUS
 10
3.776520
 20
1.674200
  0
VERTEX
  8
0
  6
CONTINUOUS
 10
4.425960
 20
2.044240
  0
VERTEX
  8
0
  6
CONTINUOUS
 10
4.422880
 20
1.958440
  0
VERTEX
  8
0
  6
CONTINUOUS
 10
3.773440
 20
1.588400
  0
VERTEX
  8
0
  6
CONTINUOUS
 10
3.776520
 20
1.674200
  0
SEQEND
  8
0
  0
SOLID
  8
0
 62
    15
 10
3.773440
 20
1.588400
 11
4.422880
 21
1.958440
 12
3.802480
 22
1.586640
 13
4.451920
 23
1.956680
  0
POLYLINE
  8
0
  6
CONTINUOUS
 66
     1
 40
0.000000
 41
0.000000
  0
VERTEX
  8
0
  6
CONTINUOUS
 10
3.773440
 20
1.588400
  0
VERTEX
  8
0
  6
CONTINUOUS
 10
4.422880
 20
1.958440
  0
VERTEX
  8
0
  6
CONTINUOUS
 10
4.451920
 20
1.956680
  0
VERTEX
  8
0
  6
CONTINUOUS
 10
3.802480
 20
1.586640
  0
VERTEX
  8
0
  6
CONTINUOUS
 10
3.773440
 20
1.588400
  0
SEQEND
  8
0
  0
SOLID
  8
0
 62
    15
 10
3.802480
 20
1.586640
 11
4.451920
 21
1.956680
 12
3.827560
 22
1.580480
 13
4.477000
 23
1.950520
  0
POLYLINE
  8
0
  6
CONTINUOUS
 66
     1
 40
0.000000
 41
0.000000
  0
VERTEX
  8
0
  6
CONTINUOUS
 10
3.802480
 20
1.586640
  0
VERTEX
  8
0
  6
CONTINUOUS
 10
4.451920
 20
1.956680
  0
VERTEX
  8
0
  6
CONTINUOUS
 10
4.477000
 20
1.950520
  0
VERTEX
  8
0
  6
CONTINUOUS
 10
3.827560
 20
1.580480
  0
VERTEX
  8
0
  6
CONTINUOUS
 10
3.802480
 20
1.586640
  0
SEQEND
  8
0
  0
SOLID
  8
0
 62
    15
 10
3.827560
 20
1.580480
 11
4.477000
 21
1.950520
 12
3.848680
 22
1.571240
 13
4.498120
 23
1.941280
  0
POLYLINE
  8
0
  6
CONTINUOUS
 66
     1
 40
0.000000
 41
0.000000
  0
VERTEX
  8
0
  6
CONTINUOUS
 10
3.827560
 20
1.580480
  0
VERTEX
  8
0
  6
CONTINUOUS
 10
4.477000
 20
1.950520
  0
VERTEX
  8
0
  6
CONTINUOUS
 10
4.498120
 20
1.941280
  0
VERTEX
  8
0
  6
CONTINUOUS
 10
3.848680
 20
1.571240
  0
VERTEX
  8
0
  6
CONTINUOUS
 10
3.827560
 20
1.580480
  0
SEQEND
  8
0
  0
SOLID
  8
0
 62
    15
 10
3.848680
 20
1.571240
 11
4.498120
 21
1.941280
 12
3.865840
 22
1.559360
 13
4.515280
 23
1.929400
  0
POLYLINE
  8
0
  6
CONTINUOUS
 66
     1
 40
0.000000
 41
0.000000
  0
VERTEX
  8
0
  6
CONTINUOUS
 10
3.848680
 20
1.571240
  0
VERTEX
  8
0
  6
CONTINUOUS
 10
4.498120
 20
1.941280
  0
VERTEX
  8
0
  6
CONTINUOUS
 10
4.515280
 20
1.929400
  0
VERTEX
  8
0
  6
CONTINUOUS
 10
3.865840
 20
1.559360
  0
VERTEX
  8
0
  6
CONTINUOUS
 10
3.848680
 20
1.571240
  0
SEQEND
  8
0
  0
SOLID
  8
0
 62
    15
 10
3.865840
 20
1.559360
 11
4.515280
 21
1.929400
 12
3.879480
 22
1.545280
 13
4.528920
 23
1.915320
  0
POLYLINE
  8
0
  6
CONTINUOUS
 66
     1
 40
0.000000
 41
0.000000
  0
VERTEX
  8
0
  6
CONTINUOUS
 10
3.865840
 20
1.559360
  0
VERTEX
  8
0
  6
CONTINUOUS
 10
4.515280
 20
1.929400
  0
VERTEX
  8
0
  6
CONTINUOUS
 10
4.528920
 20
1.915320
  0
VERTEX
  8
0
  6
CONTINUOUS
 10
3.879480
 20
1.545280
  0
VERTEX
  8
0
  6
CONTINUOUS
 10
3.865840
 20
1.559360
  0
SEQEND
  8
0
  0
SOLID
  8
0
 62
    15
 10
3.879480
 20
1.545280
 11
4.528920
 21
1.915320
 12
3.889160
 22
1.529440
 13
4.538160
 23
1.899480
  0
POLYLINE
  8
0
  6
CONTINUOUS
 66
     1
 40
0.000000
 41
0.000000
  0
VERTEX
  8
0
  6
CONTINUOUS
 10
3.879480
 20
1.545280
  0
VERTEX
  8
0
  6
CONTINUOUS
 10
4.528920
 20
1.915320
  0
VERTEX
  8
0
  6
CONTINUOUS
 10
4.538160
 20
1.899480
  0
VERTEX
  8
0
  6
CONTINUOUS
 10
3.889160
 20
1.529440
  0
VERTEX
  8
0
  6
CONTINUOUS
 10
3.879480
 20
1.545280
  0
SEQEND
  8
0
  0
SOLID
  8
0
 62
    15
 10
3.889160
 20
1.529440
 11
4.538160
 21
1.899480
 12
3.896640
 22
1.494680
 13
4.545640
 23
1.864720
  0
POLYLINE
  8
0
  6
CONTINUOUS
 66
     1
 40
0.000000
 41
0.000000
  0
VERTEX
  8
0
  6
CONTINUOUS
 10
3.889160
 20
1.529440
  0
VERTEX
  8
0
  6
CONTINUOUS
 10
4.538160
 20
1.899480
  0
VERTEX
  8
0
  6
CONTINUOUS
 10
4.545640
 20
1.864720
  0
VERTEX
  8
0
  6
CONTINUOUS
 10
3.896640
 20
1.494680
  0
VERTEX
  8
0
  6
CONTINUOUS
 10
3.889160
 20
1.529440
  0
SEQEND
  8
0
  0
SOLID
  8
0
 62
    15
 10
3.769920
 20
1.399200
 11
4.419360
 21
1.769240
 12
3.769920
 22
1.220560
 13
4.419360
 23
1.591040
  0
POLYLINE
  8
0
  6
CONTINUOUS
 66
     1
 40
0.000000
 41
0.000000
  0
VERTEX
  8
0
  6
CONTINUOUS
 10
3.769920
 20
1.399200
  0
VERTEX
  8
0
  6
CONTINUOUS
 10
4.419360
 20
1.769240
  0
VERTEX
  8
0
  6
CONTINUOUS
 10
4.419360
 20
1.591040
  0
VERTEX
  8
0
  6
CONTINUOUS
 10
3.769920
 20
1.220560
  0
VERTEX
  8
0
  6
CONTINUOUS
 10
3.769920
 20
1.399200
  0
SEQEND
  8
0
  0
SOLID
  8
0
 62
    15
 10
3.888280
 20
1.459920
 11
4.537720
 21
1.829960
 12
3.878160
 22
1.444080
 13
4.527600
 23
1.814120
  0
POLYLINE
  8
0
  6
CONTINUOUS
 66
     1
 40
0.000000
 41
0.000000
  0
VERTEX
  8
0
  6
CONTINUOUS
 10
3.888280
 20
1.459920
  0
VERTEX
  8
0
  6
CONTINUOUS
 10
4.537720
 20
1.829960
  0
VERTEX
  8
0
  6
CONTINUOUS
 10
4.527600
 20
1.814120
  0
VERTEX
  8
0
  6
CONTINUOUS
 10
3.878160
 20
1.444080
  0
VERTEX
  8
0
  6
CONTINUOUS
 10
3.888280
 20
1.459920
  0
SEQEND
  8
0
  0
SOLID
  8
0
 62
    15
 10
3.864520
 20
1.429560
 11
4.513960
 21
1.799600
 12
3.846920
 22
1.417680
 13
4.496360
 23
1.787720
  0
POLYLINE
  8
0
  6
CONTINUOUS
 66
     1
 40
0.000000
 41
0.000000
  0
VERTEX
  8
0
  6
CONTINUOUS
 10
3.864520
 20
1.429560
  0
VERTEX
  8
0
  6
CONTINUOUS
 10
4.513960
 20
1.799600
  0
VERTEX
  8
0
  6
CONTINUOUS
 10
4.496360
 20
1.787720
  0
VERTEX
  8
0
  6
CONTINUOUS
 10
3.846920
 20
1.417680
  0
VERTEX
  8
0
  6
CONTINUOUS
 10
3.864520
 20
1.429560
  0
SEQEND
  8
0
  0
SOLID
  8
0
 62
    15
 10
3.878160
 20
1.444080
 11
4.527600
 21
1.814120
 12
3.864520
 22
1.429560
 13
4.513960
 23
1.799600
  0
POLYLINE
  8
0
  6
CONTINUOUS
 66
     1
 40
0.000000
 41
0.000000
  0
VERTEX
  8
0
  6
CONTINUOUS
 10
3.878160
 20
1.444080
  0
VERTEX
  8
0
  6
CONTINUOUS
 10
4.527600
 20
1.814120
  0
VERTEX
  8
0
  6
CONTINUOUS
 10
4.513960
 20
1.799600
  0
VERTEX
  8
0
  6
CONTINUOUS
 10
3.864520
 20
1.429560
  0
VERTEX
  8
0
  6
CONTINUOUS
 10
3.878160
 20
1.444080
  0
SEQEND
  8
0
  0
SOLID
  8
0
 62
    15
 10
3.896640
 20
1.494680
 11
4.545640
 21
1.864720
 12
3.888280
 22
1.459920
 13
4.537720
 23
1.829960
  0
POLYLINE
  8
0
  6
CONTINUOUS
 66
     1
 40
0.000000
 41
0.000000
  0
VERTEX
  8
0
  6
CONTINUOUS
 10
3.896640
 20
1.494680
  0
VERTEX
  8
0
  6
CONTINUOUS
 10
4.545640
 20
1.864720
  0
VERTEX
  8
0
  6
CONTINUOUS
 10
4.537720
 20
1.829960
  0
VERTEX
  8
0
  6
CONTINUOUS
 10
3.888280
 20
1.459920
  0
VERTEX
  8
0
  6
CONTINUOUS
 10
3.896640
 20
1.494680
  0
SEQEND
  8
0
  0
SOLID
  8
0
 62
    15
 10
4.511320
 20
4.549160
 11
5.160760
 21
4.919200
 12
4.511320
 22
4.325200
 13
5.160760
 23
4.695680
  0
POLYLINE
  8
0
  6
CONTINUOUS
 66
     1
 40
0.000000
 41
0.000000
  0
VERTEX
  8
0
  6
CONTINUOUS
 10
4.511320
 20
4.549160
  0
VERTEX
  8
0
  6
CONTINUOUS
 10
5.160760
 20
4.919200
  0
VERTEX
  8
0
  6
CONTINUOUS
 10
5.160760
 20
4.695680
  0
VERTEX
  8
0
  6
CONTINUOUS
 10
4.511320
 20
4.325200
  0
VERTEX
  8
0
  6
CONTINUOUS
 10
4.511320
 20
4.549160
  0
SEQEND
  8
0
  0
POLYLINE
  8
0
  6
CONTINUOUS
 66
     1
 40
0.000000
 41
0.000000
  0
VERTEX
  8
0
  6
CONTINUOUS
 10
4.511320
 20
4.549160
  0
VERTEX
  8
0
  6
CONTINUOUS
 10
4.511320
 20
4.325200
  0
VERTEX
  8
0
  6
CONTINUOUS
 10
4.464240
 20
4.319480
  0
VERTEX
  8
0
  6
CONTINUOUS
 10
4.419800
 20
4.302760
  0
VERTEX
  8
0
  6
CONTINUOUS
 10
4.379320
 20
4.276360
  0
VERTEX
  8
0
  6
CONTINUOUS
 10
4.343680
 20
4.242040
  0
VERTEX
  8
0
  6
CONTINUOUS
 10
4.313760
 20
4.201120
  0
VERTEX
  8
0
  6
CONTINUOUS
 10
4.290880
 20
4.155360
  0
VERTEX
  8
0
  6
CONTINUOUS
 10
4.276360
 20
4.105640
  0
VERTEX
  8
0
  6
CONTINUOUS
 10
4.271520
 20
4.053720
  0
VERTEX
  8
0
  6
CONTINUOUS
 10
4.207720
 20
4.053720
  0
VERTEX
  8
0
  6
CONTINUOUS
 10
4.207720
 20
2.539240
  0
VERTEX
  8
0
  6
CONTINUOUS
 10
4.115760
 20
2.539240
  0
VERTEX
  8
0
  6
CONTINUOUS
 10
4.115760
 20
2.276560
  0
VERTEX
  8
0
  6
CONTINUOUS
 10
4.059000
 20
2.258080
  0
VERTEX
  8
0
  6
CONTINUOUS
 10
4.008840
 20
2.238720
  0
VERTEX
  8
0
  6
CONTINUOUS
 10
3.965720
 20
2.218040
  0
VERTEX
  8
0
  6
CONTINUOUS
 10
3.928320
 20
2.195600
  0
VERTEX
  8
0
  6
CONTINUOUS
 10
3.896640
 20
2.170520
  0
VERTEX
  8
0
  6
CONTINUOUS
 10
3.869800
 20
2.142360
  0
VERTEX
  8
0
  6
CONTINUOUS
 10
3.847800
 20
2.111120
  0
VERTEX
  8
0
  6
CONTINUOUS
 10
3.829760
 20
2.075920
  0
VERTEX
  8
0
  6
CONTINUOUS
 10
3.815240
 20
2.035880
  0
VERTEX
  8
0
  6
CONTINUOUS
 10
3.803800
 20
1.991440
  0
VERTEX
  8
0
  6
CONTINUOUS
 10
3.795000
 20
1.940840
  0
VERTEX
  8
0
  6
CONTINUOUS
 10
3.788400
 20
1.884520
  0
VERTEX
  8
0
  6
CONTINUOUS
 10
3.783120
 20
1.821600
  0
VERTEX
  8
0
  6
CONTINUOUS
 10
3.779600
 20
1.751640
  0
VERTEX
  8
0
  6
CONTINUOUS
 10
3.776520
 20
1.674200
  0
VERTEX
  8
0
  6
CONTINUOUS
 10
3.773440
 20
1.588400
  0
VERTEX
  8
0
  6
CONTINUOUS
 10
3.802480
 20
1.586640
  0
VERTEX
  8
0
  6
CONTINUOUS
 10
3.827560
 20
1.580480
  0
VERTEX
  8
0
  6
CONTINUOUS
 10
3.848680
 20
1.571240
  0
VERTEX
  8
0
  6
CONTINUOUS
 10
3.865840
 20
1.559360
  0
VERTEX
  8
0
  6
CONTINUOUS
 10
3.879480
 20
1.545280
  0
VERTEX
  8
0
  6
CONTINUOUS
 10
3.889160
 20
1.529440
  0
VERTEX
  8
0
  6
CONTINUOUS
 10
3.896640
 20
1.494680
  0
VERTEX
  8
0
  6
CONTINUOUS
 10
3.888280
 20
1.459920
  0
VERTEX
  8
0
  6
CONTINUOUS
 10
3.878160
 20
1.444080
  0
VERTEX
  8
0
  6
CONTINUOUS
 10
3.864520
 20
1.429560
  0
VERTEX
  8
0
  6
CONTINUOUS
 10
3.846920
 20
1.417680
  0
VERTEX
  8
0
  6
CONTINUOUS
 10
3.825360
 20
1.408000
  0
VERTEX
  8
0
  6
CONTINUOUS
 10
3.799400
 20
1.401840
  0
VERTEX
  8
0
  6
CONTINUOUS
 10
3.769920
 20
1.399200
  0
VERTEX
  8
0
  6
CONTINUOUS
 10
3.769920
 20
1.220560
  0
VERTEX
  8
0
  6
CONTINUOUS
 10
3.612840
 20
1.220560
  0
VERTEX
  8
0
  6
CONTINUOUS
 10
3.612840
 20
4.548280
  0
VERTEX
  8
0
  6
CONTINUOUS
 10
4.510880
 20
4.548280
  0
VERTEX
  8
0
  6
CONTINUOUS
 10
4.511320
 20
4.549160
  0
SEQEND
  8
0
  0
TEXT
  8
0
 10
4.046240
 20
0.939840
 40
0.138084
  1
BA  1101
 41
1.000000
  7
SN0
 71
     0
 72
     5
 11
4.729053
 21
0.939840
  0
TEXT
  8
0
 10
3.890040
 20
0.748440
 40
0.138084
  1
7/8" x 3-5/16"
 41
1.000000
  7
SN0
 71
     0
 72
     5
 11
4.884055
 21
0.748440
  0
POLYLINE
  8
0
  6
CONTINUOUS
 66
     1
 40
0.014080
 41
0.014080
  0
VERTEX
  8
0
  6
CONTINUOUS
 10
2.832720
 20
5.928120
  0
VERTEX
  8
0
  6
CONTINUOUS
 10
3.056240
 20
5.928120
  0
VERTEX
  8
0
  6
CONTINUOUS
 10
3.057560
 20
5.904360
  0
VERTEX
  8
0
  6
CONTINUOUS
 10
3.065480
 20
5.869600
  0
VERTEX
  8
0
  6
CONTINUOUS
 10
3.079120
 20
5.836600
  0
VERTEX
  8
0
  6
CONTINUOUS
 10
3.091000
 20
5.815920
  0
VERTEX
  8
0
  6
CONTINUOUS
 10
3.105520
 20
5.796120
  0
VERTEX
  8
0
  6
CONTINUOUS
 10
3.121800
 20
5.777200
  0
VERTEX
  8
0
  6
CONTINUOUS
 10
3.139840
 20
5.760040
  0
VERTEX
  8
0
  6
CONTINUOUS
 10
3.180760
 20
5.730560
  0
VERTEX
  8
0
  6
CONTINUOUS
 10
3.203200
 20
5.718240
  0
VERTEX
  8
0
  6
CONTINUOUS
 10
3.226520
 20
5.707680
  0
VERTEX
  8
0
  6
CONTINUOUS
 10
3.251160
 20
5.699320
  0
VERTEX
  8
0
  6
CONTINUOUS
 10
3.276240
 20
5.693160
  0
VERTEX
  8
0
  6
CONTINUOUS
 10
3.314960
 20
5.688760
  0
VERTEX
  8
0
  6
CONTINUOUS
 10
3.328160
 20
5.688320
  0
VERTEX
  8
0
  6
CONTINUOUS
 10
3.328160
 20
5.624520
  0
VERTEX
  8
0
  6
CONTINUOUS
 10
4.842640
 20
5.624520
  0
VERTEX
  8
0
  6
CONTINUOUS
 10
4.842640
 20
5.532560
  0
VERTEX
  8
0
  6
CONTINUOUS
 10
5.105320
 20
5.532560
  0
VERTEX
  8
0
  6
CONTINUOUS
 10
5.133040
 20
5.449840
  0
VERTEX
  8
0
  6
CONTINUOUS
 10
5.163840
 20
5.382520
  0
VERTEX
  8
0
  6
CONTINUOUS
 10
5.186280
 20
5.345120
  0
VERTEX
  8
0
  6
CONTINUOUS
 10
5.211360
 20
5.313440
  0
VERTEX
  8
0
  6
CONTINUOUS
 10
5.239080
 20
5.286600
  0
VERTEX
  8
0
  6
CONTINUOUS
 10
5.270320
 20
5.264600
  0
VERTEX
  8
0
  6
CONTINUOUS
 10
5.305960
 20
5.246560
  0
VERTEX
  8
0
  6
CONTINUOUS
 10
5.345560
 20
5.232040
  0
VERTEX
  8
0
  6
CONTINUOUS
 10
5.390440
 20
5.220600
  0
VERTEX
  8
0
  6
CONTINUOUS
 10
5.440600
 20
5.211800
  0
VERTEX
  8
0
  6
CONTINUOUS
 10
5.527720
 20
5.202560
  0
VERTEX
  8
0
  6
CONTINUOUS
 10
5.594160
 20
5.198160
  0
VERTEX
  8
0
  6
CONTINUOUS
 10
5.793040
 20
5.190240
  0
VERTEX
  8
0
  6
CONTINUOUS
 10
5.795240
 20
5.219280
  0
VERTEX
  8
0
  6
CONTINUOUS
 10
5.800960
 20
5.244360
  0
VERTEX
  8
0
  6
CONTINUOUS
 10
5.810200
 20
5.265480
  0
VERTEX
  8
0
  6
CONTINUOUS
 10
5.822520
 20
5.282640
  0
VERTEX
  8
0
  6
CONTINUOUS
 10
5.836600
 20
5.296280
  0
VERTEX
  8
0
  6
CONTINUOUS
 10
5.852440
 20
5.305960
  0
VERTEX
  8
0
  6
CONTINUOUS
 10
5.877960
 20
5.313000
  0
VERTEX
  8
0
  6
CONTINUOUS
 10
5.896000
 20
5.312560
  0
VERTEX
  8
0
  6
CONTINUOUS
 10
5.913160
 20
5.308600
  0
VERTEX
  8
0
  6
CONTINUOUS
 10
5.929880
 20
5.300680
  0
VERTEX
  8
0
  6
CONTINUOUS
 10
5.944840
 20
5.288800
  0
VERTEX
  8
0
  6
CONTINUOUS
 10
5.958480
 20
5.272960
  0
VERTEX
  8
0
  6
CONTINUOUS
 10
5.969040
 20
5.253160
  0
VERTEX
  8
0
  6
CONTINUOUS
 10
5.976960
 20
5.229400
  0
VERTEX
  8
0
  6
CONTINUOUS
 10
5.980040
 20
5.216200
  0
VERTEX
  8
0
  6
CONTINUOUS
 10
5.982240
 20
5.186720
  0
VERTEX
  8
0
  6
CONTINUOUS
 10
6.160880
 20
5.186720
  0
VERTEX
  8
0
  6
CONTINUOUS
 10
6.160880
 20
5.029640
  0
VERTEX
  8
0
  6
CONTINUOUS
 10
2.833160
 20
5.029640
  0
VERTEX
  8
0
  6
CONTINUOUS
 10
2.832720
 20
5.928120
  0
SEQEND
  8
0
  0
TEXT
  8
0
 10
3.665200
 20
5.384720
 40
0.138084
  1
BA  1101
 41
1.000000
  7
SN0
 71
     0
 72
     5
 11
4.348013
 21
5.384720
  0
TEXT
  8
0
 10
3.509440
 20
5.192880
 40
0.138084
  1
7/8" x 3-5/16"
 41
1.000000
  7
SN0
 71
     0
 72
     5
 11
4.503455
 21
5.192880
  0
ENDSEC
  0
EOF
