  0
SECTION
  2
HEADER
  9
$ACADVER
  1
AC1006
  9
$EXTMIN
 10
0.557920
 20
0.397320
  9
$EXTMAX
 10
7.317200
 20
5.134360
  9
$LTSCALE
 40
0.044000
  9
$PDMODE
 70
    35
  9
$PDSIZE
 40
0.035200
  0
ENDSEC
  0
SECTION
  2
TABLES
  0
TABLE
  2
LTYPE
 70
     9
  0
LTYPE
  2
CONTINUOUS
 70
    64
  3
Solid line
 72
    65
 73
     0
 40
0.000000
  0
LTYPE
  2
DASHED
 70
    64
  3
__ __ __ __ __ __ __ __ __ __ __ __ __ __ __
 72
    65
 73
     2
 40
0.000330
 49
0.000220
 49
-0.000110
  0
LTYPE
  2
HIDDEN
 70
    64
  3
 _ _ _ _ _ _ _ _ _ _ _ _ _ _ _ _ _ _ _ _ _ _
 72
    65
 73
     2
 40
0.000165
 49
0.000110
 49
-0.000055
  0
LTYPE
  2
CENTER
 70
    64
  3
____ _ ____ _ ____ _ ____ _ ____ _ ____ _ ____
 72
    65
 73
     4
 40
0.000880
 49
0.000550
 49
-0.000110
 49
0.000110
 49
-0.000110
  0
LTYPE
  2
PHANTOM
 70
    64
  3
_____ _ _ _____ _ _ _____ _ _ _____ _ _ ____
 72
    65
 73
     6
 40
0.001100
 49
0.000550
 49
-0.000110
 49
0.000110
 49
-0.000110
 49
0.000110
 49
-0.000110
  0
LTYPE
  2
DOT
 70
    64
  3
...............................................
 72
    65
 73
     2
 40
0.000110
 49
0.000000
 49
-0.000110
  0
LTYPE
  2
DASHDOT
 70
    64
  3
__ . __ . __ . __ . __ . __ . __ . __ . __ . __
 72
    65
 73
     4
 40
0.000440
 49
0.000220
 49
-0.000110
 49
0.000000
 49
-0.000110
  0
LTYPE
  2
BORDER
 70
    64
  3
__ __ . __ __ . __ __ . __ __ . __ __ . __ __
 72
    65
 73
     6
 40
0.000770
 49
0.000220
 49
-0.000110
 49
0.000220
 49
-0.000110
 49
0.000000
 49
-0.000110
  0
LTYPE
  2
DIVIDE
 70
    64
  3
__ . . __ . . __ . . __ . . __ . . __ . . __
 72
    65
 73
     6
 40
0.000550
 49
0.000220
 49
-0.000110
 49
0.000000
 49
-0.000110
 49
0.000000
 49
-0.000110
  0
LTYPE
  2
DOTDOT
 70
    64
  3
 . .  . .  . .  . .  . .  . . 
 72
    65
 73
     5
 40
0.000242
 49
-0.000110
 49
0.000000
 49
-0.000110
 49
0.000000
 49
-0.000110
  0
ENDTAB
  0
TABLE
  2
STYLE
 70
     2
  0
STYLE
 70
     0
  2
SN0
 40
0.000000
 41
0.000440
 50
0.000000
 71
     0
 42
0.000000
  3
ROMAND
  0
STYLE
 70
    68
  2
SV0
 40
0.000000
 41
0.000440
 50
0.000000
 71
     0
 42
0.000000
  3
ROMAND
  0
ENDTAB
  0
TABLE
  2
LAYER
 70
     3
  0
LAYER
  2
FOREGROUND
 70
    64
 62
     7
  6
CONTINUOUS
  0
LAYER
  2
BACKGROUND
 70
    65
 62
    -7
  6
CONTINUOUS
  0
LAYER
  2
0
 70
    64
 62
     7
  6
CONTINUOUS
  0
ENDTAB
  0
ENDSEC
  0
SECTION
  2
ENTITIES
  0
POLYLINE
  8
FOREGROUND
  6
CONTINUOUS
 66
     1
 40
0.000000
 41
0.000000
  0
VERTEX
  8
FOREGROUND
  6
CONTINUOUS
 10
0.000000
 20
5.531680
  0
VERTEX
  8
FOREGROUND
  6
CONTINUOUS
 10
8.499920
 20
5.531680
  0
VERTEX
  8
FOREGROUND
  6
CONTINUOUS
 10
8.499920
 20
-5.468320
  0
VERTEX
  8
FOREGROUND
  6
CONTINUOUS
 10
0.000000
 20
-5.468320
  0
VERTEX
  8
FOREGROUND
  6
CONTINUOUS
 10
0.000000
 20
5.531680
  0
SEQEND
  8
0
  0
POLYLINE
  8
FOREGROUND
  6
CONTINUOUS
 66
     1
 40
0.000000
 41
0.000000
  0
VERTEX
  8
FOREGROUND
  6
CONTINUOUS
 10
0.000000
 20
5.531680
  0
VERTEX
  8
FOREGROUND
  6
CONTINUOUS
 10
8.499920
 20
5.531680
  0
VERTEX
  8
FOREGROUND
  6
CONTINUOUS
 10
8.499920
 20
-5.468320
  0
VERTEX
  8
FOREGROUND
  6
CONTINUOUS
 10
0.000000
 20
-5.468320
  0
VERTEX
  8
FOREGROUND
  6
CONTINUOUS
 10
0.000000
 20
5.531680
  0
SEQEND
  8
0
  0
SOLID
  8
0
 62
    15
 10
0.814440
 20
4.648600
 11
1.461680
 21
5.021280
 12
0.826320
 22
4.607240
 13
1.473560
 23
4.979920
  0
POLYLINE
  8
0
  6
CONTINUOUS
 66
     1
 40
0.000000
 41
0.000000
  0
VERTEX
  8
0
  6
CONTINUOUS
 10
0.814440
 20
4.648600
  0
VERTEX
  8
0
  6
CONTINUOUS
 10
1.461680
 20
5.021280
  0
VERTEX
  8
0
  6
CONTINUOUS
 10
1.473560
 20
4.979920
  0
VERTEX
  8
0
  6
CONTINUOUS
 10
0.826320
 20
4.607240
  0
VERTEX
  8
0
  6
CONTINUOUS
 10
0.814440
 20
4.648600
  0
SEQEND
  8
0
  0
SOLID
  8
0
 62
    15
 10
2.398440
 20
4.336640
 11
3.045680
 21
4.709320
 12
2.702480
 22
4.351600
 13
3.349720
 23
4.724280
  0
POLYLINE
  8
0
  6
CONTINUOUS
 66
     1
 40
0.000000
 41
0.000000
  0
VERTEX
  8
0
  6
CONTINUOUS
 10
2.398440
 20
4.336640
  0
VERTEX
  8
0
  6
CONTINUOUS
 10
3.045680
 20
4.709320
  0
VERTEX
  8
0
  6
CONTINUOUS
 10
3.349720
 20
4.724280
  0
VERTEX
  8
0
  6
CONTINUOUS
 10
2.702480
 20
4.351600
  0
VERTEX
  8
0
  6
CONTINUOUS
 10
2.398440
 20
4.336640
  0
SEQEND
  8
0
  0
SOLID
  8
0
 62
    15
 10
2.774640
 20
4.403080
 11
3.421440
 21
4.775760
 12
2.792240
 22
4.391200
 13
3.439040
 23
4.763880
  0
POLYLINE
  8
0
  6
CONTINUOUS
 66
     1
 40
0.000000
 41
0.000000
  0
VERTEX
  8
0
  6
CONTINUOUS
 10
2.774640
 20
4.403080
  0
VERTEX
  8
0
  6
CONTINUOUS
 10
3.421440
 20
4.775760
  0
VERTEX
  8
0
  6
CONTINUOUS
 10
3.439040
 20
4.763880
  0
VERTEX
  8
0
  6
CONTINUOUS
 10
2.792240
 20
4.391200
  0
VERTEX
  8
0
  6
CONTINUOUS
 10
2.774640
 20
4.403080
  0
SEQEND
  8
0
  0
SOLID
  8
0
 62
    15
 10
2.792240
 20
4.391200
 11
3.439040
 21
4.763880
 12
2.804120
 22
4.373600
 13
3.450920
 23
4.746280
  0
POLYLINE
  8
0
  6
CONTINUOUS
 66
     1
 40
0.000000
 41
0.000000
  0
VERTEX
  8
0
  6
CONTINUOUS
 10
2.792240
 20
4.391200
  0
VERTEX
  8
0
  6
CONTINUOUS
 10
3.439040
 20
4.763880
  0
VERTEX
  8
0
  6
CONTINUOUS
 10
3.450920
 20
4.746280
  0
VERTEX
  8
0
  6
CONTINUOUS
 10
2.804120
 20
4.373600
  0
VERTEX
  8
0
  6
CONTINUOUS
 10
2.792240
 20
4.391200
  0
SEQEND
  8
0
  0
SOLID
  8
0
 62
    15
 10
2.804120
 20
4.373600
 11
3.450920
 21
4.746280
 12
2.808520
 22
4.352040
 13
3.455320
 23
4.724720
  0
POLYLINE
  8
0
  6
CONTINUOUS
 66
     1
 40
0.000000
 41
0.000000
  0
VERTEX
  8
0
  6
CONTINUOUS
 10
2.804120
 20
4.373600
  0
VERTEX
  8
0
  6
CONTINUOUS
 10
3.450920
 20
4.746280
  0
VERTEX
  8
0
  6
CONTINUOUS
 10
3.455320
 20
4.724720
  0
VERTEX
  8
0
  6
CONTINUOUS
 10
2.808520
 20
4.352040
  0
VERTEX
  8
0
  6
CONTINUOUS
 10
2.804120
 20
4.373600
  0
SEQEND
  8
0
  0
SOLID
  8
0
 62
    15
 10
3.087480
 20
4.242480
 11
3.734720
 21
4.615160
 12
3.087480
 22
3.598760
 13
3.734720
 23
3.971440
  0
POLYLINE
  8
0
  6
CONTINUOUS
 66
     1
 40
0.000000
 41
0.000000
  0
VERTEX
  8
0
  6
CONTINUOUS
 10
3.087480
 20
4.242480
  0
VERTEX
  8
0
  6
CONTINUOUS
 10
3.734720
 20
4.615160
  0
VERTEX
  8
0
  6
CONTINUOUS
 10
3.734720
 20
3.971440
  0
VERTEX
  8
0
  6
CONTINUOUS
 10
3.087480
 20
3.598760
  0
VERTEX
  8
0
  6
CONTINUOUS
 10
3.087480
 20
4.242480
  0
SEQEND
  8
0
  0
SOLID
  8
0
 62
    15
 10
3.330800
 20
4.352040
 11
3.978040
 21
4.724720
 12
3.333000
 22
4.242480
 13
3.980240
 23
4.615160
  0
POLYLINE
  8
0
  6
CONTINUOUS
 66
     1
 40
0.000000
 41
0.000000
  0
VERTEX
  8
0
  6
CONTINUOUS
 10
3.330800
 20
4.352040
  0
VERTEX
  8
0
  6
CONTINUOUS
 10
3.978040
 20
4.724720
  0
VERTEX
  8
0
  6
CONTINUOUS
 10
3.980240
 20
4.615160
  0
VERTEX
  8
0
  6
CONTINUOUS
 10
3.333000
 20
4.242480
  0
VERTEX
  8
0
  6
CONTINUOUS
 10
3.330800
 20
4.352040
  0
SEQEND
  8
0
  0
SOLID
  8
0
 62
    15
 10
2.808520
 20
4.352040
 11
3.455320
 21
4.724720
 12
3.330800
 22
4.352040
 13
3.978040
 23
4.724720
  0
POLYLINE
  8
0
  6
CONTINUOUS
 66
     1
 40
0.000000
 41
0.000000
  0
VERTEX
  8
0
  6
CONTINUOUS
 10
2.808520
 20
4.352040
  0
VERTEX
  8
0
  6
CONTINUOUS
 10
3.455320
 20
4.724720
  0
VERTEX
  8
0
  6
CONTINUOUS
 10
3.978040
 20
4.724720
  0
VERTEX
  8
0
  6
CONTINUOUS
 10
3.330800
 20
4.352040
  0
VERTEX
  8
0
  6
CONTINUOUS
 10
2.808520
 20
4.352040
  0
SEQEND
  8
0
  0
SOLID
  8
0
 62
    15
 10
0.607640
 20
4.750240
 11
1.254880
 21
5.122920
 12
0.630520
 22
4.759920
 13
1.277760
 23
5.132600
  0
POLYLINE
  8
0
  6
CONTINUOUS
 66
     1
 40
0.000000
 41
0.000000
  0
VERTEX
  8
0
  6
CONTINUOUS
 10
0.607640
 20
4.750240
  0
VERTEX
  8
0
  6
CONTINUOUS
 10
1.254880
 20
5.122920
  0
VERTEX
  8
0
  6
CONTINUOUS
 10
1.277760
 20
5.132600
  0
VERTEX
  8
0
  6
CONTINUOUS
 10
0.630520
 20
4.759920
  0
VERTEX
  8
0
  6
CONTINUOUS
 10
0.607640
 20
4.750240
  0
SEQEND
  8
0
  0
SOLID
  8
0
 62
    15
 10
0.630520
 20
4.759920
 11
1.277760
 21
5.132600
 12
0.652080
 22
4.761240
 13
1.299320
 23
5.133920
  0
POLYLINE
  8
0
  6
CONTINUOUS
 66
     1
 40
0.000000
 41
0.000000
  0
VERTEX
  8
0
  6
CONTINUOUS
 10
0.630520
 20
4.759920
  0
VERTEX
  8
0
  6
CONTINUOUS
 10
1.277760
 20
5.132600
  0
VERTEX
  8
0
  6
CONTINUOUS
 10
1.299320
 20
5.133920
  0
VERTEX
  8
0
  6
CONTINUOUS
 10
0.652080
 20
4.761240
  0
VERTEX
  8
0
  6
CONTINUOUS
 10
0.630520
 20
4.759920
  0
SEQEND
  8
0
  0
SOLID
  8
0
 62
    15
 10
0.652080
 20
4.761240
 11
1.299320
 21
5.133920
 12
0.671880
 22
4.754200
 13
1.318680
 23
5.126880
  0
POLYLINE
  8
0
  6
CONTINUOUS
 66
     1
 40
0.000000
 41
0.000000
  0
VERTEX
  8
0
  6
CONTINUOUS
 10
0.652080
 20
4.761240
  0
VERTEX
  8
0
  6
CONTINUOUS
 10
1.299320
 20
5.133920
  0
VERTEX
  8
0
  6
CONTINUOUS
 10
1.318680
 20
5.126880
  0
VERTEX
  8
0
  6
CONTINUOUS
 10
0.671880
 20
4.754200
  0
VERTEX
  8
0
  6
CONTINUOUS
 10
0.652080
 20
4.761240
  0
SEQEND
  8
0
  0
SOLID
  8
0
 62
    15
 10
0.671880
 20
4.754200
 11
1.318680
 21
5.126880
 12
0.688600
 22
4.740560
 13
1.335400
 23
5.113240
  0
POLYLINE
  8
0
  6
CONTINUOUS
 66
     1
 40
0.000000
 41
0.000000
  0
VERTEX
  8
0
  6
CONTINUOUS
 10
0.671880
 20
4.754200
  0
VERTEX
  8
0
  6
CONTINUOUS
 10
1.318680
 20
5.126880
  0
VERTEX
  8
0
  6
CONTINUOUS
 10
1.335400
 20
5.113240
  0
VERTEX
  8
0
  6
CONTINUOUS
 10
0.688600
 20
4.740560
  0
VERTEX
  8
0
  6
CONTINUOUS
 10
0.671880
 20
4.754200
  0
SEQEND
  8
0
  0
SOLID
  8
0
 62
    15
 10
0.688600
 20
4.740560
 11
1.335400
 21
5.113240
 12
0.701360
 22
4.720320
 13
1.348600
 23
5.093000
  0
POLYLINE
  8
0
  6
CONTINUOUS
 66
     1
 40
0.000000
 41
0.000000
  0
VERTEX
  8
0
  6
CONTINUOUS
 10
0.688600
 20
4.740560
  0
VERTEX
  8
0
  6
CONTINUOUS
 10
1.335400
 20
5.113240
  0
VERTEX
  8
0
  6
CONTINUOUS
 10
1.348600
 20
5.093000
  0
VERTEX
  8
0
  6
CONTINUOUS
 10
0.701360
 20
4.720320
  0
VERTEX
  8
0
  6
CONTINUOUS
 10
0.688600
 20
4.740560
  0
SEQEND
  8
0
  0
SOLID
  8
0
 62
    15
 10
0.701360
 20
4.720320
 11
1.348600
 21
5.093000
 12
0.709720
 22
4.694800
 13
1.356960
 23
5.067480
  0
POLYLINE
  8
0
  6
CONTINUOUS
 66
     1
 40
0.000000
 41
0.000000
  0
VERTEX
  8
0
  6
CONTINUOUS
 10
0.701360
 20
4.720320
  0
VERTEX
  8
0
  6
CONTINUOUS
 10
1.348600
 20
5.093000
  0
VERTEX
  8
0
  6
CONTINUOUS
 10
1.356960
 20
5.067480
  0
VERTEX
  8
0
  6
CONTINUOUS
 10
0.709720
 20
4.694800
  0
VERTEX
  8
0
  6
CONTINUOUS
 10
0.701360
 20
4.720320
  0
SEQEND
  8
0
  0
SOLID
  8
0
 62
    15
 10
0.709720
 20
4.694800
 11
1.356960
 21
5.067480
 12
0.712800
 22
4.664440
 13
1.360040
 23
5.037120
  0
POLYLINE
  8
0
  6
CONTINUOUS
 66
     1
 40
0.000000
 41
0.000000
  0
VERTEX
  8
0
  6
CONTINUOUS
 10
0.709720
 20
4.694800
  0
VERTEX
  8
0
  6
CONTINUOUS
 10
1.356960
 20
5.067480
  0
VERTEX
  8
0
  6
CONTINUOUS
 10
1.360040
 20
5.037120
  0
VERTEX
  8
0
  6
CONTINUOUS
 10
0.712800
 20
4.664440
  0
VERTEX
  8
0
  6
CONTINUOUS
 10
0.709720
 20
4.694800
  0
SEQEND
  8
0
  0
SOLID
  8
0
 62
    15
 10
0.712800
 20
4.664440
 11
1.360040
 21
5.037120
 12
0.814440
 22
4.648600
 13
1.461680
 23
5.021280
  0
POLYLINE
  8
0
  6
CONTINUOUS
 66
     1
 40
0.000000
 41
0.000000
  0
VERTEX
  8
0
  6
CONTINUOUS
 10
0.712800
 20
4.664440
  0
VERTEX
  8
0
  6
CONTINUOUS
 10
1.360040
 20
5.037120
  0
VERTEX
  8
0
  6
CONTINUOUS
 10
1.461680
 20
5.021280
  0
VERTEX
  8
0
  6
CONTINUOUS
 10
0.814440
 20
4.648600
  0
VERTEX
  8
0
  6
CONTINUOUS
 10
0.712800
 20
4.664440
  0
SEQEND
  8
0
  0
SOLID
  8
0
 62
    15
 10
2.731520
 20
4.403080
 11
3.378320
 21
4.775760
 12
2.753080
 22
4.407480
 13
3.399880
 23
4.780160
  0
POLYLINE
  8
0
  6
CONTINUOUS
 66
     1
 40
0.000000
 41
0.000000
  0
VERTEX
  8
0
  6
CONTINUOUS
 10
2.731520
 20
4.403080
  0
VERTEX
  8
0
  6
CONTINUOUS
 10
3.378320
 20
4.775760
  0
VERTEX
  8
0
  6
CONTINUOUS
 10
3.399880
 20
4.780160
  0
VERTEX
  8
0
  6
CONTINUOUS
 10
2.753080
 20
4.407480
  0
VERTEX
  8
0
  6
CONTINUOUS
 10
2.731520
 20
4.403080
  0
SEQEND
  8
0
  0
SOLID
  8
0
 62
    15
 10
0.826320
 20
4.607240
 11
1.473560
 21
4.979920
 12
0.843480
 22
4.569400
 13
1.490280
 23
4.942080
  0
POLYLINE
  8
0
  6
CONTINUOUS
 66
     1
 40
0.000000
 41
0.000000
  0
VERTEX
  8
0
  6
CONTINUOUS
 10
0.826320
 20
4.607240
  0
VERTEX
  8
0
  6
CONTINUOUS
 10
1.473560
 20
4.979920
  0
VERTEX
  8
0
  6
CONTINUOUS
 10
1.490280
 20
4.942080
  0
VERTEX
  8
0
  6
CONTINUOUS
 10
0.843480
 20
4.569400
  0
VERTEX
  8
0
  6
CONTINUOUS
 10
0.826320
 20
4.607240
  0
SEQEND
  8
0
  0
SOLID
  8
0
 62
    15
 10
0.843480
 20
4.569400
 11
1.490280
 21
4.942080
 12
0.865040
 22
4.534640
 13
1.512280
 23
4.907320
  0
POLYLINE
  8
0
  6
CONTINUOUS
 66
     1
 40
0.000000
 41
0.000000
  0
VERTEX
  8
0
  6
CONTINUOUS
 10
0.843480
 20
4.569400
  0
VERTEX
  8
0
  6
CONTINUOUS
 10
1.490280
 20
4.942080
  0
VERTEX
  8
0
  6
CONTINUOUS
 10
1.512280
 20
4.907320
  0
VERTEX
  8
0
  6
CONTINUOUS
 10
0.865040
 20
4.534640
  0
VERTEX
  8
0
  6
CONTINUOUS
 10
0.843480
 20
4.569400
  0
SEQEND
  8
0
  0
SOLID
  8
0
 62
    15
 10
0.865040
 20
4.534640
 11
1.512280
 21
4.907320
 12
0.891880
 22
4.502960
 13
1.538680
 23
4.875640
  0
POLYLINE
  8
0
  6
CONTINUOUS
 66
     1
 40
0.000000
 41
0.000000
  0
VERTEX
  8
0
  6
CONTINUOUS
 10
0.865040
 20
4.534640
  0
VERTEX
  8
0
  6
CONTINUOUS
 10
1.512280
 20
4.907320
  0
VERTEX
  8
0
  6
CONTINUOUS
 10
1.538680
 20
4.875640
  0
VERTEX
  8
0
  6
CONTINUOUS
 10
0.891880
 20
4.502960
  0
VERTEX
  8
0
  6
CONTINUOUS
 10
0.865040
 20
4.534640
  0
SEQEND
  8
0
  0
SOLID
  8
0
 62
    15
 10
0.891880
 20
4.502960
 11
1.538680
 21
4.875640
 12
0.957880
 22
4.448400
 13
1.605120
 23
4.821080
  0
POLYLINE
  8
0
  6
CONTINUOUS
 66
     1
 40
0.000000
 41
0.000000
  0
VERTEX
  8
0
  6
CONTINUOUS
 10
0.891880
 20
4.502960
  0
VERTEX
  8
0
  6
CONTINUOUS
 10
1.538680
 20
4.875640
  0
VERTEX
  8
0
  6
CONTINUOUS
 10
1.605120
 20
4.821080
  0
VERTEX
  8
0
  6
CONTINUOUS
 10
0.957880
 20
4.448400
  0
VERTEX
  8
0
  6
CONTINUOUS
 10
0.891880
 20
4.502960
  0
SEQEND
  8
0
  0
SOLID
  8
0
 62
    15
 10
0.957880
 20
4.448400
 11
1.605120
 21
4.821080
 12
1.040600
 22
4.404400
 13
1.687400
 23
4.777520
  0
POLYLINE
  8
0
  6
CONTINUOUS
 66
     1
 40
0.000000
 41
0.000000
  0
VERTEX
  8
0
  6
CONTINUOUS
 10
0.957880
 20
4.448400
  0
VERTEX
  8
0
  6
CONTINUOUS
 10
1.605120
 20
4.821080
  0
VERTEX
  8
0
  6
CONTINUOUS
 10
1.687400
 20
4.777520
  0
VERTEX
  8
0
  6
CONTINUOUS
 10
1.040600
 20
4.404400
  0
VERTEX
  8
0
  6
CONTINUOUS
 10
0.957880
 20
4.448400
  0
SEQEND
  8
0
  0
SOLID
  8
0
 62
    15
 10
1.040600
 20
4.404400
 11
1.687400
 21
4.777520
 12
1.137400
 22
4.370520
 13
1.784640
 23
4.743200
  0
POLYLINE
  8
0
  6
CONTINUOUS
 66
     1
 40
0.000000
 41
0.000000
  0
VERTEX
  8
0
  6
CONTINUOUS
 10
1.040600
 20
4.404400
  0
VERTEX
  8
0
  6
CONTINUOUS
 10
1.687400
 20
4.777520
  0
VERTEX
  8
0
  6
CONTINUOUS
 10
1.784640
 20
4.743200
  0
VERTEX
  8
0
  6
CONTINUOUS
 10
1.137400
 20
4.370520
  0
VERTEX
  8
0
  6
CONTINUOUS
 10
1.040600
 20
4.404400
  0
SEQEND
  8
0
  0
SOLID
  8
0
 62
    15
 10
1.137400
 20
4.370520
 11
1.784640
 21
4.743200
 12
1.247400
 22
4.345440
 13
1.894640
 23
4.718120
  0
POLYLINE
  8
0
  6
CONTINUOUS
 66
     1
 40
0.000000
 41
0.000000
  0
VERTEX
  8
0
  6
CONTINUOUS
 10
1.137400
 20
4.370520
  0
VERTEX
  8
0
  6
CONTINUOUS
 10
1.784640
 20
4.743200
  0
VERTEX
  8
0
  6
CONTINUOUS
 10
1.894640
 20
4.718120
  0
VERTEX
  8
0
  6
CONTINUOUS
 10
1.247400
 20
4.345440
  0
VERTEX
  8
0
  6
CONTINUOUS
 10
1.137400
 20
4.370520
  0
SEQEND
  8
0
  0
SOLID
  8
0
 62
    15
 10
1.247400
 20
4.345440
 11
1.894640
 21
4.718120
 12
1.368840
 22
4.327840
 13
2.015640
 23
4.700520
  0
POLYLINE
  8
0
  6
CONTINUOUS
 66
     1
 40
0.000000
 41
0.000000
  0
VERTEX
  8
0
  6
CONTINUOUS
 10
1.247400
 20
4.345440
  0
VERTEX
  8
0
  6
CONTINUOUS
 10
1.894640
 20
4.718120
  0
VERTEX
  8
0
  6
CONTINUOUS
 10
2.015640
 20
4.700520
  0
VERTEX
  8
0
  6
CONTINUOUS
 10
1.368840
 20
4.327840
  0
VERTEX
  8
0
  6
CONTINUOUS
 10
1.247400
 20
4.345440
  0
SEQEND
  8
0
  0
SOLID
  8
0
 62
    15
 10
1.368840
 20
4.327840
 11
2.015640
 21
4.700520
 12
1.499520
 22
4.316840
 13
2.146760
 23
4.689520
  0
POLYLINE
  8
0
  6
CONTINUOUS
 66
     1
 40
0.000000
 41
0.000000
  0
VERTEX
  8
0
  6
CONTINUOUS
 10
1.368840
 20
4.327840
  0
VERTEX
  8
0
  6
CONTINUOUS
 10
2.015640
 20
4.700520
  0
VERTEX
  8
0
  6
CONTINUOUS
 10
2.146760
 20
4.689520
  0
VERTEX
  8
0
  6
CONTINUOUS
 10
1.499520
 20
4.316840
  0
VERTEX
  8
0
  6
CONTINUOUS
 10
1.368840
 20
4.327840
  0
SEQEND
  8
0
  0
SOLID
  8
0
 62
    15
 10
1.499520
 20
4.316840
 11
2.146760
 21
4.689520
 12
1.638560
 22
4.311560
 13
2.285800
 23
4.684680
  0
POLYLINE
  8
0
  6
CONTINUOUS
 66
     1
 40
0.000000
 41
0.000000
  0
VERTEX
  8
0
  6
CONTINUOUS
 10
1.499520
 20
4.316840
  0
VERTEX
  8
0
  6
CONTINUOUS
 10
2.146760
 20
4.689520
  0
VERTEX
  8
0
  6
CONTINUOUS
 10
2.285800
 20
4.684680
  0
VERTEX
  8
0
  6
CONTINUOUS
 10
1.638560
 20
4.311560
  0
VERTEX
  8
0
  6
CONTINUOUS
 10
1.499520
 20
4.316840
  0
SEQEND
  8
0
  0
SOLID
  8
0
 62
    15
 10
1.638560
 20
4.311560
 11
2.285800
 21
4.684680
 12
1.784200
 22
4.311560
 13
2.431440
 23
4.684240
  0
POLYLINE
  8
0
  6
CONTINUOUS
 66
     1
 40
0.000000
 41
0.000000
  0
VERTEX
  8
0
  6
CONTINUOUS
 10
1.638560
 20
4.311560
  0
VERTEX
  8
0
  6
CONTINUOUS
 10
2.285800
 20
4.684680
  0
VERTEX
  8
0
  6
CONTINUOUS
 10
2.431440
 20
4.684240
  0
VERTEX
  8
0
  6
CONTINUOUS
 10
1.784200
 20
4.311560
  0
VERTEX
  8
0
  6
CONTINUOUS
 10
1.638560
 20
4.311560
  0
SEQEND
  8
0
  0
SOLID
  8
0
 62
    15
 10
1.784200
 20
4.311560
 11
2.431440
 21
4.684240
 12
2.088240
 22
4.320800
 13
2.735480
 23
4.693480
  0
POLYLINE
  8
0
  6
CONTINUOUS
 66
     1
 40
0.000000
 41
0.000000
  0
VERTEX
  8
0
  6
CONTINUOUS
 10
1.784200
 20
4.311560
  0
VERTEX
  8
0
  6
CONTINUOUS
 10
2.431440
 20
4.684240
  0
VERTEX
  8
0
  6
CONTINUOUS
 10
2.735480
 20
4.693480
  0
VERTEX
  8
0
  6
CONTINUOUS
 10
2.088240
 20
4.320800
  0
VERTEX
  8
0
  6
CONTINUOUS
 10
1.784200
 20
4.311560
  0
SEQEND
  8
0
  0
SOLID
  8
0
 62
    15
 10
2.088240
 20
4.320800
 11
2.735480
 21
4.693480
 12
2.243560
 22
4.328280
 13
2.890360
 23
4.700960
  0
POLYLINE
  8
0
  6
CONTINUOUS
 66
     1
 40
0.000000
 41
0.000000
  0
VERTEX
  8
0
  6
CONTINUOUS
 10
2.088240
 20
4.320800
  0
VERTEX
  8
0
  6
CONTINUOUS
 10
2.735480
 20
4.693480
  0
VERTEX
  8
0
  6
CONTINUOUS
 10
2.890360
 20
4.700960
  0
VERTEX
  8
0
  6
CONTINUOUS
 10
2.243560
 20
4.328280
  0
VERTEX
  8
0
  6
CONTINUOUS
 10
2.088240
 20
4.320800
  0
SEQEND
  8
0
  0
SOLID
  8
0
 62
    15
 10
2.243560
 20
4.328280
 11
2.890360
 21
4.700960
 12
2.398440
 22
4.336640
 13
3.045680
 23
4.709320
  0
POLYLINE
  8
0
  6
CONTINUOUS
 66
     1
 40
0.000000
 41
0.000000
  0
VERTEX
  8
0
  6
CONTINUOUS
 10
2.243560
 20
4.328280
  0
VERTEX
  8
0
  6
CONTINUOUS
 10
2.890360
 20
4.700960
  0
VERTEX
  8
0
  6
CONTINUOUS
 10
3.045680
 20
4.709320
  0
VERTEX
  8
0
  6
CONTINUOUS
 10
2.398440
 20
4.336640
  0
VERTEX
  8
0
  6
CONTINUOUS
 10
2.243560
 20
4.328280
  0
SEQEND
  8
0
  0
SOLID
  8
0
 62
    15
 10
2.753080
 20
4.407480
 11
3.399880
 21
4.780160
 12
2.774640
 22
4.403080
 13
3.421440
 23
4.775760
  0
POLYLINE
  8
0
  6
CONTINUOUS
 66
     1
 40
0.000000
 41
0.000000
  0
VERTEX
  8
0
  6
CONTINUOUS
 10
2.753080
 20
4.407480
  0
VERTEX
  8
0
  6
CONTINUOUS
 10
3.399880
 20
4.780160
  0
VERTEX
  8
0
  6
CONTINUOUS
 10
3.421440
 20
4.775760
  0
VERTEX
  8
0
  6
CONTINUOUS
 10
2.774640
 20
4.403080
  0
VERTEX
  8
0
  6
CONTINUOUS
 10
2.753080
 20
4.407480
  0
SEQEND
  8
0
  0
POLYLINE
  8
0
  6
CONTINUOUS
 66
     1
 40
0.000000
 41
0.000000
  0
VERTEX
  8
0
  6
CONTINUOUS
 10
2.697640
 20
4.352040
  0
VERTEX
  8
0
  6
CONTINUOUS
 10
2.702040
 20
4.373600
  0
VERTEX
  8
0
  6
CONTINUOUS
 10
2.713920
 20
4.391200
  0
VERTEX
  8
0
  6
CONTINUOUS
 10
2.731520
 20
4.403080
  0
VERTEX
  8
0
  6
CONTINUOUS
 10
2.753080
 20
4.407480
  0
VERTEX
  8
0
  6
CONTINUOUS
 10
2.774640
 20
4.403080
  0
VERTEX
  8
0
  6
CONTINUOUS
 10
2.792240
 20
4.391200
  0
VERTEX
  8
0
  6
CONTINUOUS
 10
2.804120
 20
4.373600
  0
VERTEX
  8
0
  6
CONTINUOUS
 10
2.808520
 20
4.352040
  0
VERTEX
  8
0
  6
CONTINUOUS
 10
3.330800
 20
4.352040
  0
VERTEX
  8
0
  6
CONTINUOUS
 10
3.333000
 20
4.242480
  0
VERTEX
  8
0
  6
CONTINUOUS
 10
3.087480
 20
4.242480
  0
VERTEX
  8
0
  6
CONTINUOUS
 10
3.087480
 20
3.598760
  0
VERTEX
  8
0
  6
CONTINUOUS
 10
1.947440
 20
3.598320
  0
VERTEX
  8
0
  6
CONTINUOUS
 10
0.857560
 20
3.840760
  0
VERTEX
  8
0
  6
CONTINUOUS
 10
0.857560
 20
4.084080
  0
VERTEX
  8
0
  6
CONTINUOUS
 10
0.800360
 20
4.110920
  0
VERTEX
  8
0
  6
CONTINUOUS
 10
0.750640
 20
4.144360
  0
VERTEX
  8
0
  6
CONTINUOUS
 10
0.707520
 20
4.183960
  0
VERTEX
  8
0
  6
CONTINUOUS
 10
0.671000
 20
4.227960
  0
VERTEX
  8
0
  6
CONTINUOUS
 10
0.639760
 20
4.275920
  0
VERTEX
  8
0
  6
CONTINUOUS
 10
0.614680
 20
4.326520
  0
VERTEX
  8
0
  6
CONTINUOUS
 10
0.579040
 20
4.430800
  0
VERTEX
  8
0
  6
CONTINUOUS
 10
0.561440
 20
4.532000
  0
VERTEX
  8
0
  6
CONTINUOUS
 10
0.558360
 20
4.621760
  0
VERTEX
  8
0
  6
CONTINUOUS
 10
0.561440
 20
4.659160
  0
VERTEX
  8
0
  6
CONTINUOUS
 10
0.567160
 20
4.690400
  0
VERTEX
  8
0
  6
CONTINUOUS
 10
0.574640
 20
4.714600
  0
VERTEX
  8
0
  6
CONTINUOUS
 10
0.584320
 20
4.730440
  0
VERTEX
  8
0
  6
CONTINUOUS
 10
0.607640
 20
4.750240
  0
VERTEX
  8
0
  6
CONTINUOUS
 10
0.630520
 20
4.759920
  0
VERTEX
  8
0
  6
CONTINUOUS
 10
0.652080
 20
4.761240
  0
VERTEX
  8
0
  6
CONTINUOUS
 10
0.671880
 20
4.754200
  0
VERTEX
  8
0
  6
CONTINUOUS
 10
0.688600
 20
4.740560
  0
VERTEX
  8
0
  6
CONTINUOUS
 10
0.701360
 20
4.720320
  0
VERTEX
  8
0
  6
CONTINUOUS
 10
0.709720
 20
4.694800
  0
VERTEX
  8
0
  6
CONTINUOUS
 10
0.712800
 20
4.664440
  0
VERTEX
  8
0
  6
CONTINUOUS
 10
0.814440
 20
4.648600
  0
VERTEX
  8
0
  6
CONTINUOUS
 10
0.826320
 20
4.607240
  0
VERTEX
  8
0
  6
CONTINUOUS
 10
0.843480
 20
4.569400
  0
VERTEX
  8
0
  6
CONTINUOUS
 10
0.865040
 20
4.534640
  0
VERTEX
  8
0
  6
CONTINUOUS
 10
0.891880
 20
4.502960
  0
VERTEX
  8
0
  6
CONTINUOUS
 10
0.957880
 20
4.448400
  0
VERTEX
  8
0
  6
CONTINUOUS
 10
1.040600
 20
4.404400
  0
VERTEX
  8
0
  6
CONTINUOUS
 10
1.137400
 20
4.370520
  0
VERTEX
  8
0
  6
CONTINUOUS
 10
1.247400
 20
4.345440
  0
VERTEX
  8
0
  6
CONTINUOUS
 10
1.368840
 20
4.327840
  0
VERTEX
  8
0
  6
CONTINUOUS
 10
1.499520
 20
4.316840
  0
VERTEX
  8
0
  6
CONTINUOUS
 10
1.638560
 20
4.311560
  0
VERTEX
  8
0
  6
CONTINUOUS
 10
1.784200
 20
4.311560
  0
VERTEX
  8
0
  6
CONTINUOUS
 10
2.088240
 20
4.320800
  0
VERTEX
  8
0
  6
CONTINUOUS
 10
2.702480
 20
4.351600
  0
VERTEX
  8
0
  6
CONTINUOUS
 10
2.697640
 20
4.352040
  0
SEQEND
  8
0
  0
TEXT
  8
0
 10
1.927200
 20
3.314960
 40
0.137866
  1
BA  1100
 41
1.000000
  7
SN0
 71
     0
 72
     5
 11
2.609549
 21
3.314960
  0
TEXT
  8
0
 10
1.697960
 20
3.123120
 40
0.137866
  1
1-3/16" x 2-3/4"
 41
1.000000
  7
SN0
 71
     0
 72
     5
 11
2.838588
 21
3.123120
  0
POLYLINE
  8
0
  6
CONTINUOUS
 66
     1
 40
0.000000
 41
0.000000
  0
VERTEX
  8
0
  6
CONTINUOUS
 10
6.681400
 20
4.393400
  0
VERTEX
  8
0
  6
CONTINUOUS
 10
6.682720
 20
4.404840
  0
VERTEX
  8
0
  6
CONTINUOUS
 10
6.685800
 20
4.414960
  0
VERTEX
  8
0
  6
CONTINUOUS
 10
6.690640
 20
4.424640
  0
VERTEX
  8
0
  6
CONTINUOUS
 10
6.705600
 20
4.439600
  0
VERTEX
  8
0
  6
CONTINUOUS
 10
6.715280
 20
4.444440
  0
VERTEX
  8
0
  6
CONTINUOUS
 10
6.725400
 20
4.447520
  0
VERTEX
  8
0
  6
CONTINUOUS
 10
6.736840
 20
4.448840
  0
VERTEX
  8
0
  6
CONTINUOUS
 10
6.747840
 20
4.447520
  0
VERTEX
  8
0
  6
CONTINUOUS
 10
6.758400
 20
4.444440
  0
VERTEX
  8
0
  6
CONTINUOUS
 10
6.767640
 20
4.439600
  0
VERTEX
  8
0
  6
CONTINUOUS
 10
6.776000
 20
4.432560
  0
VERTEX
  8
0
  6
CONTINUOUS
 10
6.782600
 20
4.424640
  0
VERTEX
  8
0
  6
CONTINUOUS
 10
6.787880
 20
4.414960
  0
VERTEX
  8
0
  6
CONTINUOUS
 10
6.790960
 20
4.404840
  0
VERTEX
  8
0
  6
CONTINUOUS
 10
6.792280
 20
4.393400
  0
VERTEX
  8
0
  6
CONTINUOUS
 10
7.314560
 20
4.393400
  0
VERTEX
  8
0
  6
CONTINUOUS
 10
7.316760
 20
4.284280
  0
VERTEX
  8
0
  6
CONTINUOUS
 10
7.071240
 20
4.284280
  0
VERTEX
  8
0
  6
CONTINUOUS
 10
7.071240
 20
3.640560
  0
VERTEX
  8
0
  6
CONTINUOUS
 10
5.931200
 20
3.640120
  0
VERTEX
  8
0
  6
CONTINUOUS
 10
4.841320
 20
3.882560
  0
VERTEX
  8
0
  6
CONTINUOUS
 10
4.841320
 20
4.125880
  0
VERTEX
  8
0
  6
CONTINUOUS
 10
4.811840
 20
4.138200
  0
VERTEX
  8
0
  6
CONTINUOUS
 10
4.784560
 20
4.152280
  0
VERTEX
  8
0
  6
CONTINUOUS
 10
4.758600
 20
4.168560
  0
VERTEX
  8
0
  6
CONTINUOUS
 10
4.734840
 20
4.186160
  0
VERTEX
  8
0
  6
CONTINUOUS
 10
4.712400
 20
4.205080
  0
VERTEX
  8
0
  6
CONTINUOUS
 10
4.691720
 20
4.225320
  0
VERTEX
  8
0
  6
CONTINUOUS
 10
4.654760
 20
4.269760
  0
VERTEX
  8
0
  6
CONTINUOUS
 10
4.638480
 20
4.293080
  0
VERTEX
  8
0
  6
CONTINUOUS
 10
4.610760
 20
4.342800
  0
VERTEX
  8
0
  6
CONTINUOUS
 10
4.598440
 20
4.367880
  0
VERTEX
  8
0
  6
CONTINUOUS
 10
4.578640
 20
4.419800
  0
VERTEX
  8
0
  6
CONTINUOUS
 10
4.563240
 20
4.472160
  0
VERTEX
  8
0
  6
CONTINUOUS
 10
4.552240
 20
4.523640
  0
VERTEX
  8
0
  6
CONTINUOUS
 10
4.545640
 20
4.573360
  0
VERTEX
  8
0
  6
CONTINUOUS
 10
4.542120
 20
4.620440
  0
VERTEX
  8
0
  6
CONTINUOUS
 10
4.543440
 20
4.682480
  0
VERTEX
  8
0
  6
CONTINUOUS
 10
4.547840
 20
4.717240
  0
VERTEX
  8
0
  6
CONTINUOUS
 10
4.554880
 20
4.744960
  0
VERTEX
  8
0
  6
CONTINUOUS
 10
4.563680
 20
4.765200
  0
VERTEX
  8
0
  6
CONTINUOUS
 10
4.579960
 20
4.782800
  0
VERTEX
  8
0
  6
CONTINUOUS
 10
4.591400
 20
4.791600
  0
VERTEX
  8
0
  6
CONTINUOUS
 10
4.602840
 20
4.797760
  0
VERTEX
  8
0
  6
CONTINUOUS
 10
4.614280
 20
4.801280
  0
VERTEX
  8
0
  6
CONTINUOUS
 10
4.625280
 20
4.803040
  0
VERTEX
  8
0
  6
CONTINUOUS
 10
4.635840
 20
4.802600
  0
VERTEX
  8
0
  6
CONTINUOUS
 10
4.645960
 20
4.799960
  0
VERTEX
  8
0
  6
CONTINUOUS
 10
4.664440
 20
4.789840
  0
VERTEX
  8
0
  6
CONTINUOUS
 10
4.679400
 20
4.772680
  0
VERTEX
  8
0
  6
CONTINUOUS
 10
4.689960
 20
4.749800
  0
VERTEX
  8
0
  6
CONTINUOUS
 10
4.695680
 20
4.721640
  0
VERTEX
  8
0
  6
CONTINUOUS
 10
4.696560
 20
4.706240
  0
VERTEX
  8
0
  6
CONTINUOUS
 10
4.798200
 20
4.690400
  0
VERTEX
  8
0
  6
CONTINUOUS
 10
4.810080
 20
4.649040
  0
VERTEX
  8
0
  6
CONTINUOUS
 10
4.827240
 20
4.611200
  0
VERTEX
  8
0
  6
CONTINUOUS
 10
4.849240
 20
4.576440
  0
VERTEX
  8
0
  6
CONTINUOUS
 10
4.861560
 20
4.560160
  0
VERTEX
  8
0
  6
CONTINUOUS
 10
4.890600
 20
4.529800
  0
VERTEX
  8
0
  6
CONTINUOUS
 10
4.923600
 20
4.502520
  0
VERTEX
  8
0
  6
CONTINUOUS
 10
4.961000
 20
4.478320
  0
VERTEX
  8
0
  6
CONTINUOUS
 10
5.002360
 20
4.456320
  0
VERTEX
  8
0
  6
CONTINUOUS
 10
5.047240
 20
4.436960
  0
VERTEX
  8
0
  6
CONTINUOUS
 10
5.095640
 20
4.419800
  0
VERTEX
  8
0
  6
CONTINUOUS
 10
5.174840
 20
4.398240
  0
VERTEX
  8
0
  6
CONTINUOUS
 10
5.260640
 20
4.381520
  0
VERTEX
  8
0
  6
CONTINUOUS
 10
5.352600
 20
4.369200
  0
VERTEX
  8
0
  6
CONTINUOUS
 10
5.449840
 20
4.360400
  0
VERTEX
  8
0
  6
CONTINUOUS
 10
5.551920
 20
4.355120
  0
VERTEX
  8
0
  6
CONTINUOUS
 10
5.694480
 20
4.352480
  0
VERTEX
  8
0
  6
CONTINUOUS
 10
5.842760
 20
4.354240
  0
VERTEX
  8
0
  6
CONTINUOUS
 10
5.995000
 20
4.359080
  0
VERTEX
  8
0
  6
CONTINUOUS
 10
6.227320
 20
4.369640
  0
VERTEX
  8
0
  6
CONTINUOUS
 10
6.611440
 20
4.389880
  0
VERTEX
  8
0
  6
CONTINUOUS
 10
6.686240
 20
4.392960
  0
VERTEX
  8
0
  6
CONTINUOUS
 10
6.681400
 20
4.393400
  0
SEQEND
  8
0
  0
TEXT
  8
0
 10
5.894240
 20
4.031280
 40
0.137866
  1
BA  1100
 41
1.000000
  7
SN0
 71
     0
 72
     5
 11
6.576589
 21
4.031280
  0
TEXT
  8
0
 10
5.665000
 20
3.839440
 40
0.137866
  1
1-3/16" x 2-3/4"
 41
1.000000
  7
SN0
 71
     0
 72
     5
 11
6.805629
 21
3.839440
  0
POLYLINE
  8
0
  6
CONTINUOUS
 66
     1
 40
0.000000
 41
0.000000
  0
VERTEX
  8
0
  6
CONTINUOUS
 10
3.686320
 20
1.151480
  0
VERTEX
  8
0
  6
CONTINUOUS
 10
3.685000
 20
1.162480
  0
VERTEX
  8
0
  6
CONTINUOUS
 10
3.681920
 20
1.173040
  0
VERTEX
  8
0
  6
CONTINUOUS
 10
3.677080
 20
1.182280
  0
VERTEX
  8
0
  6
CONTINUOUS
 10
3.662120
 20
1.197240
  0
VERTEX
  8
0
  6
CONTINUOUS
 10
3.652440
 20
1.202520
  0
VERTEX
  8
0
  6
CONTINUOUS
 10
3.642320
 20
1.205600
  0
VERTEX
  8
0
  6
CONTINUOUS
 10
3.630880
 20
1.206920
  0
VERTEX
  8
0
  6
CONTINUOUS
 10
3.619880
 20
1.205600
  0
VERTEX
  8
0
  6
CONTINUOUS
 10
3.609320
 20
1.202520
  0
VERTEX
  8
0
  6
CONTINUOUS
 10
3.591720
 20
1.190640
  0
VERTEX
  8
0
  6
CONTINUOUS
 10
3.579840
 20
1.173040
  0
VERTEX
  8
0
  6
CONTINUOUS
 10
3.576760
 20
1.162480
  0
VERTEX
  8
0
  6
CONTINUOUS
 10
3.575440
 20
1.151480
  0
VERTEX
  8
0
  6
CONTINUOUS
 10
3.053160
 20
1.151480
  0
VERTEX
  8
0
  6
CONTINUOUS
 10
3.050960
 20
1.041920
  0
VERTEX
  8
0
  6
CONTINUOUS
 10
3.296480
 20
1.041920
  0
VERTEX
  8
0
  6
CONTINUOUS
 10
3.296480
 20
0.398200
  0
VERTEX
  8
0
  6
CONTINUOUS
 10
4.436520
 20
0.397760
  0
VERTEX
  8
0
  6
CONTINUOUS
 10
5.526400
 20
0.640200
  0
VERTEX
  8
0
  6
CONTINUOUS
 10
5.526400
 20
0.883520
  0
VERTEX
  8
0
  6
CONTINUOUS
 10
5.555880
 20
0.895840
  0
VERTEX
  8
0
  6
CONTINUOUS
 10
5.609120
 20
0.926200
  0
VERTEX
  8
0
  6
CONTINUOUS
 10
5.633320
 20
0.943800
  0
VERTEX
  8
0
  6
CONTINUOUS
 10
5.655320
 20
0.962720
  0
VERTEX
  8
0
  6
CONTINUOUS
 10
5.676440
 20
0.983400
  0
VERTEX
  8
0
  6
CONTINUOUS
 10
5.712960
 20
1.027400
  0
VERTEX
  8
0
  6
CONTINUOUS
 10
5.743760
 20
1.075360
  0
VERTEX
  8
0
  6
CONTINUOUS
 10
5.769280
 20
1.125960
  0
VERTEX
  8
0
  6
CONTINUOUS
 10
5.789520
 20
1.177880
  0
VERTEX
  8
0
  6
CONTINUOUS
 10
5.804920
 20
1.230240
  0
VERTEX
  8
0
  6
CONTINUOUS
 10
5.815480
 20
1.281720
  0
VERTEX
  8
0
  6
CONTINUOUS
 10
5.822520
 20
1.331440
  0
VERTEX
  8
0
  6
CONTINUOUS
 10
5.825600
 20
1.378080
  0
VERTEX
  8
0
  6
CONTINUOUS
 10
5.825600
 20
1.420760
  0
VERTEX
  8
0
  6
CONTINUOUS
 10
5.822520
 20
1.458600
  0
VERTEX
  8
0
  6
CONTINUOUS
 10
5.816800
 20
1.489840
  0
VERTEX
  8
0
  6
CONTINUOUS
 10
5.809320
 20
1.514040
  0
VERTEX
  8
0
  6
CONTINUOUS
 10
5.799640
 20
1.529880
  0
VERTEX
  8
0
  6
CONTINUOUS
 10
5.788200
 20
1.540880
  0
VERTEX
  8
0
  6
CONTINUOUS
 10
5.776320
 20
1.549680
  0
VERTEX
  8
0
  6
CONTINUOUS
 10
5.764880
 20
1.555840
  0
VERTEX
  8
0
  6
CONTINUOUS
 10
5.753440
 20
1.559360
  0
VERTEX
  8
0
  6
CONTINUOUS
 10
5.742440
 20
1.561120
  0
VERTEX
  8
0
  6
CONTINUOUS
 10
5.731880
 20
1.560680
  0
VERTEX
  8
0
  6
CONTINUOUS
 10
5.721760
 20
1.558040
  0
VERTEX
  8
0
  6
CONTINUOUS
 10
5.703720
 20
1.547480
  0
VERTEX
  8
0
  6
CONTINUOUS
 10
5.695360
 20
1.540000
  0
VERTEX
  8
0
  6
CONTINUOUS
 10
5.682600
 20
1.519760
  0
VERTEX
  8
0
  6
CONTINUOUS
 10
5.674240
 20
1.494240
  0
VERTEX
  8
0
  6
CONTINUOUS
 10
5.671160
 20
1.463880
  0
VERTEX
  8
0
  6
CONTINUOUS
 10
5.569520
 20
1.448040
  0
VERTEX
  8
0
  6
CONTINUOUS
 10
5.557640
 20
1.406680
  0
VERTEX
  8
0
  6
CONTINUOUS
 10
5.540480
 20
1.368840
  0
VERTEX
  8
0
  6
CONTINUOUS
 10
5.518480
 20
1.334080
  0
VERTEX
  8
0
  6
CONTINUOUS
 10
5.506160
 20
1.317800
  0
VERTEX
  8
0
  6
CONTINUOUS
 10
5.477120
 20
1.287880
  0
VERTEX
  8
0
  6
CONTINUOUS
 10
5.444120
 20
1.260600
  0
VERTEX
  8
0
  6
CONTINUOUS
 10
5.406720
 20
1.235960
  0
VERTEX
  8
0
  6
CONTINUOUS
 10
5.365360
 20
1.213960
  0
VERTEX
  8
0
  6
CONTINUOUS
 10
5.320480
 20
1.194600
  0
VERTEX
  8
0
  6
CONTINUOUS
 10
5.272080
 20
1.177880
  0
VERTEX
  8
0
  6
CONTINUOUS
 10
5.220160
 20
1.162920
  0
VERTEX
  8
0
  6
CONTINUOUS
 10
5.165160
 20
1.150160
  0
VERTEX
  8
0
  6
CONTINUOUS
 10
5.077160
 20
1.135200
  0
VERTEX
  8
0
  6
CONTINUOUS
 10
4.983440
 20
1.123760
  0
VERTEX
  8
0
  6
CONTINUOUS
 10
4.884440
 20
1.116280
  0
VERTEX
  8
0
  6
CONTINUOUS
 10
4.815800
 20
1.113200
  0
VERTEX
  8
0
  6
CONTINUOUS
 10
4.673240
 20
1.110560
  0
VERTEX
  8
0
  6
CONTINUOUS
 10
4.524960
 20
1.112320
  0
VERTEX
  8
0
  6
CONTINUOUS
 10
4.372720
 20
1.117160
  0
VERTEX
  8
0
  6
CONTINUOUS
 10
4.140400
 20
1.127720
  0
VERTEX
  8
0
  6
CONTINUOUS
 10
3.756280
 20
1.147960
  0
VERTEX
  8
0
  6
CONTINUOUS
 10
3.681480
 20
1.151040
  0
VERTEX
  8
0
  6
CONTINUOUS
 10
3.686320
 20
1.151480
  0
SEQEND
  8
0
  0
POLYLINE
  8
0
  6
CONTINUOUS
 66
     1
 40
0.000000
 41
0.000000
  0
VERTEX
  8
0
  6
CONTINUOUS
 10
5.164720
 20
2.535280
  0
VERTEX
  8
0
  6
CONTINUOUS
 10
5.166040
 20
2.546720
  0
VERTEX
  8
0
  6
CONTINUOUS
 10
5.169120
 20
2.556840
  0
VERTEX
  8
0
  6
CONTINUOUS
 10
5.173960
 20
2.566520
  0
VERTEX
  8
0
  6
CONTINUOUS
 10
5.188920
 20
2.581480
  0
VERTEX
  8
0
  6
CONTINUOUS
 10
5.198600
 20
2.586320
  0
VERTEX
  8
0
  6
CONTINUOUS
 10
5.208720
 20
2.589400
  0
VERTEX
  8
0
  6
CONTINUOUS
 10
5.220160
 20
2.590720
  0
VERTEX
  8
0
  6
CONTINUOUS
 10
5.231600
 20
2.589400
  0
VERTEX
  8
0
  6
CONTINUOUS
 10
5.241720
 20
2.586320
  0
VERTEX
  8
0
  6
CONTINUOUS
 10
5.251400
 20
2.581480
  0
VERTEX
  8
0
  6
CONTINUOUS
 10
5.266360
 20
2.566520
  0
VERTEX
  8
0
  6
CONTINUOUS
 10
5.271200
 20
2.556840
  0
VERTEX
  8
0
  6
CONTINUOUS
 10
5.274280
 20
2.546720
  0
VERTEX
  8
0
  6
CONTINUOUS
 10
5.275600
 20
2.535280
  0
VERTEX
  8
0
  6
CONTINUOUS
 10
5.797880
 20
2.535280
  0
VERTEX
  8
0
  6
CONTINUOUS
 10
5.800080
 20
2.425720
  0
VERTEX
  8
0
  6
CONTINUOUS
 10
5.555000
 20
2.425720
  0
VERTEX
  8
0
  6
CONTINUOUS
 10
5.555000
 20
1.782000
  0
VERTEX
  8
0
  6
CONTINUOUS
 10
4.414520
 20
1.781560
  0
VERTEX
  8
0
  6
CONTINUOUS
 10
3.324640
 20
2.024440
  0
VERTEX
  8
0
  6
CONTINUOUS
 10
3.324640
 20
2.267760
  0
VERTEX
  8
0
  6
CONTINUOUS
 10
3.295160
 20
2.280080
  0
VERTEX
  8
0
  6
CONTINUOUS
 10
3.267880
 20
2.294160
  0
VERTEX
  8
0
  6
CONTINUOUS
 10
3.241920
 20
2.310440
  0
VERTEX
  8
0
  6
CONTINUOUS
 10
3.218160
 20
2.328040
  0
VERTEX
  8
0
  6
CONTINUOUS
 10
3.195720
 20
2.346960
  0
VERTEX
  8
0
  6
CONTINUOUS
 10
3.175040
 20
2.367200
  0
VERTEX
  8
0
  6
CONTINUOUS
 10
3.138080
 20
2.411640
  0
VERTEX
  8
0
  6
CONTINUOUS
 10
3.121800
 20
2.434960
  0
VERTEX
  8
0
  6
CONTINUOUS
 10
3.094080
 20
2.484680
  0
VERTEX
  8
0
  6
CONTINUOUS
 10
3.081760
 20
2.509760
  0
VERTEX
  8
0
  6
CONTINUOUS
 10
3.061960
 20
2.561680
  0
VERTEX
  8
0
  6
CONTINUOUS
 10
3.046560
 20
2.614040
  0
VERTEX
  8
0
  6
CONTINUOUS
 10
3.035560
 20
2.665520
  0
VERTEX
  8
0
  6
CONTINUOUS
 10
3.028960
 20
2.715240
  0
VERTEX
  8
0
  6
CONTINUOUS
 10
3.025440
 20
2.762320
  0
VERTEX
  8
0
  6
CONTINUOUS
 10
3.026760
 20
2.824360
  0
VERTEX
  8
0
  6
CONTINUOUS
 10
3.031160
 20
2.859120
  0
VERTEX
  8
0
  6
CONTINUOUS
 10
3.038200
 20
2.886840
  0
VERTEX
  8
0
  6
CONTINUOUS
 10
3.047000
 20
2.907080
  0
VERTEX
  8
0
  6
CONTINUOUS
 10
3.063280
 20
2.924680
  0
VERTEX
  8
0
  6
CONTINUOUS
 10
3.075160
 20
2.933480
  0
VERTEX
  8
0
  6
CONTINUOUS
 10
3.086600
 20
2.939640
  0
VERTEX
  8
0
  6
CONTINUOUS
 10
3.098040
 20
2.943160
  0
VERTEX
  8
0
  6
CONTINUOUS
 10
3.109040
 20
2.944920
  0
VERTEX
  8
0
  6
CONTINUOUS
 10
3.119600
 20
2.944480
  0
VERTEX
  8
0
  6
CONTINUOUS
 10
3.129720
 20
2.941840
  0
VERTEX
  8
0
  6
CONTINUOUS
 10
3.139400
 20
2.937440
  0
VERTEX
  8
0
  6
CONTINUOUS
 10
3.156120
 20
2.923800
  0
VERTEX
  8
0
  6
CONTINUOUS
 10
3.168880
 20
2.903560
  0
VERTEX
  8
0
  6
CONTINUOUS
 10
3.177240
 20
2.878040
  0
VERTEX
  8
0
  6
CONTINUOUS
 10
3.180320
 20
2.847680
  0
VERTEX
  8
0
  6
CONTINUOUS
 10
3.281520
 20
2.831840
  0
VERTEX
  8
0
  6
CONTINUOUS
 10
3.293400
 20
2.790480
  0
VERTEX
  8
0
  6
CONTINUOUS
 10
3.310560
 20
2.752640
  0
VERTEX
  8
0
  6
CONTINUOUS
 10
3.332560
 20
2.717880
  0
VERTEX
  8
0
  6
CONTINUOUS
 10
3.344880
 20
2.701600
  0
VERTEX
  8
0
  6
CONTINUOUS
 10
3.373920
 20
2.671680
  0
VERTEX
  8
0
  6
CONTINUOUS
 10
3.406920
 20
2.644400
  0
VERTEX
  8
0
  6
CONTINUOUS
 10
3.444320
 20
2.619760
  0
VERTEX
  8
0
  6
CONTINUOUS
 10
3.485680
 20
2.597760
  0
VERTEX
  8
0
  6
CONTINUOUS
 10
3.530560
 20
2.578400
  0
VERTEX
  8
0
  6
CONTINUOUS
 10
3.604480
 20
2.553760
  0
VERTEX
  8
0
  6
CONTINUOUS
 10
3.685880
 20
2.533960
  0
VERTEX
  8
0
  6
CONTINUOUS
 10
3.773880
 20
2.519000
  0
VERTEX
  8
0
  6
CONTINUOUS
 10
3.867600
 20
2.507560
  0
VERTEX
  8
0
  6
CONTINUOUS
 10
3.967040
 20
2.500080
  0
VERTEX
  8
0
  6
CONTINUOUS
 10
4.035240
 20
2.497000
  0
VERTEX
  8
0
  6
CONTINUOUS
 10
4.177800
 20
2.494360
  0
VERTEX
  8
0
  6
CONTINUOUS
 10
4.326080
 20
2.496120
  0
VERTEX
  8
0
  6
CONTINUOUS
 10
4.478320
 20
2.500960
  0
VERTEX
  8
0
  6
CONTINUOUS
 10
4.710640
 20
2.511520
  0
VERTEX
  8
0
  6
CONTINUOUS
 10
5.094760
 20
2.531760
  0
VERTEX
  8
0
  6
CONTINUOUS
 10
5.169560
 20
2.534840
  0
VERTEX
  8
0
  6
CONTINUOUS
 10
5.164720
 20
2.535280
  0
SEQEND
  8
0
  0
ENDSEC
  0
EOF
