  0
SECTION
  2
HEADER
  9
$ACADVER
  1
AC1006
  9
$EXTMIN
 10
1.958440
 20
1.965480
  9
$EXTMAX
 10
5.021280
 20
3.606680
  9
$LTSCALE
 40
0.044000
  9
$PDMODE
 70
    35
  9
$PDSIZE
 40
0.035200
  0
ENDSEC
  0
SECTION
  2
TABLES
  0
TABLE
  2
LTYPE
 70
     9
  0
LTYPE
  2
CONTINUOUS
 70
    64
  3
Solid line
 72
    65
 73
     0
 40
0.000000
  0
LTYPE
  2
DASHED
 70
    64
  3
__ __ __ __ __ __ __ __ __ __ __ __ __ __ __
 72
    65
 73
     2
 40
0.000330
 49
0.000220
 49
-0.000110
  0
LTYPE
  2
HIDDEN
 70
    64
  3
 _ _ _ _ _ _ _ _ _ _ _ _ _ _ _ _ _ _ _ _ _ _
 72
    65
 73
     2
 40
0.000165
 49
0.000110
 49
-0.000055
  0
LTYPE
  2
CENTER
 70
    64
  3
____ _ ____ _ ____ _ ____ _ ____ _ ____ _ ____
 72
    65
 73
     4
 40
0.000880
 49
0.000550
 49
-0.000110
 49
0.000110
 49
-0.000110
  0
LTYPE
  2
PHANTOM
 70
    64
  3
_____ _ _ _____ _ _ _____ _ _ _____ _ _ ____
 72
    65
 73
     6
 40
0.001100
 49
0.000550
 49
-0.000110
 49
0.000110
 49
-0.000110
 49
0.000110
 49
-0.000110
  0
LTYPE
  2
DOT
 70
    64
  3
...............................................
 72
    65
 73
     2
 40
0.000110
 49
0.000000
 49
-0.000110
  0
LTYPE
  2
DASHDOT
 70
    64
  3
__ . __ . __ . __ . __ . __ . __ . __ . __ . __
 72
    65
 73
     4
 40
0.000440
 49
0.000220
 49
-0.000110
 49
0.000000
 49
-0.000110
  0
LTYPE
  2
BORDER
 70
    64
  3
__ __ . __ __ . __ __ . __ __ . __ __ . __ __
 72
    65
 73
     6
 40
0.000770
 49
0.000220
 49
-0.000110
 49
0.000220
 49
-0.000110
 49
0.000000
 49
-0.000110
  0
LTYPE
  2
DIVIDE
 70
    64
  3
__ . . __ . . __ . . __ . . __ . . __ . . __
 72
    65
 73
     6
 40
0.000550
 49
0.000220
 49
-0.000110
 49
0.000000
 49
-0.000110
 49
0.000000
 49
-0.000110
  0
LTYPE
  2
DOTDOT
 70
    64
  3
 . .  . .  . .  . .  . .  . . 
 72
    65
 73
     5
 40
0.000242
 49
-0.000110
 49
0.000000
 49
-0.000110
 49
0.000000
 49
-0.000110
  0
ENDTAB
  0
TABLE
  2
STYLE
 70
     2
  0
STYLE
 70
     0
  2
SN0
 40
0.000000
 41
0.000440
 50
0.000000
 71
     0
 42
0.000000
  3
ROMAND
  0
STYLE
 70
    68
  2
SV0
 40
0.000000
 41
0.000440
 50
0.000000
 71
     0
 42
0.000000
  3
ROMAND
  0
ENDTAB
  0
TABLE
  2
LAYER
 70
     3
  0
LAYER
  2
FOREGROUND
 70
    64
 62
     7
  6
CONTINUOUS
  0
LAYER
  2
BACKGROUND
 70
    65
 62
    -7
  6
CONTINUOUS
  0
LAYER
  2
0
 70
    64
 62
     7
  6
CONTINUOUS
  0
ENDTAB
  0
ENDSEC
  0
SECTION
  2
ENTITIES
  0
POLYLINE
  8
FOREGROUND
  6
CONTINUOUS
 66
     1
 40
0.000000
 41
0.000000
  0
VERTEX
  8
FOREGROUND
  6
CONTINUOUS
 10
0.000000
 20
5.572160
  0
VERTEX
  8
FOREGROUND
  6
CONTINUOUS
 10
8.499920
 20
5.572160
  0
VERTEX
  8
FOREGROUND
  6
CONTINUOUS
 10
8.499920
 20
-5.427840
  0
VERTEX
  8
FOREGROUND
  6
CONTINUOUS
 10
0.000000
 20
-5.427840
  0
VERTEX
  8
FOREGROUND
  6
CONTINUOUS
 10
0.000000
 20
5.572160
  0
SEQEND
  8
0
  0
POLYLINE
  8
FOREGROUND
  6
CONTINUOUS
 66
     1
 40
0.000000
 41
0.000000
  0
VERTEX
  8
FOREGROUND
  6
CONTINUOUS
 10
0.000000
 20
5.572160
  0
VERTEX
  8
FOREGROUND
  6
CONTINUOUS
 10
8.499920
 20
5.572160
  0
VERTEX
  8
FOREGROUND
  6
CONTINUOUS
 10
8.499920
 20
-5.427840
  0
VERTEX
  8
FOREGROUND
  6
CONTINUOUS
 10
0.000000
 20
-5.427840
  0
VERTEX
  8
FOREGROUND
  6
CONTINUOUS
 10
0.000000
 20
5.572160
  0
SEQEND
  8
0
  0
SOLID
  8
0
 62
    15
 10
2.735480
 20
2.564760
 11
2.739880
 21
3.306600
 12
2.779040
 22
2.564320
 13
2.783000
 23
3.306160
  0
POLYLINE
  8
0
  6
CONTINUOUS
 66
     1
 40
0.000000
 41
0.000000
  0
VERTEX
  8
0
  6
CONTINUOUS
 10
2.735480
 20
2.564760
  0
VERTEX
  8
0
  6
CONTINUOUS
 10
2.739880
 20
3.306600
  0
VERTEX
  8
0
  6
CONTINUOUS
 10
2.783000
 20
3.306160
  0
VERTEX
  8
0
  6
CONTINUOUS
 10
2.779040
 20
2.564320
  0
VERTEX
  8
0
  6
CONTINUOUS
 10
2.735480
 20
2.564760
  0
SEQEND
  8
0
  0
SOLID
  8
0
 62
    15
 10
2.196480
 20
2.833600
 11
2.200880
 21
3.575440
 12
2.204400
 22
2.803680
 13
2.208800
 23
3.545520
  0
POLYLINE
  8
0
  6
CONTINUOUS
 66
     1
 40
0.000000
 41
0.000000
  0
VERTEX
  8
0
  6
CONTINUOUS
 10
2.196480
 20
2.833600
  0
VERTEX
  8
0
  6
CONTINUOUS
 10
2.200880
 20
3.575440
  0
VERTEX
  8
0
  6
CONTINUOUS
 10
2.208800
 20
3.545520
  0
VERTEX
  8
0
  6
CONTINUOUS
 10
2.204400
 20
2.803680
  0
VERTEX
  8
0
  6
CONTINUOUS
 10
2.196480
 20
2.833600
  0
SEQEND
  8
0
  0
SOLID
  8
0
 62
    15
 10
2.204400
 20
2.803680
 11
2.208800
 21
3.545520
 12
2.214520
 22
2.775080
 13
2.218920
 23
3.516920
  0
POLYLINE
  8
0
  6
CONTINUOUS
 66
     1
 40
0.000000
 41
0.000000
  0
VERTEX
  8
0
  6
CONTINUOUS
 10
2.204400
 20
2.803680
  0
VERTEX
  8
0
  6
CONTINUOUS
 10
2.208800
 20
3.545520
  0
VERTEX
  8
0
  6
CONTINUOUS
 10
2.218920
 20
3.516920
  0
VERTEX
  8
0
  6
CONTINUOUS
 10
2.214520
 20
2.775080
  0
VERTEX
  8
0
  6
CONTINUOUS
 10
2.204400
 20
2.803680
  0
SEQEND
  8
0
  0
SOLID
  8
0
 62
    15
 10
2.214520
 20
2.775080
 11
2.218920
 21
3.516920
 12
2.227720
 22
2.747360
 13
2.232120
 23
3.489200
  0
POLYLINE
  8
0
  6
CONTINUOUS
 66
     1
 40
0.000000
 41
0.000000
  0
VERTEX
  8
0
  6
CONTINUOUS
 10
2.214520
 20
2.775080
  0
VERTEX
  8
0
  6
CONTINUOUS
 10
2.218920
 20
3.516920
  0
VERTEX
  8
0
  6
CONTINUOUS
 10
2.232120
 20
3.489200
  0
VERTEX
  8
0
  6
CONTINUOUS
 10
2.227720
 20
2.747360
  0
VERTEX
  8
0
  6
CONTINUOUS
 10
2.214520
 20
2.775080
  0
SEQEND
  8
0
  0
SOLID
  8
0
 62
    15
 10
2.227720
 20
2.747360
 11
2.232120
 21
3.489200
 12
2.244000
 22
2.721400
 13
2.248400
 23
3.463240
  0
POLYLINE
  8
0
  6
CONTINUOUS
 66
     1
 40
0.000000
 41
0.000000
  0
VERTEX
  8
0
  6
CONTINUOUS
 10
2.227720
 20
2.747360
  0
VERTEX
  8
0
  6
CONTINUOUS
 10
2.232120
 20
3.489200
  0
VERTEX
  8
0
  6
CONTINUOUS
 10
2.248400
 20
3.463240
  0
VERTEX
  8
0
  6
CONTINUOUS
 10
2.244000
 20
2.721400
  0
VERTEX
  8
0
  6
CONTINUOUS
 10
2.227720
 20
2.747360
  0
SEQEND
  8
0
  0
SOLID
  8
0
 62
    15
 10
2.244000
 20
2.721400
 11
2.248400
 21
3.463240
 12
2.264240
 22
2.696320
 13
2.268640
 23
3.438600
  0
POLYLINE
  8
0
  6
CONTINUOUS
 66
     1
 40
0.000000
 41
0.000000
  0
VERTEX
  8
0
  6
CONTINUOUS
 10
2.244000
 20
2.721400
  0
VERTEX
  8
0
  6
CONTINUOUS
 10
2.248400
 20
3.463240
  0
VERTEX
  8
0
  6
CONTINUOUS
 10
2.268640
 20
3.438600
  0
VERTEX
  8
0
  6
CONTINUOUS
 10
2.264240
 20
2.696320
  0
VERTEX
  8
0
  6
CONTINUOUS
 10
2.244000
 20
2.721400
  0
SEQEND
  8
0
  0
SOLID
  8
0
 62
    15
 10
2.264240
 20
2.696320
 11
2.268640
 21
3.438600
 12
2.288440
 22
2.673440
 13
2.292840
 23
3.415280
  0
POLYLINE
  8
0
  6
CONTINUOUS
 66
     1
 40
0.000000
 41
0.000000
  0
VERTEX
  8
0
  6
CONTINUOUS
 10
2.264240
 20
2.696320
  0
VERTEX
  8
0
  6
CONTINUOUS
 10
2.268640
 20
3.438600
  0
VERTEX
  8
0
  6
CONTINUOUS
 10
2.292840
 20
3.415280
  0
VERTEX
  8
0
  6
CONTINUOUS
 10
2.288440
 20
2.673440
  0
VERTEX
  8
0
  6
CONTINUOUS
 10
2.264240
 20
2.696320
  0
SEQEND
  8
0
  0
SOLID
  8
0
 62
     7
 10
2.288440
 20
2.673440
 11
2.292840
 21
3.415280
 12
2.317480
 22
2.652320
 13
2.321880
 23
3.394160
  0
POLYLINE
  8
0
  6
CONTINUOUS
 66
     1
 40
0.000000
 41
0.000000
  0
VERTEX
  8
0
  6
CONTINUOUS
 10
2.288440
 20
2.673440
  0
VERTEX
  8
0
  6
CONTINUOUS
 10
2.292840
 20
3.415280
  0
VERTEX
  8
0
  6
CONTINUOUS
 10
2.321880
 20
3.394160
  0
VERTEX
  8
0
  6
CONTINUOUS
 10
2.317480
 20
2.652320
  0
VERTEX
  8
0
  6
CONTINUOUS
 10
2.288440
 20
2.673440
  0
SEQEND
  8
0
  0
SOLID
  8
0
 62
     7
 10
2.317480
 20
2.652320
 11
2.321880
 21
3.394160
 12
2.351800
 22
2.632960
 13
2.356200
 23
3.374800
  0
POLYLINE
  8
0
  6
CONTINUOUS
 66
     1
 40
0.000000
 41
0.000000
  0
VERTEX
  8
0
  6
CONTINUOUS
 10
2.317480
 20
2.652320
  0
VERTEX
  8
0
  6
CONTINUOUS
 10
2.321880
 20
3.394160
  0
VERTEX
  8
0
  6
CONTINUOUS
 10
2.356200
 20
3.374800
  0
VERTEX
  8
0
  6
CONTINUOUS
 10
2.351800
 20
2.632960
  0
VERTEX
  8
0
  6
CONTINUOUS
 10
2.317480
 20
2.652320
  0
SEQEND
  8
0
  0
SOLID
  8
0
 62
     7
 10
2.351800
 20
2.632960
 11
2.356200
 21
3.374800
 12
2.391840
 22
2.615360
 13
2.396240
 23
3.357640
  0
POLYLINE
  8
0
  6
CONTINUOUS
 66
     1
 40
0.000000
 41
0.000000
  0
VERTEX
  8
0
  6
CONTINUOUS
 10
2.351800
 20
2.632960
  0
VERTEX
  8
0
  6
CONTINUOUS
 10
2.356200
 20
3.374800
  0
VERTEX
  8
0
  6
CONTINUOUS
 10
2.396240
 20
3.357640
  0
VERTEX
  8
0
  6
CONTINUOUS
 10
2.391840
 20
2.615360
  0
VERTEX
  8
0
  6
CONTINUOUS
 10
2.351800
 20
2.632960
  0
SEQEND
  8
0
  0
SOLID
  8
0
 62
     7
 10
2.391840
 20
2.615360
 11
2.396240
 21
3.357640
 12
2.438040
 22
2.600400
 13
2.442440
 23
3.342240
  0
POLYLINE
  8
0
  6
CONTINUOUS
 66
     1
 40
0.000000
 41
0.000000
  0
VERTEX
  8
0
  6
CONTINUOUS
 10
2.391840
 20
2.615360
  0
VERTEX
  8
0
  6
CONTINUOUS
 10
2.396240
 20
3.357640
  0
VERTEX
  8
0
  6
CONTINUOUS
 10
2.442440
 20
3.342240
  0
VERTEX
  8
0
  6
CONTINUOUS
 10
2.438040
 20
2.600400
  0
VERTEX
  8
0
  6
CONTINUOUS
 10
2.391840
 20
2.615360
  0
SEQEND
  8
0
  0
SOLID
  8
0
 62
    15
 10
2.438040
 20
2.600400
 11
2.442440
 21
3.342240
 12
2.490840
 22
2.588080
 13
2.495240
 23
3.329920
  0
POLYLINE
  8
0
  6
CONTINUOUS
 66
     1
 40
0.000000
 41
0.000000
  0
VERTEX
  8
0
  6
CONTINUOUS
 10
2.438040
 20
2.600400
  0
VERTEX
  8
0
  6
CONTINUOUS
 10
2.442440
 20
3.342240
  0
VERTEX
  8
0
  6
CONTINUOUS
 10
2.495240
 20
3.329920
  0
VERTEX
  8
0
  6
CONTINUOUS
 10
2.490840
 20
2.588080
  0
VERTEX
  8
0
  6
CONTINUOUS
 10
2.438040
 20
2.600400
  0
SEQEND
  8
0
  0
SOLID
  8
0
 62
    15
 10
2.490840
 20
2.588080
 11
2.495240
 21
3.329920
 12
2.519880
 22
2.582360
 13
2.524280
 23
3.324200
  0
POLYLINE
  8
0
  6
CONTINUOUS
 66
     1
 40
0.000000
 41
0.000000
  0
VERTEX
  8
0
  6
CONTINUOUS
 10
2.490840
 20
2.588080
  0
VERTEX
  8
0
  6
CONTINUOUS
 10
2.495240
 20
3.329920
  0
VERTEX
  8
0
  6
CONTINUOUS
 10
2.524280
 20
3.324200
  0
VERTEX
  8
0
  6
CONTINUOUS
 10
2.519880
 20
2.582360
  0
VERTEX
  8
0
  6
CONTINUOUS
 10
2.490840
 20
2.588080
  0
SEQEND
  8
0
  0
SOLID
  8
0
 62
    15
 10
2.519880
 20
2.582360
 11
2.524280
 21
3.324200
 12
2.551120
 22
2.577960
 13
2.555080
 23
3.319800
  0
POLYLINE
  8
0
  6
CONTINUOUS
 66
     1
 40
0.000000
 41
0.000000
  0
VERTEX
  8
0
  6
CONTINUOUS
 10
2.519880
 20
2.582360
  0
VERTEX
  8
0
  6
CONTINUOUS
 10
2.524280
 20
3.324200
  0
VERTEX
  8
0
  6
CONTINUOUS
 10
2.555080
 20
3.319800
  0
VERTEX
  8
0
  6
CONTINUOUS
 10
2.551120
 20
2.577960
  0
VERTEX
  8
0
  6
CONTINUOUS
 10
2.519880
 20
2.582360
  0
SEQEND
  8
0
  0
SOLID
  8
0
 62
    15
 10
2.551120
 20
2.577960
 11
2.555080
 21
3.319800
 12
2.583680
 22
2.573560
 13
2.588080
 23
3.315840
  0
POLYLINE
  8
0
  6
CONTINUOUS
 66
     1
 40
0.000000
 41
0.000000
  0
VERTEX
  8
0
  6
CONTINUOUS
 10
2.551120
 20
2.577960
  0
VERTEX
  8
0
  6
CONTINUOUS
 10
2.555080
 20
3.319800
  0
VERTEX
  8
0
  6
CONTINUOUS
 10
2.588080
 20
3.315840
  0
VERTEX
  8
0
  6
CONTINUOUS
 10
2.583680
 20
2.573560
  0
VERTEX
  8
0
  6
CONTINUOUS
 10
2.551120
 20
2.577960
  0
SEQEND
  8
0
  0
SOLID
  8
0
 62
    15
 10
2.583680
 20
2.573560
 11
2.588080
 21
3.315840
 12
2.618440
 22
2.570480
 13
2.622840
 23
3.312320
  0
POLYLINE
  8
0
  6
CONTINUOUS
 66
     1
 40
0.000000
 41
0.000000
  0
VERTEX
  8
0
  6
CONTINUOUS
 10
2.583680
 20
2.573560
  0
VERTEX
  8
0
  6
CONTINUOUS
 10
2.588080
 20
3.315840
  0
VERTEX
  8
0
  6
CONTINUOUS
 10
2.622840
 20
3.312320
  0
VERTEX
  8
0
  6
CONTINUOUS
 10
2.618440
 20
2.570480
  0
VERTEX
  8
0
  6
CONTINUOUS
 10
2.583680
 20
2.573560
  0
SEQEND
  8
0
  0
SOLID
  8
0
 62
    15
 10
2.618440
 20
2.570480
 11
2.622840
 21
3.312320
 12
2.655400
 22
2.567840
 13
2.659800
 23
3.309680
  0
POLYLINE
  8
0
  6
CONTINUOUS
 66
     1
 40
0.000000
 41
0.000000
  0
VERTEX
  8
0
  6
CONTINUOUS
 10
2.618440
 20
2.570480
  0
VERTEX
  8
0
  6
CONTINUOUS
 10
2.622840
 20
3.312320
  0
VERTEX
  8
0
  6
CONTINUOUS
 10
2.659800
 20
3.309680
  0
VERTEX
  8
0
  6
CONTINUOUS
 10
2.655400
 20
2.567840
  0
VERTEX
  8
0
  6
CONTINUOUS
 10
2.618440
 20
2.570480
  0
SEQEND
  8
0
  0
SOLID
  8
0
 62
    15
 10
2.655400
 20
2.567840
 11
2.659800
 21
3.309680
 12
2.694560
 22
2.565640
 13
2.698960
 23
3.307920
  0
POLYLINE
  8
0
  6
CONTINUOUS
 66
     1
 40
0.000000
 41
0.000000
  0
VERTEX
  8
0
  6
CONTINUOUS
 10
2.655400
 20
2.567840
  0
VERTEX
  8
0
  6
CONTINUOUS
 10
2.659800
 20
3.309680
  0
VERTEX
  8
0
  6
CONTINUOUS
 10
2.698960
 20
3.307920
  0
VERTEX
  8
0
  6
CONTINUOUS
 10
2.694560
 20
2.565640
  0
VERTEX
  8
0
  6
CONTINUOUS
 10
2.655400
 20
2.567840
  0
SEQEND
  8
0
  0
SOLID
  8
0
 62
    15
 10
2.694560
 20
2.565640
 11
2.698960
 21
3.307920
 12
2.735480
 22
2.564760
 13
2.739880
 23
3.306600
  0
POLYLINE
  8
0
  6
CONTINUOUS
 66
     1
 40
0.000000
 41
0.000000
  0
VERTEX
  8
0
  6
CONTINUOUS
 10
2.694560
 20
2.565640
  0
VERTEX
  8
0
  6
CONTINUOUS
 10
2.698960
 20
3.307920
  0
VERTEX
  8
0
  6
CONTINUOUS
 10
2.739880
 20
3.306600
  0
VERTEX
  8
0
  6
CONTINUOUS
 10
2.735480
 20
2.564760
  0
VERTEX
  8
0
  6
CONTINUOUS
 10
2.694560
 20
2.565640
  0
SEQEND
  8
0
  0
SOLID
  8
0
 62
    15
 10
2.190320
 20
2.864400
 11
2.194720
 21
3.606240
 12
2.196480
 22
2.833600
 13
2.200880
 23
3.575440
  0
POLYLINE
  8
0
  6
CONTINUOUS
 66
     1
 40
0.000000
 41
0.000000
  0
VERTEX
  8
0
  6
CONTINUOUS
 10
2.190320
 20
2.864400
  0
VERTEX
  8
0
  6
CONTINUOUS
 10
2.194720
 20
3.606240
  0
VERTEX
  8
0
  6
CONTINUOUS
 10
2.200880
 20
3.575440
  0
VERTEX
  8
0
  6
CONTINUOUS
 10
2.196480
 20
2.833600
  0
VERTEX
  8
0
  6
CONTINUOUS
 10
2.190320
 20
2.864400
  0
SEQEND
  8
0
  0
SOLID
  8
0
 62
    15
 10
2.779040
 20
2.564320
 11
2.783000
 21
3.306160
 12
2.781240
 22
2.592040
 13
2.785640
 23
3.333880
  0
POLYLINE
  8
0
  6
CONTINUOUS
 66
     1
 40
0.000000
 41
0.000000
  0
VERTEX
  8
0
  6
CONTINUOUS
 10
2.779040
 20
2.564320
  0
VERTEX
  8
0
  6
CONTINUOUS
 10
2.783000
 20
3.306160
  0
VERTEX
  8
0
  6
CONTINUOUS
 10
2.785640
 20
3.333880
  0
VERTEX
  8
0
  6
CONTINUOUS
 10
2.781240
 20
2.592040
  0
VERTEX
  8
0
  6
CONTINUOUS
 10
2.779040
 20
2.564320
  0
SEQEND
  8
0
  0
SOLID
  8
0
 62
    15
 10
2.781240
 20
2.592040
 11
2.785640
 21
3.333880
 12
2.788280
 22
2.616680
 13
2.792240
 23
3.358520
  0
POLYLINE
  8
0
  6
CONTINUOUS
 66
     1
 40
0.000000
 41
0.000000
  0
VERTEX
  8
0
  6
CONTINUOUS
 10
2.781240
 20
2.592040
  0
VERTEX
  8
0
  6
CONTINUOUS
 10
2.785640
 20
3.333880
  0
VERTEX
  8
0
  6
CONTINUOUS
 10
2.792240
 20
3.358520
  0
VERTEX
  8
0
  6
CONTINUOUS
 10
2.788280
 20
2.616680
  0
VERTEX
  8
0
  6
CONTINUOUS
 10
2.781240
 20
2.592040
  0
SEQEND
  8
0
  0
SOLID
  8
0
 62
    15
 10
2.788280
 20
2.616680
 11
2.792240
 21
3.358520
 12
2.798840
 22
2.637800
 13
2.802800
 23
3.379640
  0
POLYLINE
  8
0
  6
CONTINUOUS
 66
     1
 40
0.000000
 41
0.000000
  0
VERTEX
  8
0
  6
CONTINUOUS
 10
2.788280
 20
2.616680
  0
VERTEX
  8
0
  6
CONTINUOUS
 10
2.792240
 20
3.358520
  0
VERTEX
  8
0
  6
CONTINUOUS
 10
2.802800
 20
3.379640
  0
VERTEX
  8
0
  6
CONTINUOUS
 10
2.798840
 20
2.637800
  0
VERTEX
  8
0
  6
CONTINUOUS
 10
2.788280
 20
2.616680
  0
SEQEND
  8
0
  0
SOLID
  8
0
 62
    15
 10
2.798840
 20
2.637800
 11
2.802800
 21
3.379640
 12
2.812480
 22
2.655400
 13
2.816440
 23
3.397240
  0
POLYLINE
  8
0
  6
CONTINUOUS
 66
     1
 40
0.000000
 41
0.000000
  0
VERTEX
  8
0
  6
CONTINUOUS
 10
2.798840
 20
2.637800
  0
VERTEX
  8
0
  6
CONTINUOUS
 10
2.802800
 20
3.379640
  0
VERTEX
  8
0
  6
CONTINUOUS
 10
2.816440
 20
3.397240
  0
VERTEX
  8
0
  6
CONTINUOUS
 10
2.812480
 20
2.655400
  0
VERTEX
  8
0
  6
CONTINUOUS
 10
2.798840
 20
2.637800
  0
SEQEND
  8
0
  0
SOLID
  8
0
 62
    15
 10
2.812480
 20
2.655400
 11
2.816440
 21
3.397240
 12
2.828760
 22
2.669480
 13
2.832720
 23
3.411320
  0
POLYLINE
  8
0
  6
CONTINUOUS
 66
     1
 40
0.000000
 41
0.000000
  0
VERTEX
  8
0
  6
CONTINUOUS
 10
2.812480
 20
2.655400
  0
VERTEX
  8
0
  6
CONTINUOUS
 10
2.816440
 20
3.397240
  0
VERTEX
  8
0
  6
CONTINUOUS
 10
2.832720
 20
3.411320
  0
VERTEX
  8
0
  6
CONTINUOUS
 10
2.828760
 20
2.669480
  0
VERTEX
  8
0
  6
CONTINUOUS
 10
2.812480
 20
2.655400
  0
SEQEND
  8
0
  0
SOLID
  8
0
 62
    15
 10
2.828760
 20
2.669480
 11
2.832720
 21
3.411320
 12
2.846800
 22
2.679600
 13
2.851200
 23
3.421440
  0
POLYLINE
  8
0
  6
CONTINUOUS
 66
     1
 40
0.000000
 41
0.000000
  0
VERTEX
  8
0
  6
CONTINUOUS
 10
2.828760
 20
2.669480
  0
VERTEX
  8
0
  6
CONTINUOUS
 10
2.832720
 20
3.411320
  0
VERTEX
  8
0
  6
CONTINUOUS
 10
2.851200
 20
3.421440
  0
VERTEX
  8
0
  6
CONTINUOUS
 10
2.846800
 20
2.679600
  0
VERTEX
  8
0
  6
CONTINUOUS
 10
2.828760
 20
2.669480
  0
SEQEND
  8
0
  0
SOLID
  8
0
 62
    15
 10
2.846800
 20
2.679600
 11
2.851200
 21
3.421440
 12
2.866160
 22
2.686200
 13
2.870120
 23
3.428040
  0
POLYLINE
  8
0
  6
CONTINUOUS
 66
     1
 40
0.000000
 41
0.000000
  0
VERTEX
  8
0
  6
CONTINUOUS
 10
2.846800
 20
2.679600
  0
VERTEX
  8
0
  6
CONTINUOUS
 10
2.851200
 20
3.421440
  0
VERTEX
  8
0
  6
CONTINUOUS
 10
2.870120
 20
3.428040
  0
VERTEX
  8
0
  6
CONTINUOUS
 10
2.866160
 20
2.686200
  0
VERTEX
  8
0
  6
CONTINUOUS
 10
2.846800
 20
2.679600
  0
SEQEND
  8
0
  0
SOLID
  8
0
 62
    15
 10
2.866160
 20
2.686200
 11
2.870120
 21
3.428040
 12
2.885960
 22
2.688400
 13
2.890360
 23
3.430680
  0
POLYLINE
  8
0
  6
CONTINUOUS
 66
     1
 40
0.000000
 41
0.000000
  0
VERTEX
  8
0
  6
CONTINUOUS
 10
2.866160
 20
2.686200
  0
VERTEX
  8
0
  6
CONTINUOUS
 10
2.870120
 20
3.428040
  0
VERTEX
  8
0
  6
CONTINUOUS
 10
2.890360
 20
3.430680
  0
VERTEX
  8
0
  6
CONTINUOUS
 10
2.885960
 20
2.688400
  0
VERTEX
  8
0
  6
CONTINUOUS
 10
2.866160
 20
2.686200
  0
SEQEND
  8
0
  0
SOLID
  8
0
 62
    15
 10
2.885960
 20
2.688400
 11
2.890360
 21
3.430680
 12
2.906200
 22
2.687080
 13
2.910160
 23
3.428920
  0
POLYLINE
  8
0
  6
CONTINUOUS
 66
     1
 40
0.000000
 41
0.000000
  0
VERTEX
  8
0
  6
CONTINUOUS
 10
2.885960
 20
2.688400
  0
VERTEX
  8
0
  6
CONTINUOUS
 10
2.890360
 20
3.430680
  0
VERTEX
  8
0
  6
CONTINUOUS
 10
2.910160
 20
3.428920
  0
VERTEX
  8
0
  6
CONTINUOUS
 10
2.906200
 20
2.687080
  0
VERTEX
  8
0
  6
CONTINUOUS
 10
2.885960
 20
2.688400
  0
SEQEND
  8
0
  0
SOLID
  8
0
 62
    15
 10
2.906200
 20
2.687080
 11
2.910160
 21
3.428920
 12
2.925120
 22
2.681360
 13
2.929520
 23
3.423200
  0
POLYLINE
  8
0
  6
CONTINUOUS
 66
     1
 40
0.000000
 41
0.000000
  0
VERTEX
  8
0
  6
CONTINUOUS
 10
2.906200
 20
2.687080
  0
VERTEX
  8
0
  6
CONTINUOUS
 10
2.910160
 20
3.428920
  0
VERTEX
  8
0
  6
CONTINUOUS
 10
2.929520
 20
3.423200
  0
VERTEX
  8
0
  6
CONTINUOUS
 10
2.925120
 20
2.681360
  0
VERTEX
  8
0
  6
CONTINUOUS
 10
2.906200
 20
2.687080
  0
SEQEND
  8
0
  0
SOLID
  8
0
 62
    15
 10
2.925120
 20
2.681360
 11
2.929520
 21
3.423200
 12
2.943600
 22
2.671680
 13
2.947560
 23
3.413520
  0
POLYLINE
  8
0
  6
CONTINUOUS
 66
     1
 40
0.000000
 41
0.000000
  0
VERTEX
  8
0
  6
CONTINUOUS
 10
2.925120
 20
2.681360
  0
VERTEX
  8
0
  6
CONTINUOUS
 10
2.929520
 20
3.423200
  0
VERTEX
  8
0
  6
CONTINUOUS
 10
2.947560
 20
3.413520
  0
VERTEX
  8
0
  6
CONTINUOUS
 10
2.943600
 20
2.671680
  0
VERTEX
  8
0
  6
CONTINUOUS
 10
2.925120
 20
2.681360
  0
SEQEND
  8
0
  0
SOLID
  8
0
 62
    15
 10
2.943600
 20
2.671680
 11
2.947560
 21
3.413520
 12
2.959440
 22
2.657600
 13
2.963840
 23
3.399440
  0
POLYLINE
  8
0
  6
CONTINUOUS
 66
     1
 40
0.000000
 41
0.000000
  0
VERTEX
  8
0
  6
CONTINUOUS
 10
2.943600
 20
2.671680
  0
VERTEX
  8
0
  6
CONTINUOUS
 10
2.947560
 20
3.413520
  0
VERTEX
  8
0
  6
CONTINUOUS
 10
2.963840
 20
3.399440
  0
VERTEX
  8
0
  6
CONTINUOUS
 10
2.959440
 20
2.657600
  0
VERTEX
  8
0
  6
CONTINUOUS
 10
2.943600
 20
2.671680
  0
SEQEND
  8
0
  0
SOLID
  8
0
 62
    15
 10
2.959440
 20
2.657600
 11
2.963840
 21
3.399440
 12
2.973520
 22
2.638680
 13
2.977480
 23
3.380960
  0
POLYLINE
  8
0
  6
CONTINUOUS
 66
     1
 40
0.000000
 41
0.000000
  0
VERTEX
  8
0
  6
CONTINUOUS
 10
2.959440
 20
2.657600
  0
VERTEX
  8
0
  6
CONTINUOUS
 10
2.963840
 20
3.399440
  0
VERTEX
  8
0
  6
CONTINUOUS
 10
2.977480
 20
3.380960
  0
VERTEX
  8
0
  6
CONTINUOUS
 10
2.973520
 20
2.638680
  0
VERTEX
  8
0
  6
CONTINUOUS
 10
2.959440
 20
2.657600
  0
SEQEND
  8
0
  0
SOLID
  8
0
 62
    15
 10
2.973520
 20
2.638680
 11
2.977480
 21
3.380960
 12
2.984080
 22
2.615800
 13
2.988040
 23
3.357640
  0
POLYLINE
  8
0
  6
CONTINUOUS
 66
     1
 40
0.000000
 41
0.000000
  0
VERTEX
  8
0
  6
CONTINUOUS
 10
2.973520
 20
2.638680
  0
VERTEX
  8
0
  6
CONTINUOUS
 10
2.977480
 20
3.380960
  0
VERTEX
  8
0
  6
CONTINUOUS
 10
2.988040
 20
3.357640
  0
VERTEX
  8
0
  6
CONTINUOUS
 10
2.984080
 20
2.615800
  0
VERTEX
  8
0
  6
CONTINUOUS
 10
2.973520
 20
2.638680
  0
SEQEND
  8
0
  0
SOLID
  8
0
 62
    15
 10
2.984080
 20
2.615800
 11
2.988040
 21
3.357640
 12
2.990680
 22
2.588080
 13
2.995080
 23
3.329920
  0
POLYLINE
  8
0
  6
CONTINUOUS
 66
     1
 40
0.000000
 41
0.000000
  0
VERTEX
  8
0
  6
CONTINUOUS
 10
2.984080
 20
2.615800
  0
VERTEX
  8
0
  6
CONTINUOUS
 10
2.988040
 20
3.357640
  0
VERTEX
  8
0
  6
CONTINUOUS
 10
2.995080
 20
3.329920
  0
VERTEX
  8
0
  6
CONTINUOUS
 10
2.990680
 20
2.588080
  0
VERTEX
  8
0
  6
CONTINUOUS
 10
2.984080
 20
2.615800
  0
SEQEND
  8
0
  0
SOLID
  8
0
 62
    15
 10
2.990680
 20
2.588080
 11
2.995080
 21
3.329920
 12
2.993320
 22
2.555520
 13
2.997280
 23
3.297800
  0
POLYLINE
  8
0
  6
CONTINUOUS
 66
     1
 40
0.000000
 41
0.000000
  0
VERTEX
  8
0
  6
CONTINUOUS
 10
2.990680
 20
2.588080
  0
VERTEX
  8
0
  6
CONTINUOUS
 10
2.995080
 20
3.329920
  0
VERTEX
  8
0
  6
CONTINUOUS
 10
2.997280
 20
3.297800
  0
VERTEX
  8
0
  6
CONTINUOUS
 10
2.993320
 20
2.555520
  0
VERTEX
  8
0
  6
CONTINUOUS
 10
2.990680
 20
2.588080
  0
SEQEND
  8
0
  0
SOLID
  8
0
 62
    15
 10
3.218600
 20
2.555520
 11
3.223000
 21
3.297800
 12
3.218600
 22
2.441560
 13
3.223000
 23
3.183400
  0
POLYLINE
  8
0
  6
CONTINUOUS
 66
     1
 40
0.000000
 41
0.000000
  0
VERTEX
  8
0
  6
CONTINUOUS
 10
3.218600
 20
2.555520
  0
VERTEX
  8
0
  6
CONTINUOUS
 10
3.223000
 20
3.297800
  0
VERTEX
  8
0
  6
CONTINUOUS
 10
3.223000
 20
3.183400
  0
VERTEX
  8
0
  6
CONTINUOUS
 10
3.218600
 20
2.441560
  0
VERTEX
  8
0
  6
CONTINUOUS
 10
3.218600
 20
2.555520
  0
SEQEND
  8
0
  0
SOLID
  8
0
 62
    15
 10
2.993320
 20
2.555520
 11
2.997280
 21
3.297800
 12
3.218600
 22
2.555520
 13
3.223000
 23
3.297800
  0
POLYLINE
  8
0
  6
CONTINUOUS
 66
     1
 40
0.000000
 41
0.000000
  0
VERTEX
  8
0
  6
CONTINUOUS
 10
2.993320
 20
2.555520
  0
VERTEX
  8
0
  6
CONTINUOUS
 10
2.997280
 20
3.297800
  0
VERTEX
  8
0
  6
CONTINUOUS
 10
3.223000
 20
3.297800
  0
VERTEX
  8
0
  6
CONTINUOUS
 10
3.218600
 20
2.555520
  0
VERTEX
  8
0
  6
CONTINUOUS
 10
2.993320
 20
2.555520
  0
SEQEND
  8
0
  0
SOLID
  8
0
 62
    15
 10
1.958880
 20
2.864400
 11
1.963280
 21
3.606240
 12
2.190320
 22
2.864400
 13
2.194720
 23
3.606240
  0
POLYLINE
  8
0
  6
CONTINUOUS
 66
     1
 40
0.000000
 41
0.000000
  0
VERTEX
  8
0
  6
CONTINUOUS
 10
1.958880
 20
2.864400
  0
VERTEX
  8
0
  6
CONTINUOUS
 10
1.963280
 20
3.606240
  0
VERTEX
  8
0
  6
CONTINUOUS
 10
2.194720
 20
3.606240
  0
VERTEX
  8
0
  6
CONTINUOUS
 10
2.190320
 20
2.864400
  0
VERTEX
  8
0
  6
CONTINUOUS
 10
1.958880
 20
2.864400
  0
SEQEND
  8
0
  0
POLYLINE
  8
0
  6
CONTINUOUS
 66
     1
 40
0.000000
 41
0.000000
  0
VERTEX
  8
0
  6
CONTINUOUS
 10
2.190320
 20
2.864400
  0
VERTEX
  8
0
  6
CONTINUOUS
 10
2.196480
 20
2.833600
  0
VERTEX
  8
0
  6
CONTINUOUS
 10
2.204400
 20
2.803680
  0
VERTEX
  8
0
  6
CONTINUOUS
 10
2.214520
 20
2.775080
  0
VERTEX
  8
0
  6
CONTINUOUS
 10
2.227720
 20
2.747360
  0
VERTEX
  8
0
  6
CONTINUOUS
 10
2.244000
 20
2.721400
  0
VERTEX
  8
0
  6
CONTINUOUS
 10
2.264240
 20
2.696320
  0
VERTEX
  8
0
  6
CONTINUOUS
 10
2.288440
 20
2.673440
  0
VERTEX
  8
0
  6
CONTINUOUS
 10
2.317480
 20
2.652320
  0
VERTEX
  8
0
  6
CONTINUOUS
 10
2.351800
 20
2.632960
  0
VERTEX
  8
0
  6
CONTINUOUS
 10
2.391840
 20
2.615360
  0
VERTEX
  8
0
  6
CONTINUOUS
 10
2.438040
 20
2.600400
  0
VERTEX
  8
0
  6
CONTINUOUS
 10
2.490840
 20
2.588080
  0
VERTEX
  8
0
  6
CONTINUOUS
 10
2.519880
 20
2.582360
  0
VERTEX
  8
0
  6
CONTINUOUS
 10
2.551120
 20
2.577960
  0
VERTEX
  8
0
  6
CONTINUOUS
 10
2.583680
 20
2.573560
  0
VERTEX
  8
0
  6
CONTINUOUS
 10
2.618440
 20
2.570480
  0
VERTEX
  8
0
  6
CONTINUOUS
 10
2.655400
 20
2.567840
  0
VERTEX
  8
0
  6
CONTINUOUS
 10
2.694560
 20
2.565640
  0
VERTEX
  8
0
  6
CONTINUOUS
 10
2.735480
 20
2.564760
  0
VERTEX
  8
0
  6
CONTINUOUS
 10
2.779040
 20
2.564320
  0
VERTEX
  8
0
  6
CONTINUOUS
 10
2.781240
 20
2.592040
  0
VERTEX
  8
0
  6
CONTINUOUS
 10
2.788280
 20
2.616680
  0
VERTEX
  8
0
  6
CONTINUOUS
 10
2.798840
 20
2.637800
  0
VERTEX
  8
0
  6
CONTINUOUS
 10
2.812480
 20
2.655400
  0
VERTEX
  8
0
  6
CONTINUOUS
 10
2.828760
 20
2.669480
  0
VERTEX
  8
0
  6
CONTINUOUS
 10
2.846800
 20
2.679600
  0
VERTEX
  8
0
  6
CONTINUOUS
 10
2.866160
 20
2.686200
  0
VERTEX
  8
0
  6
CONTINUOUS
 10
2.885960
 20
2.688400
  0
VERTEX
  8
0
  6
CONTINUOUS
 10
2.906200
 20
2.687080
  0
VERTEX
  8
0
  6
CONTINUOUS
 10
2.925120
 20
2.681360
  0
VERTEX
  8
0
  6
CONTINUOUS
 10
2.943600
 20
2.671680
  0
VERTEX
  8
0
  6
CONTINUOUS
 10
2.959440
 20
2.657600
  0
VERTEX
  8
0
  6
CONTINUOUS
 10
2.973520
 20
2.638680
  0
VERTEX
  8
0
  6
CONTINUOUS
 10
2.984080
 20
2.615800
  0
VERTEX
  8
0
  6
CONTINUOUS
 10
2.990680
 20
2.588080
  0
VERTEX
  8
0
  6
CONTINUOUS
 10
2.993320
 20
2.555520
  0
VERTEX
  8
0
  6
CONTINUOUS
 10
3.218600
 20
2.555520
  0
VERTEX
  8
0
  6
CONTINUOUS
 10
3.218600
 20
2.441560
  0
VERTEX
  8
0
  6
CONTINUOUS
 10
1.958880
 20
2.441560
  0
VERTEX
  8
0
  6
CONTINUOUS
 10
1.958880
 20
2.864400
  0
VERTEX
  8
0
  6
CONTINUOUS
 10
2.190320
 20
2.864400
  0
SEQEND
  8
0
  0
TEXT
  8
0
 10
2.250160
 20
2.201320
 40
0.138139
  1
BA  1099
 41
1.000000
  7
SN0
 71
     0
 72
     5
 11
2.933173
 21
2.201320
  0
TEXT
  8
0
 10
2.080760
 20
2.009920
 40
0.138139
  1
7/16" X 1-1/4"
 41
1.000000
  7
SN0
 71
     0
 72
     5
 11
3.102370
 21
2.009920
  0
POLYLINE
  8
0
  6
CONTINUOUS
 66
     1
 40
0.014080
 41
0.014080
  0
VERTEX
  8
0
  6
CONTINUOUS
 10
3.985960
 20
3.138960
  0
VERTEX
  8
0
  6
CONTINUOUS
 10
3.992120
 20
3.108160
  0
VERTEX
  8
0
  6
CONTINUOUS
 10
4.004880
 20
3.064160
  0
VERTEX
  8
0
  6
CONTINUOUS
 10
4.016320
 20
3.036000
  0
VERTEX
  8
0
  6
CONTINUOUS
 10
4.030840
 20
3.009160
  0
VERTEX
  8
0
  6
CONTINUOUS
 10
4.048880
 20
2.983640
  0
VERTEX
  8
0
  6
CONTINUOUS
 10
4.071320
 20
2.959440
  0
VERTEX
  8
0
  6
CONTINUOUS
 10
4.097720
 20
2.937440
  0
VERTEX
  8
0
  6
CONTINUOUS
 10
4.129400
 20
2.916760
  0
VERTEX
  8
0
  6
CONTINUOUS
 10
4.166360
 20
2.898720
  0
VERTEX
  8
0
  6
CONTINUOUS
 10
4.209480
 20
2.882440
  0
VERTEX
  8
0
  6
CONTINUOUS
 10
4.258760
 20
2.868360
  0
VERTEX
  8
0
  6
CONTINUOUS
 10
4.315520
 20
2.856920
  0
VERTEX
  8
0
  6
CONTINUOUS
 10
4.414080
 20
2.845040
  0
VERTEX
  8
0
  6
CONTINUOUS
 10
4.489760
 20
2.840640
  0
VERTEX
  8
0
  6
CONTINUOUS
 10
4.574240
 20
2.838880
  0
VERTEX
  8
0
  6
CONTINUOUS
 10
4.574680
 20
2.853400
  0
VERTEX
  8
0
  6
CONTINUOUS
 10
4.579520
 20
2.879360
  0
VERTEX
  8
0
  6
CONTINUOUS
 10
4.588320
 20
2.902240
  0
VERTEX
  8
0
  6
CONTINUOUS
 10
4.600640
 20
2.921600
  0
VERTEX
  8
0
  6
CONTINUOUS
 10
4.615600
 20
2.937440
  0
VERTEX
  8
0
  6
CONTINUOUS
 10
4.632760
 20
2.949760
  0
VERTEX
  8
0
  6
CONTINUOUS
 10
4.651680
 20
2.958120
  0
VERTEX
  8
0
  6
CONTINUOUS
 10
4.671480
 20
2.962520
  0
VERTEX
  8
0
  6
CONTINUOUS
 10
4.691280
 20
2.962960
  0
VERTEX
  8
0
  6
CONTINUOUS
 10
4.711080
 20
2.959440
  0
VERTEX
  8
0
  6
CONTINUOUS
 10
4.730000
 20
2.951960
  0
VERTEX
  8
0
  6
CONTINUOUS
 10
4.747160
 20
2.939640
  0
VERTEX
  8
0
  6
CONTINUOUS
 10
4.762120
 20
2.923360
  0
VERTEX
  8
0
  6
CONTINUOUS
 10
4.774440
 20
2.902680
  0
VERTEX
  8
0
  6
CONTINUOUS
 10
4.783240
 20
2.877160
  0
VERTEX
  8
0
  6
CONTINUOUS
 10
4.786320
 20
2.863080
  0
VERTEX
  8
0
  6
CONTINUOUS
 10
4.788520
 20
2.830520
  0
VERTEX
  8
0
  6
CONTINUOUS
 10
5.014240
 20
2.830520
  0
VERTEX
  8
0
  6
CONTINUOUS
 10
5.014240
 20
2.716120
  0
VERTEX
  8
0
  6
CONTINUOUS
 10
3.754520
 20
2.716120
  0
VERTEX
  8
0
  6
CONTINUOUS
 10
3.754520
 20
3.138960
  0
VERTEX
  8
0
  6
CONTINUOUS
 10
3.985960
 20
3.138960
  0
SEQEND
  8
0
  0
TEXT
  8
0
 10
4.026440
 20
2.513720
 40
0.138139
  1
BA  1099
 41
1.000000
  7
SN0
 71
     0
 72
     5
 11
4.709453
 21
2.513720
  0
TEXT
  8
0
 10
3.856600
 20
2.322320
 40
0.138139
  1
7/16" X 1-1/4"
 41
1.000000
  7
SN0
 71
     0
 72
     5
 11
4.878210
 21
2.322320
  0
ENDSEC
  0
EOF
