  0
SECTION
  2
HEADER
  9
$ACADVER
  1
AC1006
  9
$EXTMIN
 10
1.537360
 20
2.727120
  9
$EXTMAX
 10
6.860040
 20
7.112600
  9
$LTSCALE
 40
0.044000
  9
$PDMODE
 70
    35
  9
$PDSIZE
 40
0.035200
  0
ENDSEC
  0
SECTION
  2
TABLES
  0
TABLE
  2
LTYPE
 70
     9
  0
LTYPE
  2
CONTINUOUS
 70
    64
  3
Solid line
 72
    65
 73
     0
 40
0.000000
  0
LTYPE
  2
DASHED
 70
    64
  3
__ __ __ __ __ __ __ __ __ __ __ __ __ __ __
 72
    65
 73
     2
 40
0.000330
 49
0.000220
 49
-0.000110
  0
LTYPE
  2
HIDDEN
 70
    64
  3
 _ _ _ _ _ _ _ _ _ _ _ _ _ _ _ _ _ _ _ _ _ _
 72
    65
 73
     2
 40
0.000165
 49
0.000110
 49
-0.000055
  0
LTYPE
  2
CENTER
 70
    64
  3
____ _ ____ _ ____ _ ____ _ ____ _ ____ _ ____
 72
    65
 73
     4
 40
0.000880
 49
0.000550
 49
-0.000110
 49
0.000110
 49
-0.000110
  0
LTYPE
  2
PHANTOM
 70
    64
  3
_____ _ _ _____ _ _ _____ _ _ _____ _ _ ____
 72
    65
 73
     6
 40
0.001100
 49
0.000550
 49
-0.000110
 49
0.000110
 49
-0.000110
 49
0.000110
 49
-0.000110
  0
LTYPE
  2
DOT
 70
    64
  3
...............................................
 72
    65
 73
     2
 40
0.000110
 49
0.000000
 49
-0.000110
  0
LTYPE
  2
DASHDOT
 70
    64
  3
__ . __ . __ . __ . __ . __ . __ . __ . __ . __
 72
    65
 73
     4
 40
0.000440
 49
0.000220
 49
-0.000110
 49
0.000000
 49
-0.000110
  0
LTYPE
  2
BORDER
 70
    64
  3
__ __ . __ __ . __ __ . __ __ . __ __ . __ __
 72
    65
 73
     6
 40
0.000770
 49
0.000220
 49
-0.000110
 49
0.000220
 49
-0.000110
 49
0.000000
 49
-0.000110
  0
LTYPE
  2
DIVIDE
 70
    64
  3
__ . . __ . . __ . . __ . . __ . . __ . . __
 72
    65
 73
     6
 40
0.000550
 49
0.000220
 49
-0.000110
 49
0.000000
 49
-0.000110
 49
0.000000
 49
-0.000110
  0
LTYPE
  2
DOTDOT
 70
    64
  3
 . .  . .  . .  . .  . .  . . 
 72
    65
 73
     5
 40
0.000242
 49
-0.000110
 49
0.000000
 49
-0.000110
 49
0.000000
 49
-0.000110
  0
ENDTAB
  0
TABLE
  2
STYLE
 70
     2
  0
STYLE
 70
     0
  2
SN0
 40
0.000000
 41
0.000440
 50
0.000000
 71
     0
 42
0.000000
  3
ROMAND
  0
STYLE
 70
    68
  2
SV0
 40
0.000000
 41
0.000440
 50
0.000000
 71
     0
 42
0.000000
  3
ROMAND
  0
ENDTAB
  0
TABLE
  2
LAYER
 70
     3
  0
LAYER
  2
FOREGROUND
 70
    64
 62
     7
  6
CONTINUOUS
  0
LAYER
  2
BACKGROUND
 70
    65
 62
    -7
  6
CONTINUOUS
  0
LAYER
  2
0
 70
    64
 62
     7
  6
CONTINUOUS
  0
ENDTAB
  0
ENDSEC
  0
SECTION
  2
ENTITIES
  0
POLYLINE
  8
FOREGROUND
  6
CONTINUOUS
 66
     1
 40
0.000000
 41
0.000000
  0
VERTEX
  8
FOREGROUND
  6
CONTINUOUS
 10
0.000000
 20
9.839720
  0
VERTEX
  8
FOREGROUND
  6
CONTINUOUS
 10
8.499920
 20
9.839720
  0
VERTEX
  8
FOREGROUND
  6
CONTINUOUS
 10
8.499920
 20
-1.160280
  0
VERTEX
  8
FOREGROUND
  6
CONTINUOUS
 10
0.000000
 20
-1.160280
  0
VERTEX
  8
FOREGROUND
  6
CONTINUOUS
 10
0.000000
 20
9.839720
  0
SEQEND
  8
0
  0
POLYLINE
  8
FOREGROUND
  6
CONTINUOUS
 66
     1
 40
0.000000
 41
0.000000
  0
VERTEX
  8
FOREGROUND
  6
CONTINUOUS
 10
0.000000
 20
9.839720
  0
VERTEX
  8
FOREGROUND
  6
CONTINUOUS
 10
8.499920
 20
9.839720
  0
VERTEX
  8
FOREGROUND
  6
CONTINUOUS
 10
8.499920
 20
-1.160280
  0
VERTEX
  8
FOREGROUND
  6
CONTINUOUS
 10
0.000000
 20
-1.160280
  0
VERTEX
  8
FOREGROUND
  6
CONTINUOUS
 10
0.000000
 20
9.839720
  0
SEQEND
  8
0
  0
SOLID
  8
0
 62
    15
 10
6.507160
 20
3.628680
 11
6.510240
 21
4.379320
 12
6.557320
 22
3.602280
 13
6.560400
 23
4.353360
  0
POLYLINE
  8
0
  6
CONTINUOUS
 66
     1
 40
0.000000
 41
0.000000
  0
VERTEX
  8
0
  6
CONTINUOUS
 10
6.507160
 20
3.628680
  0
VERTEX
  8
0
  6
CONTINUOUS
 10
6.510240
 20
4.379320
  0
VERTEX
  8
0
  6
CONTINUOUS
 10
6.560400
 20
4.353360
  0
VERTEX
  8
0
  6
CONTINUOUS
 10
6.557320
 20
3.602280
  0
VERTEX
  8
0
  6
CONTINUOUS
 10
6.507160
 20
3.628680
  0
SEQEND
  8
0
  0
SOLID
  8
0
 62
    15
 10
2.443760
 20
4.473040
 11
2.446840
 21
5.223680
 12
3.573680
 22
3.970560
 13
3.576760
 23
4.721640
  0
POLYLINE
  8
0
  6
CONTINUOUS
 66
     1
 40
0.000000
 41
0.000000
  0
VERTEX
  8
0
  6
CONTINUOUS
 10
2.443760
 20
4.473040
  0
VERTEX
  8
0
  6
CONTINUOUS
 10
2.446840
 20
5.223680
  0
VERTEX
  8
0
  6
CONTINUOUS
 10
3.576760
 20
4.721640
  0
VERTEX
  8
0
  6
CONTINUOUS
 10
3.573680
 20
3.970560
  0
VERTEX
  8
0
  6
CONTINUOUS
 10
2.443760
 20
4.473040
  0
SEQEND
  8
0
  0
SOLID
  8
0
 62
    15
 10
6.174520
 20
3.692480
 11
6.177600
 21
4.443560
 12
6.279240
 22
3.685000
 13
6.282320
 23
4.435640
  0
POLYLINE
  8
0
  6
CONTINUOUS
 66
     1
 40
0.000000
 41
0.000000
  0
VERTEX
  8
0
  6
CONTINUOUS
 10
6.174520
 20
3.692480
  0
VERTEX
  8
0
  6
CONTINUOUS
 10
6.177600
 20
4.443560
  0
VERTEX
  8
0
  6
CONTINUOUS
 10
6.282320
 20
4.435640
  0
VERTEX
  8
0
  6
CONTINUOUS
 10
6.279240
 20
3.685000
  0
VERTEX
  8
0
  6
CONTINUOUS
 10
6.174520
 20
3.692480
  0
SEQEND
  8
0
  0
SOLID
  8
0
 62
    15
 10
6.174520
 20
3.818320
 11
6.177600
 21
4.568960
 12
6.174520
 22
3.692480
 13
6.177600
 23
4.443560
  0
POLYLINE
  8
0
  6
CONTINUOUS
 66
     1
 40
0.000000
 41
0.000000
  0
VERTEX
  8
0
  6
CONTINUOUS
 10
6.174520
 20
3.818320
  0
VERTEX
  8
0
  6
CONTINUOUS
 10
6.177600
 20
4.568960
  0
VERTEX
  8
0
  6
CONTINUOUS
 10
6.177600
 20
4.443560
  0
VERTEX
  8
0
  6
CONTINUOUS
 10
6.174520
 20
3.692480
  0
VERTEX
  8
0
  6
CONTINUOUS
 10
6.174520
 20
3.818320
  0
SEQEND
  8
0
  0
SOLID
  8
0
 62
    15
 10
4.972880
 20
3.818320
 11
4.975960
 21
4.568960
 12
6.174520
 22
3.818320
 13
6.177600
 23
4.568960
  0
POLYLINE
  8
0
  6
CONTINUOUS
 66
     1
 40
0.000000
 41
0.000000
  0
VERTEX
  8
0
  6
CONTINUOUS
 10
4.972880
 20
3.818320
  0
VERTEX
  8
0
  6
CONTINUOUS
 10
4.975960
 20
4.568960
  0
VERTEX
  8
0
  6
CONTINUOUS
 10
6.177600
 20
4.568960
  0
VERTEX
  8
0
  6
CONTINUOUS
 10
6.174520
 20
3.818320
  0
VERTEX
  8
0
  6
CONTINUOUS
 10
4.972880
 20
3.818320
  0
SEQEND
  8
0
  0
SOLID
  8
0
 62
    15
 10
4.972880
 20
3.970560
 11
4.975960
 21
4.721640
 12
4.972880
 22
3.818320
 13
4.975960
 23
4.568960
  0
POLYLINE
  8
0
  6
CONTINUOUS
 66
     1
 40
0.000000
 41
0.000000
  0
VERTEX
  8
0
  6
CONTINUOUS
 10
4.972880
 20
3.970560
  0
VERTEX
  8
0
  6
CONTINUOUS
 10
4.975960
 20
4.721640
  0
VERTEX
  8
0
  6
CONTINUOUS
 10
4.975960
 20
4.568960
  0
VERTEX
  8
0
  6
CONTINUOUS
 10
4.972880
 20
3.818320
  0
VERTEX
  8
0
  6
CONTINUOUS
 10
4.972880
 20
3.970560
  0
SEQEND
  8
0
  0
SOLID
  8
0
 62
    15
 10
3.573680
 20
3.970560
 11
3.576760
 21
4.721640
 12
4.972880
 22
3.970560
 13
4.975960
 23
4.721640
  0
POLYLINE
  8
0
  6
CONTINUOUS
 66
     1
 40
0.000000
 41
0.000000
  0
VERTEX
  8
0
  6
CONTINUOUS
 10
3.573680
 20
3.970560
  0
VERTEX
  8
0
  6
CONTINUOUS
 10
3.576760
 20
4.721640
  0
VERTEX
  8
0
  6
CONTINUOUS
 10
4.975960
 20
4.721640
  0
VERTEX
  8
0
  6
CONTINUOUS
 10
4.972880
 20
3.970560
  0
VERTEX
  8
0
  6
CONTINUOUS
 10
3.573680
 20
3.970560
  0
SEQEND
  8
0
  0
SOLID
  8
0
 62
    15
 10
6.279240
 20
3.685000
 11
6.282320
 21
4.435640
 12
6.369000
 22
3.670920
 13
6.372080
 23
4.422000
  0
POLYLINE
  8
0
  6
CONTINUOUS
 66
     1
 40
0.000000
 41
0.000000
  0
VERTEX
  8
0
  6
CONTINUOUS
 10
6.279240
 20
3.685000
  0
VERTEX
  8
0
  6
CONTINUOUS
 10
6.282320
 20
4.435640
  0
VERTEX
  8
0
  6
CONTINUOUS
 10
6.372080
 20
4.422000
  0
VERTEX
  8
0
  6
CONTINUOUS
 10
6.369000
 20
3.670920
  0
VERTEX
  8
0
  6
CONTINUOUS
 10
6.279240
 20
3.685000
  0
SEQEND
  8
0
  0
SOLID
  8
0
 62
    15
 10
6.369000
 20
3.670920
 11
6.372080
 21
4.422000
 12
6.444680
 22
3.651560
 13
6.447760
 23
4.402640
  0
POLYLINE
  8
0
  6
CONTINUOUS
 66
     1
 40
0.000000
 41
0.000000
  0
VERTEX
  8
0
  6
CONTINUOUS
 10
6.369000
 20
3.670920
  0
VERTEX
  8
0
  6
CONTINUOUS
 10
6.372080
 20
4.422000
  0
VERTEX
  8
0
  6
CONTINUOUS
 10
6.447760
 20
4.402640
  0
VERTEX
  8
0
  6
CONTINUOUS
 10
6.444680
 20
3.651560
  0
VERTEX
  8
0
  6
CONTINUOUS
 10
6.369000
 20
3.670920
  0
SEQEND
  8
0
  0
SOLID
  8
0
 62
    15
 10
6.444680
 20
3.651560
 11
6.447760
 21
4.402640
 12
6.507160
 22
3.628680
 13
6.510240
 23
4.379320
  0
POLYLINE
  8
0
  6
CONTINUOUS
 66
     1
 40
0.000000
 41
0.000000
  0
VERTEX
  8
0
  6
CONTINUOUS
 10
6.444680
 20
3.651560
  0
VERTEX
  8
0
  6
CONTINUOUS
 10
6.447760
 20
4.402640
  0
VERTEX
  8
0
  6
CONTINUOUS
 10
6.510240
 20
4.379320
  0
VERTEX
  8
0
  6
CONTINUOUS
 10
6.507160
 20
3.628680
  0
VERTEX
  8
0
  6
CONTINUOUS
 10
6.444680
 20
3.651560
  0
SEQEND
  8
0
  0
SOLID
  8
0
 62
    15
 10
1.537800
 20
4.473040
 11
1.540880
 21
5.223680
 12
2.443760
 22
4.473040
 13
2.446840
 23
5.223680
  0
POLYLINE
  8
0
  6
CONTINUOUS
 66
     1
 40
0.000000
 41
0.000000
  0
VERTEX
  8
0
  6
CONTINUOUS
 10
1.537800
 20
4.473040
  0
VERTEX
  8
0
  6
CONTINUOUS
 10
1.540880
 20
5.223680
  0
VERTEX
  8
0
  6
CONTINUOUS
 10
2.446840
 20
5.223680
  0
VERTEX
  8
0
  6
CONTINUOUS
 10
2.443760
 20
4.473040
  0
VERTEX
  8
0
  6
CONTINUOUS
 10
1.537800
 20
4.473040
  0
SEQEND
  8
0
  0
SOLID
  8
0
 62
    15
 10
6.557320
 20
3.602280
 11
6.560400
 21
4.353360
 12
6.595600
 22
3.573680
 13
6.598680
 23
4.324760
  0
POLYLINE
  8
0
  6
CONTINUOUS
 66
     1
 40
0.000000
 41
0.000000
  0
VERTEX
  8
0
  6
CONTINUOUS
 10
6.557320
 20
3.602280
  0
VERTEX
  8
0
  6
CONTINUOUS
 10
6.560400
 20
4.353360
  0
VERTEX
  8
0
  6
CONTINUOUS
 10
6.598680
 20
4.324760
  0
VERTEX
  8
0
  6
CONTINUOUS
 10
6.595600
 20
3.573680
  0
VERTEX
  8
0
  6
CONTINUOUS
 10
6.557320
 20
3.602280
  0
SEQEND
  8
0
  0
SOLID
  8
0
 62
    15
 10
6.595600
 20
3.573680
 11
6.598680
 21
4.324760
 12
6.622880
 22
3.544200
 13
6.625960
 23
4.295280
  0
POLYLINE
  8
0
  6
CONTINUOUS
 66
     1
 40
0.000000
 41
0.000000
  0
VERTEX
  8
0
  6
CONTINUOUS
 10
6.595600
 20
3.573680
  0
VERTEX
  8
0
  6
CONTINUOUS
 10
6.598680
 20
4.324760
  0
VERTEX
  8
0
  6
CONTINUOUS
 10
6.625960
 20
4.295280
  0
VERTEX
  8
0
  6
CONTINUOUS
 10
6.622880
 20
3.544200
  0
VERTEX
  8
0
  6
CONTINUOUS
 10
6.595600
 20
3.573680
  0
SEQEND
  8
0
  0
SOLID
  8
0
 62
    15
 10
6.640040
 20
3.514720
 11
6.643120
 21
4.265800
 12
6.658960
 22
3.466760
 13
6.662040
 23
4.217840
  0
POLYLINE
  8
0
  6
CONTINUOUS
 66
     1
 40
0.000000
 41
0.000000
  0
VERTEX
  8
0
  6
CONTINUOUS
 10
6.640040
 20
3.514720
  0
VERTEX
  8
0
  6
CONTINUOUS
 10
6.643120
 20
4.265800
  0
VERTEX
  8
0
  6
CONTINUOUS
 10
6.662040
 20
4.217840
  0
VERTEX
  8
0
  6
CONTINUOUS
 10
6.658960
 20
3.466760
  0
VERTEX
  8
0
  6
CONTINUOUS
 10
6.640040
 20
3.514720
  0
SEQEND
  8
0
  0
SOLID
  8
0
 62
    15
 10
6.622880
 20
3.544200
 11
6.625960
 21
4.295280
 12
6.640040
 22
3.514720
 13
6.643120
 23
4.265800
  0
POLYLINE
  8
0
  6
CONTINUOUS
 66
     1
 40
0.000000
 41
0.000000
  0
VERTEX
  8
0
  6
CONTINUOUS
 10
6.622880
 20
3.544200
  0
VERTEX
  8
0
  6
CONTINUOUS
 10
6.625960
 20
4.295280
  0
VERTEX
  8
0
  6
CONTINUOUS
 10
6.643120
 20
4.265800
  0
VERTEX
  8
0
  6
CONTINUOUS
 10
6.640040
 20
3.514720
  0
VERTEX
  8
0
  6
CONTINUOUS
 10
6.622880
 20
3.544200
  0
SEQEND
  8
0
  0
SOLID
  8
0
 62
    15
 10
6.672160
 20
3.437720
 11
6.675240
 21
4.188800
 12
6.684040
 22
3.422760
 13
6.687120
 23
4.173840
  0
POLYLINE
  8
0
  6
CONTINUOUS
 66
     1
 40
0.000000
 41
0.000000
  0
VERTEX
  8
0
  6
CONTINUOUS
 10
6.672160
 20
3.437720
  0
VERTEX
  8
0
  6
CONTINUOUS
 10
6.675240
 20
4.188800
  0
VERTEX
  8
0
  6
CONTINUOUS
 10
6.687120
 20
4.173840
  0
VERTEX
  8
0
  6
CONTINUOUS
 10
6.684040
 20
3.422760
  0
VERTEX
  8
0
  6
CONTINUOUS
 10
6.672160
 20
3.437720
  0
SEQEND
  8
0
  0
SOLID
  8
0
 62
    15
 10
6.658960
 20
3.466760
 11
6.662040
 21
4.217840
 12
6.672160
 22
3.437720
 13
6.675240
 23
4.188800
  0
POLYLINE
  8
0
  6
CONTINUOUS
 66
     1
 40
0.000000
 41
0.000000
  0
VERTEX
  8
0
  6
CONTINUOUS
 10
6.658960
 20
3.466760
  0
VERTEX
  8
0
  6
CONTINUOUS
 10
6.662040
 20
4.217840
  0
VERTEX
  8
0
  6
CONTINUOUS
 10
6.675240
 20
4.188800
  0
VERTEX
  8
0
  6
CONTINUOUS
 10
6.672160
 20
3.437720
  0
VERTEX
  8
0
  6
CONTINUOUS
 10
6.658960
 20
3.466760
  0
SEQEND
  8
0
  0
SOLID
  8
0
 62
    15
 10
6.684040
 20
3.422760
 11
6.687120
 21
4.173840
 12
6.701640
 22
3.417040
 13
6.704720
 23
4.168120
  0
POLYLINE
  8
0
  6
CONTINUOUS
 66
     1
 40
0.000000
 41
0.000000
  0
VERTEX
  8
0
  6
CONTINUOUS
 10
6.684040
 20
3.422760
  0
VERTEX
  8
0
  6
CONTINUOUS
 10
6.687120
 20
4.173840
  0
VERTEX
  8
0
  6
CONTINUOUS
 10
6.704720
 20
4.168120
  0
VERTEX
  8
0
  6
CONTINUOUS
 10
6.701640
 20
3.417040
  0
VERTEX
  8
0
  6
CONTINUOUS
 10
6.684040
 20
3.422760
  0
SEQEND
  8
0
  0
SOLID
  8
0
 62
    15
 10
6.809000
 20
3.417040
 11
6.812080
 21
4.168120
 12
6.809000
 22
3.212000
 13
6.812080
 23
3.962640
  0
POLYLINE
  8
0
  6
CONTINUOUS
 66
     1
 40
0.000000
 41
0.000000
  0
VERTEX
  8
0
  6
CONTINUOUS
 10
6.809000
 20
3.417040
  0
VERTEX
  8
0
  6
CONTINUOUS
 10
6.812080
 20
4.168120
  0
VERTEX
  8
0
  6
CONTINUOUS
 10
6.812080
 20
3.962640
  0
VERTEX
  8
0
  6
CONTINUOUS
 10
6.809000
 20
3.212000
  0
VERTEX
  8
0
  6
CONTINUOUS
 10
6.809000
 20
3.417040
  0
SEQEND
  8
0
  0
SOLID
  8
0
 62
    15
 10
6.701640
 20
3.417040
 11
6.704720
 21
4.168120
 12
6.809000
 22
3.417040
 13
6.812080
 23
4.168120
  0
POLYLINE
  8
0
  6
CONTINUOUS
 66
     1
 40
0.000000
 41
0.000000
  0
VERTEX
  8
0
  6
CONTINUOUS
 10
6.701640
 20
3.417040
  0
VERTEX
  8
0
  6
CONTINUOUS
 10
6.704720
 20
4.168120
  0
VERTEX
  8
0
  6
CONTINUOUS
 10
6.812080
 20
4.168120
  0
VERTEX
  8
0
  6
CONTINUOUS
 10
6.809000
 20
3.417040
  0
VERTEX
  8
0
  6
CONTINUOUS
 10
6.701640
 20
3.417040
  0
SEQEND
  8
0
  0
POLYLINE
  8
0
  6
CONTINUOUS
 66
     1
 40
0.000000
 41
0.000000
  0
VERTEX
  8
0
  6
CONTINUOUS
 10
1.537800
 20
4.473040
  0
VERTEX
  8
0
  6
CONTINUOUS
 10
2.443760
 20
4.473040
  0
VERTEX
  8
0
  6
CONTINUOUS
 10
3.573680
 20
3.970560
  0
VERTEX
  8
0
  6
CONTINUOUS
 10
4.972880
 20
3.970560
  0
VERTEX
  8
0
  6
CONTINUOUS
 10
4.972880
 20
3.818320
  0
VERTEX
  8
0
  6
CONTINUOUS
 10
6.174520
 20
3.818320
  0
VERTEX
  8
0
  6
CONTINUOUS
 10
6.174520
 20
3.692480
  0
VERTEX
  8
0
  6
CONTINUOUS
 10
6.279240
 20
3.685000
  0
VERTEX
  8
0
  6
CONTINUOUS
 10
6.369000
 20
3.670920
  0
VERTEX
  8
0
  6
CONTINUOUS
 10
6.444680
 20
3.651560
  0
VERTEX
  8
0
  6
CONTINUOUS
 10
6.507160
 20
3.628680
  0
VERTEX
  8
0
  6
CONTINUOUS
 10
6.557320
 20
3.602280
  0
VERTEX
  8
0
  6
CONTINUOUS
 10
6.595600
 20
3.573680
  0
VERTEX
  8
0
  6
CONTINUOUS
 10
6.622880
 20
3.544200
  0
VERTEX
  8
0
  6
CONTINUOUS
 10
6.640040
 20
3.514720
  0
VERTEX
  8
0
  6
CONTINUOUS
 10
6.658960
 20
3.466760
  0
VERTEX
  8
0
  6
CONTINUOUS
 10
6.672160
 20
3.437720
  0
VERTEX
  8
0
  6
CONTINUOUS
 10
6.684040
 20
3.422760
  0
VERTEX
  8
0
  6
CONTINUOUS
 10
6.701640
 20
3.417040
  0
VERTEX
  8
0
  6
CONTINUOUS
 10
6.809000
 20
3.417040
  0
VERTEX
  8
0
  6
CONTINUOUS
 10
6.809000
 20
3.212000
  0
VERTEX
  8
0
  6
CONTINUOUS
 10
1.537800
 20
3.212000
  0
VERTEX
  8
0
  6
CONTINUOUS
 10
1.537800
 20
4.473040
  0
SEQEND
  8
0
  0
TEXT
  8
0
 10
3.834160
 20
2.963400
 40
0.138084
  1
BA  1098
 41
1.000000
  7
SN0
 71
     0
 72
     5
 11
4.517326
 21
2.963400
  0
TEXT
  8
0
 10
3.650680
 20
2.771560
 40
0.138084
  1
1-1/4" x 5-1/4"
 41
1.000000
  7
SN0
 71
     0
 72
     5
 11
4.700046
 21
2.771560
  0
POLYLINE
  8
0
  6
CONTINUOUS
 66
     1
 40
0.014080
 41
0.014080
  0
VERTEX
  8
0
  6
CONTINUOUS
 10
1.581360
 20
7.104680
  0
VERTEX
  8
0
  6
CONTINUOUS
 10
2.487320
 20
7.104680
  0
VERTEX
  8
0
  6
CONTINUOUS
 10
3.617240
 20
6.602640
  0
VERTEX
  8
0
  6
CONTINUOUS
 10
5.016440
 20
6.602640
  0
VERTEX
  8
0
  6
CONTINUOUS
 10
5.016440
 20
6.449960
  0
VERTEX
  8
0
  6
CONTINUOUS
 10
6.218080
 20
6.449960
  0
VERTEX
  8
0
  6
CONTINUOUS
 10
6.218080
 20
6.324560
  0
VERTEX
  8
0
  6
CONTINUOUS
 10
6.297720
 20
6.319280
  0
VERTEX
  8
0
  6
CONTINUOUS
 10
6.369440
 20
6.310480
  0
VERTEX
  8
0
  6
CONTINUOUS
 10
6.432800
 20
6.298600
  0
VERTEX
  8
0
  6
CONTINUOUS
 10
6.488240
 20
6.283640
  0
VERTEX
  8
0
  6
CONTINUOUS
 10
6.536200
 20
6.266480
  0
VERTEX
  8
0
  6
CONTINUOUS
 10
6.577560
 20
6.247560
  0
VERTEX
  8
0
  6
CONTINUOUS
 10
6.621560
 20
6.219840
  0
VERTEX
  8
0
  6
CONTINUOUS
 10
6.647080
 20
6.198280
  0
VERTEX
  8
0
  6
CONTINUOUS
 10
6.666440
 20
6.175840
  0
VERTEX
  8
0
  6
CONTINUOUS
 10
6.676120
 20
6.161320
  0
VERTEX
  8
0
  6
CONTINUOUS
 10
6.694600
 20
6.119960
  0
VERTEX
  8
0
  6
CONTINUOUS
 10
6.712640
 20
6.075520
  0
VERTEX
  8
0
  6
CONTINUOUS
 10
6.724520
 20
6.057040
  0
VERTEX
  8
0
  6
CONTINUOUS
 10
6.735520
 20
6.050880
  0
VERTEX
  8
0
  6
CONTINUOUS
 10
6.745200
 20
6.048680
  0
VERTEX
  8
0
  6
CONTINUOUS
 10
6.852560
 20
6.048680
  0
VERTEX
  8
0
  6
CONTINUOUS
 10
6.852560
 20
5.843640
  0
VERTEX
  8
0
  6
CONTINUOUS
 10
1.581360
 20
5.843640
  0
VERTEX
  8
0
  6
CONTINUOUS
 10
1.581360
 20
7.104680
  0
SEQEND
  8
0
  0
TEXT
  8
0
 10
3.564000
 20
6.145920
 40
0.138084
  1
BA  1098
 41
1.000000
  7
SN0
 71
     0
 72
     5
 11
4.247166
 21
6.145920
  0
TEXT
  8
0
 10
3.380520
 20
5.954520
 40
0.138084
  1
1-1/4" x 5-1/4"
 41
1.000000
  7
SN0
 71
     0
 72
     5
 11
4.429886
 21
5.954520
  0
ENDSEC
  0
EOF
