  0
SECTION
  2
HEADER
  9
$ACADVER
  1
AC1006
  9
$EXTMIN
 10
1.885840
 20
2.873200
  9
$EXTMAX
 10
6.980160
 20
6.776000
  9
$LTSCALE
 40
0.044000
  9
$PDMODE
 70
    35
  9
$PDSIZE
 40
0.035200
  0
ENDSEC
  0
SECTION
  2
TABLES
  0
TABLE
  2
LTYPE
 70
     9
  0
LTYPE
  2
CONTINUOUS
 70
    64
  3
Solid line
 72
    65
 73
     0
 40
0.000000
  0
LTYPE
  2
DASHED
 70
    64
  3
__ __ __ __ __ __ __ __ __ __ __ __ __ __ __
 72
    65
 73
     2
 40
0.000330
 49
0.000220
 49
-0.000110
  0
LTYPE
  2
HIDDEN
 70
    64
  3
 _ _ _ _ _ _ _ _ _ _ _ _ _ _ _ _ _ _ _ _ _ _
 72
    65
 73
     2
 40
0.000165
 49
0.000110
 49
-0.000055
  0
LTYPE
  2
CENTER
 70
    64
  3
____ _ ____ _ ____ _ ____ _ ____ _ ____ _ ____
 72
    65
 73
     4
 40
0.000880
 49
0.000550
 49
-0.000110
 49
0.000110
 49
-0.000110
  0
LTYPE
  2
PHANTOM
 70
    64
  3
_____ _ _ _____ _ _ _____ _ _ _____ _ _ ____
 72
    65
 73
     6
 40
0.001100
 49
0.000550
 49
-0.000110
 49
0.000110
 49
-0.000110
 49
0.000110
 49
-0.000110
  0
LTYPE
  2
DOT
 70
    64
  3
...............................................
 72
    65
 73
     2
 40
0.000110
 49
0.000000
 49
-0.000110
  0
LTYPE
  2
DASHDOT
 70
    64
  3
__ . __ . __ . __ . __ . __ . __ . __ . __ . __
 72
    65
 73
     4
 40
0.000440
 49
0.000220
 49
-0.000110
 49
0.000000
 49
-0.000110
  0
LTYPE
  2
BORDER
 70
    64
  3
__ __ . __ __ . __ __ . __ __ . __ __ . __ __
 72
    65
 73
     6
 40
0.000770
 49
0.000220
 49
-0.000110
 49
0.000220
 49
-0.000110
 49
0.000000
 49
-0.000110
  0
LTYPE
  2
DIVIDE
 70
    64
  3
__ . . __ . . __ . . __ . . __ . . __ . . __
 72
    65
 73
     6
 40
0.000550
 49
0.000220
 49
-0.000110
 49
0.000000
 49
-0.000110
 49
0.000000
 49
-0.000110
  0
LTYPE
  2
DOTDOT
 70
    64
  3
 . .  . .  . .  . .  . .  . . 
 72
    65
 73
     5
 40
0.000242
 49
-0.000110
 49
0.000000
 49
-0.000110
 49
0.000000
 49
-0.000110
  0
ENDTAB
  0
TABLE
  2
STYLE
 70
     2
  0
STYLE
 70
     0
  2
SN0
 40
0.000000
 41
0.000440
 50
0.000000
 71
     0
 42
0.000000
  3
ROMAND
  0
STYLE
 70
    68
  2
SV0
 40
0.000000
 41
0.000440
 50
0.000000
 71
     0
 42
0.000000
  3
ROMAND
  0
ENDTAB
  0
TABLE
  2
LAYER
 70
     3
  0
LAYER
  2
FOREGROUND
 70
    64
 62
     7
  6
CONTINUOUS
  0
LAYER
  2
BACKGROUND
 70
    65
 62
    -7
  6
CONTINUOUS
  0
LAYER
  2
0
 70
    64
 62
     7
  6
CONTINUOUS
  0
ENDTAB
  0
ENDSEC
  0
SECTION
  2
ENTITIES
  0
POLYLINE
  8
FOREGROUND
  6
CONTINUOUS
 66
     1
 40
0.000000
 41
0.000000
  0
VERTEX
  8
FOREGROUND
  6
CONTINUOUS
 10
0.000000
 20
9.649200
  0
VERTEX
  8
FOREGROUND
  6
CONTINUOUS
 10
8.499920
 20
9.649200
  0
VERTEX
  8
FOREGROUND
  6
CONTINUOUS
 10
8.499920
 20
-1.350800
  0
VERTEX
  8
FOREGROUND
  6
CONTINUOUS
 10
0.000000
 20
-1.350800
  0
VERTEX
  8
FOREGROUND
  6
CONTINUOUS
 10
0.000000
 20
9.649200
  0
SEQEND
  8
0
  0
POLYLINE
  8
FOREGROUND
  6
CONTINUOUS
 66
     1
 40
0.000000
 41
0.000000
  0
VERTEX
  8
FOREGROUND
  6
CONTINUOUS
 10
0.000000
 20
9.649200
  0
VERTEX
  8
FOREGROUND
  6
CONTINUOUS
 10
8.499920
 20
9.649200
  0
VERTEX
  8
FOREGROUND
  6
CONTINUOUS
 10
8.499920
 20
-1.350800
  0
VERTEX
  8
FOREGROUND
  6
CONTINUOUS
 10
0.000000
 20
-1.350800
  0
VERTEX
  8
FOREGROUND
  6
CONTINUOUS
 10
0.000000
 20
9.649200
  0
SEQEND
  8
0
  0
SOLID
  8
0
 62
    15
 10
3.378320
 20
4.019400
 11
3.377880
 21
4.760360
 12
3.439040
 22
4.016320
 13
3.438600
 23
4.757720
  0
POLYLINE
  8
0
  6
CONTINUOUS
 66
     1
 40
0.000000
 41
0.000000
  0
VERTEX
  8
0
  6
CONTINUOUS
 10
3.378320
 20
4.019400
  0
VERTEX
  8
0
  6
CONTINUOUS
 10
3.377880
 20
4.760360
  0
VERTEX
  8
0
  6
CONTINUOUS
 10
3.438600
 20
4.757720
  0
VERTEX
  8
0
  6
CONTINUOUS
 10
3.439040
 20
4.016320
  0
VERTEX
  8
0
  6
CONTINUOUS
 10
3.378320
 20
4.019400
  0
SEQEND
  8
0
  0
SOLID
  8
0
 62
    15
 10
2.506240
 20
4.385040
 11
2.505800
 21
5.126000
 12
2.521200
 22
4.249080
 13
2.520760
 23
4.990040
  0
POLYLINE
  8
0
  6
CONTINUOUS
 66
     1
 40
0.000000
 41
0.000000
  0
VERTEX
  8
0
  6
CONTINUOUS
 10
2.506240
 20
4.385040
  0
VERTEX
  8
0
  6
CONTINUOUS
 10
2.505800
 20
5.126000
  0
VERTEX
  8
0
  6
CONTINUOUS
 10
2.520760
 20
4.990040
  0
VERTEX
  8
0
  6
CONTINUOUS
 10
2.521200
 20
4.249080
  0
VERTEX
  8
0
  6
CONTINUOUS
 10
2.506240
 20
4.385040
  0
SEQEND
  8
0
  0
SOLID
  8
0
 62
    15
 10
2.521200
 20
4.249080
 11
2.520760
 21
4.990040
 12
2.586760
 22
4.249080
 13
2.586320
 23
4.990040
  0
POLYLINE
  8
0
  6
CONTINUOUS
 66
     1
 40
0.000000
 41
0.000000
  0
VERTEX
  8
0
  6
CONTINUOUS
 10
2.521200
 20
4.249080
  0
VERTEX
  8
0
  6
CONTINUOUS
 10
2.520760
 20
4.990040
  0
VERTEX
  8
0
  6
CONTINUOUS
 10
2.586320
 20
4.990040
  0
VERTEX
  8
0
  6
CONTINUOUS
 10
2.586760
 20
4.249080
  0
VERTEX
  8
0
  6
CONTINUOUS
 10
2.521200
 20
4.249080
  0
SEQEND
  8
0
  0
SOLID
  8
0
 62
    15
 10
2.586760
 20
4.249080
 11
2.586320
 21
4.990040
 12
2.599080
 22
4.269320
 13
2.598640
 23
5.010280
  0
POLYLINE
  8
0
  6
CONTINUOUS
 66
     1
 40
0.000000
 41
0.000000
  0
VERTEX
  8
0
  6
CONTINUOUS
 10
2.586760
 20
4.249080
  0
VERTEX
  8
0
  6
CONTINUOUS
 10
2.586320
 20
4.990040
  0
VERTEX
  8
0
  6
CONTINUOUS
 10
2.598640
 20
5.010280
  0
VERTEX
  8
0
  6
CONTINUOUS
 10
2.599080
 20
4.269320
  0
VERTEX
  8
0
  6
CONTINUOUS
 10
2.586760
 20
4.249080
  0
SEQEND
  8
0
  0
SOLID
  8
0
 62
    15
 10
2.599080
 20
4.269320
 11
2.598640
 21
5.010280
 12
2.615800
 22
4.286480
 13
2.615360
 23
5.027440
  0
POLYLINE
  8
0
  6
CONTINUOUS
 66
     1
 40
0.000000
 41
0.000000
  0
VERTEX
  8
0
  6
CONTINUOUS
 10
2.599080
 20
4.269320
  0
VERTEX
  8
0
  6
CONTINUOUS
 10
2.598640
 20
5.010280
  0
VERTEX
  8
0
  6
CONTINUOUS
 10
2.615360
 20
5.027440
  0
VERTEX
  8
0
  6
CONTINUOUS
 10
2.615800
 20
4.286480
  0
VERTEX
  8
0
  6
CONTINUOUS
 10
2.599080
 20
4.269320
  0
SEQEND
  8
0
  0
SOLID
  8
0
 62
    15
 10
2.615800
 20
4.286480
 11
2.615360
 21
5.027440
 12
2.659800
 22
4.311120
 13
2.659360
 23
5.052080
  0
POLYLINE
  8
0
  6
CONTINUOUS
 66
     1
 40
0.000000
 41
0.000000
  0
VERTEX
  8
0
  6
CONTINUOUS
 10
2.615800
 20
4.286480
  0
VERTEX
  8
0
  6
CONTINUOUS
 10
2.615360
 20
5.027440
  0
VERTEX
  8
0
  6
CONTINUOUS
 10
2.659360
 20
5.052080
  0
VERTEX
  8
0
  6
CONTINUOUS
 10
2.659800
 20
4.311120
  0
VERTEX
  8
0
  6
CONTINUOUS
 10
2.615800
 20
4.286480
  0
SEQEND
  8
0
  0
SOLID
  8
0
 62
    15
 10
2.659800
 20
4.311120
 11
2.659360
 21
5.052080
 12
2.715680
 22
4.323000
 13
2.715240
 23
5.063960
  0
POLYLINE
  8
0
  6
CONTINUOUS
 66
     1
 40
0.000000
 41
0.000000
  0
VERTEX
  8
0
  6
CONTINUOUS
 10
2.659800
 20
4.311120
  0
VERTEX
  8
0
  6
CONTINUOUS
 10
2.659360
 20
5.052080
  0
VERTEX
  8
0
  6
CONTINUOUS
 10
2.715240
 20
5.063960
  0
VERTEX
  8
0
  6
CONTINUOUS
 10
2.715680
 20
4.323000
  0
VERTEX
  8
0
  6
CONTINUOUS
 10
2.659800
 20
4.311120
  0
SEQEND
  8
0
  0
SOLID
  8
0
 62
    15
 10
2.715680
 20
4.323000
 11
2.715240
 21
5.063960
 12
2.779920
 22
4.321680
 13
2.779480
 23
5.062640
  0
POLYLINE
  8
0
  6
CONTINUOUS
 66
     1
 40
0.000000
 41
0.000000
  0
VERTEX
  8
0
  6
CONTINUOUS
 10
2.715680
 20
4.323000
  0
VERTEX
  8
0
  6
CONTINUOUS
 10
2.715240
 20
5.063960
  0
VERTEX
  8
0
  6
CONTINUOUS
 10
2.779480
 20
5.062640
  0
VERTEX
  8
0
  6
CONTINUOUS
 10
2.779920
 20
4.321680
  0
VERTEX
  8
0
  6
CONTINUOUS
 10
2.715680
 20
4.323000
  0
SEQEND
  8
0
  0
SOLID
  8
0
 62
    15
 10
2.779920
 20
4.321680
 11
2.779480
 21
5.062640
 12
2.849440
 22
4.306720
 13
2.849000
 23
5.047680
  0
POLYLINE
  8
0
  6
CONTINUOUS
 66
     1
 40
0.000000
 41
0.000000
  0
VERTEX
  8
0
  6
CONTINUOUS
 10
2.779920
 20
4.321680
  0
VERTEX
  8
0
  6
CONTINUOUS
 10
2.779480
 20
5.062640
  0
VERTEX
  8
0
  6
CONTINUOUS
 10
2.849000
 20
5.047680
  0
VERTEX
  8
0
  6
CONTINUOUS
 10
2.849440
 20
4.306720
  0
VERTEX
  8
0
  6
CONTINUOUS
 10
2.779920
 20
4.321680
  0
SEQEND
  8
0
  0
SOLID
  8
0
 62
    15
 10
2.849440
 20
4.306720
 11
2.849000
 21
5.047680
 12
2.921600
 22
4.278120
 13
2.921160
 23
5.019520
  0
POLYLINE
  8
0
  6
CONTINUOUS
 66
     1
 40
0.000000
 41
0.000000
  0
VERTEX
  8
0
  6
CONTINUOUS
 10
2.849440
 20
4.306720
  0
VERTEX
  8
0
  6
CONTINUOUS
 10
2.849000
 20
5.047680
  0
VERTEX
  8
0
  6
CONTINUOUS
 10
2.921160
 20
5.019520
  0
VERTEX
  8
0
  6
CONTINUOUS
 10
2.921600
 20
4.278120
  0
VERTEX
  8
0
  6
CONTINUOUS
 10
2.849440
 20
4.306720
  0
SEQEND
  8
0
  0
SOLID
  8
0
 62
    15
 10
2.921600
 20
4.278120
 11
2.921160
 21
5.019520
 12
2.992880
 22
4.235440
 13
2.992440
 23
4.976840
  0
POLYLINE
  8
0
  6
CONTINUOUS
 66
     1
 40
0.000000
 41
0.000000
  0
VERTEX
  8
0
  6
CONTINUOUS
 10
2.921600
 20
4.278120
  0
VERTEX
  8
0
  6
CONTINUOUS
 10
2.921160
 20
5.019520
  0
VERTEX
  8
0
  6
CONTINUOUS
 10
2.992440
 20
4.976840
  0
VERTEX
  8
0
  6
CONTINUOUS
 10
2.992880
 20
4.235440
  0
VERTEX
  8
0
  6
CONTINUOUS
 10
2.921600
 20
4.278120
  0
SEQEND
  8
0
  0
SOLID
  8
0
 62
    15
 10
2.992880
 20
4.235440
 11
2.992440
 21
4.976840
 12
3.059760
 22
4.178680
 13
3.059320
 23
4.919640
  0
POLYLINE
  8
0
  6
CONTINUOUS
 66
     1
 40
0.000000
 41
0.000000
  0
VERTEX
  8
0
  6
CONTINUOUS
 10
2.992880
 20
4.235440
  0
VERTEX
  8
0
  6
CONTINUOUS
 10
2.992440
 20
4.976840
  0
VERTEX
  8
0
  6
CONTINUOUS
 10
3.059320
 20
4.919640
  0
VERTEX
  8
0
  6
CONTINUOUS
 10
3.059760
 20
4.178680
  0
VERTEX
  8
0
  6
CONTINUOUS
 10
2.992880
 20
4.235440
  0
SEQEND
  8
0
  0
SOLID
  8
0
 62
    15
 10
3.059760
 20
4.178680
 11
3.059320
 21
4.919640
 12
3.124440
 22
4.121920
 13
3.124000
 23
4.863320
  0
POLYLINE
  8
0
  6
CONTINUOUS
 66
     1
 40
0.000000
 41
0.000000
  0
VERTEX
  8
0
  6
CONTINUOUS
 10
3.059760
 20
4.178680
  0
VERTEX
  8
0
  6
CONTINUOUS
 10
3.059320
 20
4.919640
  0
VERTEX
  8
0
  6
CONTINUOUS
 10
3.124000
 20
4.863320
  0
VERTEX
  8
0
  6
CONTINUOUS
 10
3.124440
 20
4.121920
  0
VERTEX
  8
0
  6
CONTINUOUS
 10
3.059760
 20
4.178680
  0
SEQEND
  8
0
  0
SOLID
  8
0
 62
    15
 10
3.124440
 20
4.121920
 11
3.124000
 21
4.863320
 12
3.188680
 22
4.079240
 13
3.188240
 23
4.820640
  0
POLYLINE
  8
0
  6
CONTINUOUS
 66
     1
 40
0.000000
 41
0.000000
  0
VERTEX
  8
0
  6
CONTINUOUS
 10
3.124440
 20
4.121920
  0
VERTEX
  8
0
  6
CONTINUOUS
 10
3.124000
 20
4.863320
  0
VERTEX
  8
0
  6
CONTINUOUS
 10
3.188240
 20
4.820640
  0
VERTEX
  8
0
  6
CONTINUOUS
 10
3.188680
 20
4.079240
  0
VERTEX
  8
0
  6
CONTINUOUS
 10
3.124440
 20
4.121920
  0
SEQEND
  8
0
  0
SOLID
  8
0
 62
    15
 10
3.188680
 20
4.079240
 11
3.188240
 21
4.820640
 12
3.252920
 22
4.048880
 13
3.252480
 23
4.790280
  0
POLYLINE
  8
0
  6
CONTINUOUS
 66
     1
 40
0.000000
 41
0.000000
  0
VERTEX
  8
0
  6
CONTINUOUS
 10
3.188680
 20
4.079240
  0
VERTEX
  8
0
  6
CONTINUOUS
 10
3.188240
 20
4.820640
  0
VERTEX
  8
0
  6
CONTINUOUS
 10
3.252480
 20
4.790280
  0
VERTEX
  8
0
  6
CONTINUOUS
 10
3.252920
 20
4.048880
  0
VERTEX
  8
0
  6
CONTINUOUS
 10
3.188680
 20
4.079240
  0
SEQEND
  8
0
  0
SOLID
  8
0
 62
    15
 10
3.252920
 20
4.048880
 11
3.252480
 21
4.790280
 12
3.316280
 22
4.029520
 13
3.315840
 23
4.770480
  0
POLYLINE
  8
0
  6
CONTINUOUS
 66
     1
 40
0.000000
 41
0.000000
  0
VERTEX
  8
0
  6
CONTINUOUS
 10
3.252920
 20
4.048880
  0
VERTEX
  8
0
  6
CONTINUOUS
 10
3.252480
 20
4.790280
  0
VERTEX
  8
0
  6
CONTINUOUS
 10
3.315840
 20
4.770480
  0
VERTEX
  8
0
  6
CONTINUOUS
 10
3.316280
 20
4.029520
  0
VERTEX
  8
0
  6
CONTINUOUS
 10
3.252920
 20
4.048880
  0
SEQEND
  8
0
  0
SOLID
  8
0
 62
    15
 10
3.316280
 20
4.029520
 11
3.315840
 21
4.770480
 12
3.378320
 22
4.019400
 13
3.377880
 23
4.760360
  0
POLYLINE
  8
0
  6
CONTINUOUS
 66
     1
 40
0.000000
 41
0.000000
  0
VERTEX
  8
0
  6
CONTINUOUS
 10
3.316280
 20
4.029520
  0
VERTEX
  8
0
  6
CONTINUOUS
 10
3.315840
 20
4.770480
  0
VERTEX
  8
0
  6
CONTINUOUS
 10
3.377880
 20
4.760360
  0
VERTEX
  8
0
  6
CONTINUOUS
 10
3.378320
 20
4.019400
  0
VERTEX
  8
0
  6
CONTINUOUS
 10
3.316280
 20
4.029520
  0
SEQEND
  8
0
  0
SOLID
  8
0
 62
    15
 10
1.887160
 20
4.385040
 11
1.886720
 21
5.126000
 12
2.506240
 22
4.385040
 13
2.505800
 23
5.126000
  0
POLYLINE
  8
0
  6
CONTINUOUS
 66
     1
 40
0.000000
 41
0.000000
  0
VERTEX
  8
0
  6
CONTINUOUS
 10
1.887160
 20
4.385040
  0
VERTEX
  8
0
  6
CONTINUOUS
 10
1.886720
 20
5.126000
  0
VERTEX
  8
0
  6
CONTINUOUS
 10
2.505800
 20
5.126000
  0
VERTEX
  8
0
  6
CONTINUOUS
 10
2.506240
 20
4.385040
  0
VERTEX
  8
0
  6
CONTINUOUS
 10
1.887160
 20
4.385040
  0
SEQEND
  8
0
  0
SOLID
  8
0
 62
    15
 10
3.439040
 20
4.016320
 11
3.438600
 21
4.757720
 12
3.498000
 22
4.019840
 13
3.497560
 23
4.760800
  0
POLYLINE
  8
0
  6
CONTINUOUS
 66
     1
 40
0.000000
 41
0.000000
  0
VERTEX
  8
0
  6
CONTINUOUS
 10
3.439040
 20
4.016320
  0
VERTEX
  8
0
  6
CONTINUOUS
 10
3.438600
 20
4.757720
  0
VERTEX
  8
0
  6
CONTINUOUS
 10
3.497560
 20
4.760800
  0
VERTEX
  8
0
  6
CONTINUOUS
 10
3.498000
 20
4.019840
  0
VERTEX
  8
0
  6
CONTINUOUS
 10
3.439040
 20
4.016320
  0
SEQEND
  8
0
  0
SOLID
  8
0
 62
    15
 10
6.254160
 20
3.689840
 11
6.253720
 21
4.430800
 12
6.314000
 22
3.689840
 13
6.313560
 23
4.431240
  0
POLYLINE
  8
0
  6
CONTINUOUS
 66
     1
 40
0.000000
 41
0.000000
  0
VERTEX
  8
0
  6
CONTINUOUS
 10
6.254160
 20
3.689840
  0
VERTEX
  8
0
  6
CONTINUOUS
 10
6.253720
 20
4.430800
  0
VERTEX
  8
0
  6
CONTINUOUS
 10
6.313560
 20
4.431240
  0
VERTEX
  8
0
  6
CONTINUOUS
 10
6.314000
 20
3.689840
  0
VERTEX
  8
0
  6
CONTINUOUS
 10
6.254160
 20
3.689840
  0
SEQEND
  8
0
  0
SOLID
  8
0
 62
    15
 10
5.107520
 20
3.808200
 11
5.107080
 21
4.549160
 12
6.254160
 22
3.808200
 13
6.253720
 23
4.549160
  0
POLYLINE
  8
0
  6
CONTINUOUS
 66
     1
 40
0.000000
 41
0.000000
  0
VERTEX
  8
0
  6
CONTINUOUS
 10
5.107520
 20
3.808200
  0
VERTEX
  8
0
  6
CONTINUOUS
 10
5.107080
 20
4.549160
  0
VERTEX
  8
0
  6
CONTINUOUS
 10
6.253720
 20
4.549160
  0
VERTEX
  8
0
  6
CONTINUOUS
 10
6.254160
 20
3.808200
  0
VERTEX
  8
0
  6
CONTINUOUS
 10
5.107520
 20
3.808200
  0
SEQEND
  8
0
  0
SOLID
  8
0
 62
    15
 10
3.554760
 20
3.906760
 11
3.554320
 21
4.648160
 12
5.107520
 22
3.906760
 13
5.107080
 23
4.648160
  0
POLYLINE
  8
0
  6
CONTINUOUS
 66
     1
 40
0.000000
 41
0.000000
  0
VERTEX
  8
0
  6
CONTINUOUS
 10
3.554760
 20
3.906760
  0
VERTEX
  8
0
  6
CONTINUOUS
 10
3.554320
 20
4.648160
  0
VERTEX
  8
0
  6
CONTINUOUS
 10
5.107080
 20
4.648160
  0
VERTEX
  8
0
  6
CONTINUOUS
 10
5.107520
 20
3.906760
  0
VERTEX
  8
0
  6
CONTINUOUS
 10
3.554760
 20
3.906760
  0
SEQEND
  8
0
  0
SOLID
  8
0
 62
    15
 10
3.498000
 20
4.019840
 11
3.497560
 21
4.760800
 12
3.554760
 22
4.027760
 13
3.554320
 23
4.768720
  0
POLYLINE
  8
0
  6
CONTINUOUS
 66
     1
 40
0.000000
 41
0.000000
  0
VERTEX
  8
0
  6
CONTINUOUS
 10
3.498000
 20
4.019840
  0
VERTEX
  8
0
  6
CONTINUOUS
 10
3.497560
 20
4.760800
  0
VERTEX
  8
0
  6
CONTINUOUS
 10
3.554320
 20
4.768720
  0
VERTEX
  8
0
  6
CONTINUOUS
 10
3.554760
 20
4.027760
  0
VERTEX
  8
0
  6
CONTINUOUS
 10
3.498000
 20
4.019840
  0
SEQEND
  8
0
  0
SOLID
  8
0
 62
    15
 10
6.314000
 20
3.689840
 11
6.313560
 21
4.431240
 12
6.370320
 22
3.687200
 13
6.369880
 23
4.428160
  0
POLYLINE
  8
0
  6
CONTINUOUS
 66
     1
 40
0.000000
 41
0.000000
  0
VERTEX
  8
0
  6
CONTINUOUS
 10
6.314000
 20
3.689840
  0
VERTEX
  8
0
  6
CONTINUOUS
 10
6.313560
 20
4.431240
  0
VERTEX
  8
0
  6
CONTINUOUS
 10
6.369880
 20
4.428160
  0
VERTEX
  8
0
  6
CONTINUOUS
 10
6.370320
 20
3.687200
  0
VERTEX
  8
0
  6
CONTINUOUS
 10
6.314000
 20
3.689840
  0
SEQEND
  8
0
  0
SOLID
  8
0
 62
    15
 10
6.370320
 20
3.687200
 11
6.369880
 21
4.428160
 12
6.422240
 22
3.681040
 13
6.421800
 23
4.422440
  0
POLYLINE
  8
0
  6
CONTINUOUS
 66
     1
 40
0.000000
 41
0.000000
  0
VERTEX
  8
0
  6
CONTINUOUS
 10
6.370320
 20
3.687200
  0
VERTEX
  8
0
  6
CONTINUOUS
 10
6.369880
 20
4.428160
  0
VERTEX
  8
0
  6
CONTINUOUS
 10
6.421800
 20
4.422440
  0
VERTEX
  8
0
  6
CONTINUOUS
 10
6.422240
 20
3.681040
  0
VERTEX
  8
0
  6
CONTINUOUS
 10
6.370320
 20
3.687200
  0
SEQEND
  8
0
  0
SOLID
  8
0
 62
    15
 10
6.422240
 20
3.681040
 11
6.421800
 21
4.422440
 12
6.470640
 22
3.672680
 13
6.470200
 23
4.414080
  0
POLYLINE
  8
0
  6
CONTINUOUS
 66
     1
 40
0.000000
 41
0.000000
  0
VERTEX
  8
0
  6
CONTINUOUS
 10
6.422240
 20
3.681040
  0
VERTEX
  8
0
  6
CONTINUOUS
 10
6.421800
 20
4.422440
  0
VERTEX
  8
0
  6
CONTINUOUS
 10
6.470200
 20
4.414080
  0
VERTEX
  8
0
  6
CONTINUOUS
 10
6.470640
 20
3.672680
  0
VERTEX
  8
0
  6
CONTINUOUS
 10
6.422240
 20
3.681040
  0
SEQEND
  8
0
  0
SOLID
  8
0
 62
    15
 10
6.470640
 20
3.672680
 11
6.470200
 21
4.414080
 12
6.555120
 22
3.648920
 13
6.554680
 23
4.389880
  0
POLYLINE
  8
0
  6
CONTINUOUS
 66
     1
 40
0.000000
 41
0.000000
  0
VERTEX
  8
0
  6
CONTINUOUS
 10
6.470640
 20
3.672680
  0
VERTEX
  8
0
  6
CONTINUOUS
 10
6.470200
 20
4.414080
  0
VERTEX
  8
0
  6
CONTINUOUS
 10
6.554680
 20
4.389880
  0
VERTEX
  8
0
  6
CONTINUOUS
 10
6.555120
 20
3.648920
  0
VERTEX
  8
0
  6
CONTINUOUS
 10
6.470640
 20
3.672680
  0
SEQEND
  8
0
  0
SOLID
  8
0
 62
    15
 10
6.555120
 20
3.648920
 11
6.554680
 21
4.389880
 12
6.624200
 22
3.617680
 13
6.623760
 23
4.358640
  0
POLYLINE
  8
0
  6
CONTINUOUS
 66
     1
 40
0.000000
 41
0.000000
  0
VERTEX
  8
0
  6
CONTINUOUS
 10
6.555120
 20
3.648920
  0
VERTEX
  8
0
  6
CONTINUOUS
 10
6.554680
 20
4.389880
  0
VERTEX
  8
0
  6
CONTINUOUS
 10
6.623760
 20
4.358640
  0
VERTEX
  8
0
  6
CONTINUOUS
 10
6.624200
 20
3.617680
  0
VERTEX
  8
0
  6
CONTINUOUS
 10
6.555120
 20
3.648920
  0
SEQEND
  8
0
  0
SOLID
  8
0
 62
    15
 10
6.624200
 20
3.617680
 11
6.623760
 21
4.358640
 12
6.678760
 22
3.580720
 13
6.678320
 23
4.321680
  0
POLYLINE
  8
0
  6
CONTINUOUS
 66
     1
 40
0.000000
 41
0.000000
  0
VERTEX
  8
0
  6
CONTINUOUS
 10
6.624200
 20
3.617680
  0
VERTEX
  8
0
  6
CONTINUOUS
 10
6.623760
 20
4.358640
  0
VERTEX
  8
0
  6
CONTINUOUS
 10
6.678320
 20
4.321680
  0
VERTEX
  8
0
  6
CONTINUOUS
 10
6.678760
 20
3.580720
  0
VERTEX
  8
0
  6
CONTINUOUS
 10
6.624200
 20
3.617680
  0
SEQEND
  8
0
  0
SOLID
  8
0
 62
    15
 10
6.678760
 20
3.580720
 11
6.678320
 21
4.321680
 12
6.718800
 22
3.540680
 13
6.718360
 23
4.281640
  0
POLYLINE
  8
0
  6
CONTINUOUS
 66
     1
 40
0.000000
 41
0.000000
  0
VERTEX
  8
0
  6
CONTINUOUS
 10
6.678760
 20
3.580720
  0
VERTEX
  8
0
  6
CONTINUOUS
 10
6.678320
 20
4.321680
  0
VERTEX
  8
0
  6
CONTINUOUS
 10
6.718360
 20
4.281640
  0
VERTEX
  8
0
  6
CONTINUOUS
 10
6.718800
 20
3.540680
  0
VERTEX
  8
0
  6
CONTINUOUS
 10
6.678760
 20
3.580720
  0
SEQEND
  8
0
  0
SOLID
  8
0
 62
    15
 10
6.757080
 20
3.458400
 11
6.756640
 21
4.199360
 12
6.955960
 22
3.458400
 13
6.955520
 23
4.199360
  0
POLYLINE
  8
0
  6
CONTINUOUS
 66
     1
 40
0.000000
 41
0.000000
  0
VERTEX
  8
0
  6
CONTINUOUS
 10
6.757080
 20
3.458400
  0
VERTEX
  8
0
  6
CONTINUOUS
 10
6.756640
 20
4.199360
  0
VERTEX
  8
0
  6
CONTINUOUS
 10
6.955520
 20
4.199360
  0
VERTEX
  8
0
  6
CONTINUOUS
 10
6.955960
 20
3.458400
  0
VERTEX
  8
0
  6
CONTINUOUS
 10
6.757080
 20
3.458400
  0
SEQEND
  8
0
  0
SOLID
  8
0
 62
    15
 10
6.744760
 20
3.498880
 11
6.744320
 21
4.240280
 12
6.757080
 22
3.458400
 13
6.756640
 23
4.199360
  0
POLYLINE
  8
0
  6
CONTINUOUS
 66
     1
 40
0.000000
 41
0.000000
  0
VERTEX
  8
0
  6
CONTINUOUS
 10
6.744760
 20
3.498880
  0
VERTEX
  8
0
  6
CONTINUOUS
 10
6.744320
 20
4.240280
  0
VERTEX
  8
0
  6
CONTINUOUS
 10
6.756640
 20
4.199360
  0
VERTEX
  8
0
  6
CONTINUOUS
 10
6.757080
 20
3.458400
  0
VERTEX
  8
0
  6
CONTINUOUS
 10
6.744760
 20
3.498880
  0
SEQEND
  8
0
  0
SOLID
  8
0
 62
    15
 10
6.718800
 20
3.540680
 11
6.718360
 21
4.281640
 12
6.744760
 22
3.498880
 13
6.744320
 23
4.240280
  0
POLYLINE
  8
0
  6
CONTINUOUS
 66
     1
 40
0.000000
 41
0.000000
  0
VERTEX
  8
0
  6
CONTINUOUS
 10
6.718800
 20
3.540680
  0
VERTEX
  8
0
  6
CONTINUOUS
 10
6.718360
 20
4.281640
  0
VERTEX
  8
0
  6
CONTINUOUS
 10
6.744320
 20
4.240280
  0
VERTEX
  8
0
  6
CONTINUOUS
 10
6.744760
 20
3.498880
  0
VERTEX
  8
0
  6
CONTINUOUS
 10
6.718800
 20
3.540680
  0
SEQEND
  8
0
  0
SOLID
  8
0
 62
    15
 10
1.887160
 20
3.381400
 11
1.886720
 21
4.122800
 12
1.888040
 22
3.380960
 13
1.887600
 23
4.121920
  0
POLYLINE
  8
0
  6
CONTINUOUS
 66
     1
 40
0.000000
 41
0.000000
  0
VERTEX
  8
0
  6
CONTINUOUS
 10
1.887160
 20
3.381400
  0
VERTEX
  8
0
  6
CONTINUOUS
 10
1.886720
 20
4.122800
  0
VERTEX
  8
0
  6
CONTINUOUS
 10
1.887600
 20
4.121920
  0
VERTEX
  8
0
  6
CONTINUOUS
 10
1.888040
 20
3.380960
  0
VERTEX
  8
0
  6
CONTINUOUS
 10
1.887160
 20
3.381400
  0
SEQEND
  8
0
  0
POLYLINE
  8
0
  6
CONTINUOUS
 66
     1
 40
0.000000
 41
0.000000
  0
VERTEX
  8
0
  6
CONTINUOUS
 10
1.888040
 20
3.380960
  0
VERTEX
  8
0
  6
CONTINUOUS
 10
1.887160
 20
4.385040
  0
VERTEX
  8
0
  6
CONTINUOUS
 10
2.506240
 20
4.385040
  0
VERTEX
  8
0
  6
CONTINUOUS
 10
2.521200
 20
4.249080
  0
VERTEX
  8
0
  6
CONTINUOUS
 10
2.586760
 20
4.249080
  0
VERTEX
  8
0
  6
CONTINUOUS
 10
2.599080
 20
4.269320
  0
VERTEX
  8
0
  6
CONTINUOUS
 10
2.615800
 20
4.286480
  0
VERTEX
  8
0
  6
CONTINUOUS
 10
2.659800
 20
4.311120
  0
VERTEX
  8
0
  6
CONTINUOUS
 10
2.715680
 20
4.323000
  0
VERTEX
  8
0
  6
CONTINUOUS
 10
2.779920
 20
4.321680
  0
VERTEX
  8
0
  6
CONTINUOUS
 10
2.849440
 20
4.306720
  0
VERTEX
  8
0
  6
CONTINUOUS
 10
2.921600
 20
4.278120
  0
VERTEX
  8
0
  6
CONTINUOUS
 10
2.992880
 20
4.235440
  0
VERTEX
  8
0
  6
CONTINUOUS
 10
3.059760
 20
4.178680
  0
VERTEX
  8
0
  6
CONTINUOUS
 10
3.124440
 20
4.121920
  0
VERTEX
  8
0
  6
CONTINUOUS
 10
3.188680
 20
4.079240
  0
VERTEX
  8
0
  6
CONTINUOUS
 10
3.252920
 20
4.048880
  0
VERTEX
  8
0
  6
CONTINUOUS
 10
3.316280
 20
4.029520
  0
VERTEX
  8
0
  6
CONTINUOUS
 10
3.378320
 20
4.019400
  0
VERTEX
  8
0
  6
CONTINUOUS
 10
3.439040
 20
4.016320
  0
VERTEX
  8
0
  6
CONTINUOUS
 10
3.498000
 20
4.019840
  0
VERTEX
  8
0
  6
CONTINUOUS
 10
3.554760
 20
4.027760
  0
VERTEX
  8
0
  6
CONTINUOUS
 10
3.554760
 20
3.906760
  0
VERTEX
  8
0
  6
CONTINUOUS
 10
5.107520
 20
3.906760
  0
VERTEX
  8
0
  6
CONTINUOUS
 10
5.107520
 20
3.808200
  0
VERTEX
  8
0
  6
CONTINUOUS
 10
6.254160
 20
3.808200
  0
VERTEX
  8
0
  6
CONTINUOUS
 10
6.254160
 20
3.689840
  0
VERTEX
  8
0
  6
CONTINUOUS
 10
6.314000
 20
3.689840
  0
VERTEX
  8
0
  6
CONTINUOUS
 10
6.370320
 20
3.687200
  0
VERTEX
  8
0
  6
CONTINUOUS
 10
6.422240
 20
3.681040
  0
VERTEX
  8
0
  6
CONTINUOUS
 10
6.470640
 20
3.672680
  0
VERTEX
  8
0
  6
CONTINUOUS
 10
6.555120
 20
3.648920
  0
VERTEX
  8
0
  6
CONTINUOUS
 10
6.624200
 20
3.617680
  0
VERTEX
  8
0
  6
CONTINUOUS
 10
6.678760
 20
3.580720
  0
VERTEX
  8
0
  6
CONTINUOUS
 10
6.718800
 20
3.540680
  0
VERTEX
  8
0
  6
CONTINUOUS
 10
6.744760
 20
3.498880
  0
VERTEX
  8
0
  6
CONTINUOUS
 10
6.757080
 20
3.458400
  0
VERTEX
  8
0
  6
CONTINUOUS
 10
6.955960
 20
3.458400
  0
VERTEX
  8
0
  6
CONTINUOUS
 10
6.955960
 20
3.381400
  0
VERTEX
  8
0
  6
CONTINUOUS
 10
1.887160
 20
3.381400
  0
VERTEX
  8
0
  6
CONTINUOUS
 10
1.888040
 20
3.380960
  0
SEQEND
  8
0
  0
TEXT
  8
0
 10
4.079680
 20
3.107720
 40
0.137997
  1
BA  1097
 41
1.000000
  7
SN0
 71
     0
 72
     5
 11
4.762064
 21
3.107720
  0
TEXT
  8
0
 10
4.182200
 20
2.916320
 40
0.137997
  1
1" x 5"
 41
1.000000
  7
SN0
 71
     0
 72
     5
 11
4.659283
 21
2.916320
  0
POLYLINE
  8
0
  6
CONTINUOUS
 66
     1
 40
0.014080
 41
0.014080
  0
VERTEX
  8
0
  6
CONTINUOUS
 10
1.903880
 20
5.764880
  0
VERTEX
  8
0
  6
CONTINUOUS
 10
6.972680
 20
5.764880
  0
VERTEX
  8
0
  6
CONTINUOUS
 10
6.972680
 20
5.841880
  0
VERTEX
  8
0
  6
CONTINUOUS
 10
6.773800
 20
5.841880
  0
VERTEX
  8
0
  6
CONTINUOUS
 10
6.769400
 20
5.862120
  0
VERTEX
  8
0
  6
CONTINUOUS
 10
6.756200
 20
5.892920
  0
VERTEX
  8
0
  6
CONTINUOUS
 10
6.743440
 20
5.913600
  0
VERTEX
  8
0
  6
CONTINUOUS
 10
6.717480
 20
5.944400
  0
VERTEX
  8
0
  6
CONTINUOUS
 10
6.683600
 20
5.973880
  0
VERTEX
  8
0
  6
CONTINUOUS
 10
6.641360
 20
6.001160
  0
VERTEX
  8
0
  6
CONTINUOUS
 10
6.590760
 20
6.025360
  0
VERTEX
  8
0
  6
CONTINUOUS
 10
6.531800
 20
6.045600
  0
VERTEX
  8
0
  6
CONTINUOUS
 10
6.487360
 20
6.056160
  0
VERTEX
  8
0
  6
CONTINUOUS
 10
6.439400
 20
6.064960
  0
VERTEX
  8
0
  6
CONTINUOUS
 10
6.387040
 20
6.070680
  0
VERTEX
  8
0
  6
CONTINUOUS
 10
6.331160
 20
6.073760
  0
VERTEX
  8
0
  6
CONTINUOUS
 10
6.270880
 20
6.073320
  0
VERTEX
  8
0
  6
CONTINUOUS
 10
6.270880
 20
6.191680
  0
VERTEX
  8
0
  6
CONTINUOUS
 10
5.124680
 20
6.191680
  0
VERTEX
  8
0
  6
CONTINUOUS
 10
5.124680
 20
6.290240
  0
VERTEX
  8
0
  6
CONTINUOUS
 10
3.571480
 20
6.290240
  0
VERTEX
  8
0
  6
CONTINUOUS
 10
3.571480
 20
6.411240
  0
VERTEX
  8
0
  6
CONTINUOUS
 10
3.514720
 20
6.403320
  0
VERTEX
  8
0
  6
CONTINUOUS
 10
3.456200
 20
6.399800
  0
VERTEX
  8
0
  6
CONTINUOUS
 10
3.395480
 20
6.402440
  0
VERTEX
  8
0
  6
CONTINUOUS
 10
3.364240
 20
6.406840
  0
VERTEX
  8
0
  6
CONTINUOUS
 10
3.333000
 20
6.413000
  0
VERTEX
  8
0
  6
CONTINUOUS
 10
3.285480
 20
6.426640
  0
VERTEX
  8
0
  6
CONTINUOUS
 10
3.237960
 20
6.446000
  0
VERTEX
  8
0
  6
CONTINUOUS
 10
3.189560
 20
6.472400
  0
VERTEX
  8
0
  6
CONTINUOUS
 10
3.141160
 20
6.505400
  0
VERTEX
  8
0
  6
CONTINUOUS
 10
3.092760
 20
6.546760
  0
VERTEX
  8
0
  6
CONTINUOUS
 10
3.043920
 20
6.592520
  0
VERTEX
  8
0
  6
CONTINUOUS
 10
3.009600
 20
6.618920
  0
VERTEX
  8
0
  6
CONTINUOUS
 10
2.974400
 20
6.642240
  0
VERTEX
  8
0
  6
CONTINUOUS
 10
2.920280
 20
6.669960
  0
VERTEX
  8
0
  6
CONTINUOUS
 10
2.884640
 20
6.684480
  0
VERTEX
  8
0
  6
CONTINUOUS
 10
2.831400
 20
6.699440
  0
VERTEX
  8
0
  6
CONTINUOUS
 10
2.779920
 20
6.706480
  0
VERTEX
  8
0
  6
CONTINUOUS
 10
2.747800
 20
6.707360
  0
VERTEX
  8
0
  6
CONTINUOUS
 10
2.717440
 20
6.704720
  0
VERTEX
  8
0
  6
CONTINUOUS
 10
2.689720
 20
6.698560
  0
VERTEX
  8
0
  6
CONTINUOUS
 10
2.664640
 20
6.689320
  0
VERTEX
  8
0
  6
CONTINUOUS
 10
2.642640
 20
6.677000
  0
VERTEX
  8
0
  6
CONTINUOUS
 10
2.623720
 20
6.661600
  0
VERTEX
  8
0
  6
CONTINUOUS
 10
2.609200
 20
6.643120
  0
VERTEX
  8
0
  6
CONTINUOUS
 10
2.603480
 20
6.632560
  0
VERTEX
  8
0
  6
CONTINUOUS
 10
2.538360
 20
6.632560
  0
VERTEX
  8
0
  6
CONTINUOUS
 10
2.522960
 20
6.768520
  0
VERTEX
  8
0
  6
CONTINUOUS
 10
1.903880
 20
6.768520
  0
VERTEX
  8
0
  6
CONTINUOUS
 10
1.904760
 20
5.764440
  0
SEQEND
  8
0
  0
TEXT
  8
0
 10
2.234760
 20
6.094880
 40
0.137997
  1
BA  1097
 41
1.000000
  7
SN0
 71
     0
 72
     5
 11
2.917144
 21
6.094880
  0
TEXT
  8
0
 10
2.337280
 20
5.903480
 40
0.137997
  1
1" x 5"
 41
1.000000
  7
SN0
 71
     0
 72
     5
 11
2.814363
 21
5.903480
  0
ENDSEC
  0
EOF
