  0
SECTION
  2
HEADER
  9
$ACADVER
  1
AC1006
  9
$EXTMIN
 10
2.889040
 20
1.829960
  9
$EXTMAX
 10
7.529720
 20
7.037800
  9
$LTSCALE
 40
0.044000
  9
$PDMODE
 70
    35
  9
$PDSIZE
 40
0.035200
  0
ENDSEC
  0
SECTION
  2
TABLES
  0
TABLE
  2
LTYPE
 70
     9
  0
LTYPE
  2
CONTINUOUS
 70
    64
  3
Solid line
 72
    65
 73
     0
 40
0.000000
  0
LTYPE
  2
DASHED
 70
    64
  3
__ __ __ __ __ __ __ __ __ __ __ __ __ __ __
 72
    65
 73
     2
 40
0.000330
 49
0.000220
 49
-0.000110
  0
LTYPE
  2
HIDDEN
 70
    64
  3
 _ _ _ _ _ _ _ _ _ _ _ _ _ _ _ _ _ _ _ _ _ _
 72
    65
 73
     2
 40
0.000165
 49
0.000110
 49
-0.000055
  0
LTYPE
  2
CENTER
 70
    64
  3
____ _ ____ _ ____ _ ____ _ ____ _ ____ _ ____
 72
    65
 73
     4
 40
0.000880
 49
0.000550
 49
-0.000110
 49
0.000110
 49
-0.000110
  0
LTYPE
  2
PHANTOM
 70
    64
  3
_____ _ _ _____ _ _ _____ _ _ _____ _ _ ____
 72
    65
 73
     6
 40
0.001100
 49
0.000550
 49
-0.000110
 49
0.000110
 49
-0.000110
 49
0.000110
 49
-0.000110
  0
LTYPE
  2
DOT
 70
    64
  3
...............................................
 72
    65
 73
     2
 40
0.000110
 49
0.000000
 49
-0.000110
  0
LTYPE
  2
DASHDOT
 70
    64
  3
__ . __ . __ . __ . __ . __ . __ . __ . __ . __
 72
    65
 73
     4
 40
0.000440
 49
0.000220
 49
-0.000110
 49
0.000000
 49
-0.000110
  0
LTYPE
  2
BORDER
 70
    64
  3
__ __ . __ __ . __ __ . __ __ . __ __ . __ __
 72
    65
 73
     6
 40
0.000770
 49
0.000220
 49
-0.000110
 49
0.000220
 49
-0.000110
 49
0.000000
 49
-0.000110
  0
LTYPE
  2
DIVIDE
 70
    64
  3
__ . . __ . . __ . . __ . . __ . . __ . . __
 72
    65
 73
     6
 40
0.000550
 49
0.000220
 49
-0.000110
 49
0.000000
 49
-0.000110
 49
0.000000
 49
-0.000110
  0
LTYPE
  2
DOTDOT
 70
    64
  3
 . .  . .  . .  . .  . .  . . 
 72
    65
 73
     5
 40
0.000242
 49
-0.000110
 49
0.000000
 49
-0.000110
 49
0.000000
 49
-0.000110
  0
ENDTAB
  0
TABLE
  2
STYLE
 70
     2
  0
STYLE
 70
     0
  2
SN0
 40
0.000000
 41
0.000440
 50
0.000000
 71
     0
 42
0.000000
  3
ROMAND
  0
STYLE
 70
    68
  2
SV0
 40
0.000000
 41
0.000440
 50
0.000000
 71
     0
 42
0.000000
  3
ROMAND
  0
ENDTAB
  0
TABLE
  2
LAYER
 70
     3
  0
LAYER
  2
FOREGROUND
 70
    64
 62
     7
  6
CONTINUOUS
  0
LAYER
  2
BACKGROUND
 70
    65
 62
    -7
  6
CONTINUOUS
  0
LAYER
  2
0
 70
    64
 62
     7
  6
CONTINUOUS
  0
ENDTAB
  0
ENDSEC
  0
SECTION
  2
ENTITIES
  0
POLYLINE
  8
FOREGROUND
  6
CONTINUOUS
 66
     1
 40
0.000000
 41
0.000000
  0
VERTEX
  8
FOREGROUND
  6
CONTINUOUS
 10
0.000000
 20
8.867760
  0
VERTEX
  8
FOREGROUND
  6
CONTINUOUS
 10
8.499920
 20
8.867760
  0
VERTEX
  8
FOREGROUND
  6
CONTINUOUS
 10
8.499920
 20
-2.132240
  0
VERTEX
  8
FOREGROUND
  6
CONTINUOUS
 10
0.000000
 20
-2.132240
  0
VERTEX
  8
FOREGROUND
  6
CONTINUOUS
 10
0.000000
 20
8.867760
  0
SEQEND
  8
0
  0
POLYLINE
  8
FOREGROUND
  6
CONTINUOUS
 66
     1
 40
0.000000
 41
0.000000
  0
VERTEX
  8
FOREGROUND
  6
CONTINUOUS
 10
0.000000
 20
8.867760
  0
VERTEX
  8
FOREGROUND
  6
CONTINUOUS
 10
8.499920
 20
8.867760
  0
VERTEX
  8
FOREGROUND
  6
CONTINUOUS
 10
8.499920
 20
-2.132240
  0
VERTEX
  8
FOREGROUND
  6
CONTINUOUS
 10
0.000000
 20
-2.132240
  0
VERTEX
  8
FOREGROUND
  6
CONTINUOUS
 10
0.000000
 20
8.867760
  0
SEQEND
  8
0
  0
SOLID
  8
0
 62
    15
 10
5.336320
 20
4.126320
 11
5.967720
 21
3.740440
 12
5.233360
 22
3.816560
 13
5.865200
 23
3.430680
  0
POLYLINE
  8
0
  6
CONTINUOUS
 66
     1
 40
0.000000
 41
0.000000
  0
VERTEX
  8
0
  6
CONTINUOUS
 10
5.336320
 20
4.126320
  0
VERTEX
  8
0
  6
CONTINUOUS
 10
5.967720
 20
3.740440
  0
VERTEX
  8
0
  6
CONTINUOUS
 10
5.865200
 20
3.430680
  0
VERTEX
  8
0
  6
CONTINUOUS
 10
5.233360
 20
3.816560
  0
VERTEX
  8
0
  6
CONTINUOUS
 10
5.336320
 20
4.126320
  0
SEQEND
  8
0
  0
SOLID
  8
0
 62
    15
 10
6.386600
 20
5.446320
 11
7.018440
 21
5.060440
 12
6.245360
 22
5.406280
 13
6.876760
 23
5.020400
  0
POLYLINE
  8
0
  6
CONTINUOUS
 66
     1
 40
0.000000
 41
0.000000
  0
VERTEX
  8
0
  6
CONTINUOUS
 10
6.386600
 20
5.446320
  0
VERTEX
  8
0
  6
CONTINUOUS
 10
7.018440
 20
5.060440
  0
VERTEX
  8
0
  6
CONTINUOUS
 10
6.876760
 20
5.020400
  0
VERTEX
  8
0
  6
CONTINUOUS
 10
6.245360
 20
5.406280
  0
VERTEX
  8
0
  6
CONTINUOUS
 10
6.386600
 20
5.446320
  0
SEQEND
  8
0
  0
SOLID
  8
0
 62
    15
 10
6.245360
 20
5.406280
 11
6.876760
 21
5.020400
 12
6.102800
 22
5.335440
 13
6.734640
 23
4.949560
  0
POLYLINE
  8
0
  6
CONTINUOUS
 66
     1
 40
0.000000
 41
0.000000
  0
VERTEX
  8
0
  6
CONTINUOUS
 10
6.245360
 20
5.406280
  0
VERTEX
  8
0
  6
CONTINUOUS
 10
6.876760
 20
5.020400
  0
VERTEX
  8
0
  6
CONTINUOUS
 10
6.734640
 20
4.949560
  0
VERTEX
  8
0
  6
CONTINUOUS
 10
6.102800
 20
5.335440
  0
VERTEX
  8
0
  6
CONTINUOUS
 10
6.245360
 20
5.406280
  0
SEQEND
  8
0
  0
SOLID
  8
0
 62
    15
 10
6.102800
 20
5.335440
 11
6.734640
 21
4.949560
 12
5.961120
 22
5.231600
 13
6.592960
 23
4.845720
  0
POLYLINE
  8
0
  6
CONTINUOUS
 66
     1
 40
0.000000
 41
0.000000
  0
VERTEX
  8
0
  6
CONTINUOUS
 10
6.102800
 20
5.335440
  0
VERTEX
  8
0
  6
CONTINUOUS
 10
6.734640
 20
4.949560
  0
VERTEX
  8
0
  6
CONTINUOUS
 10
6.592960
 20
4.845720
  0
VERTEX
  8
0
  6
CONTINUOUS
 10
5.961120
 20
5.231600
  0
VERTEX
  8
0
  6
CONTINUOUS
 10
6.102800
 20
5.335440
  0
SEQEND
  8
0
  0
SOLID
  8
0
 62
    15
 10
5.961120
 20
5.231600
 11
6.592960
 21
4.845720
 12
5.822520
 22
5.092120
 13
6.454360
 23
4.706240
  0
POLYLINE
  8
0
  6
CONTINUOUS
 66
     1
 40
0.000000
 41
0.000000
  0
VERTEX
  8
0
  6
CONTINUOUS
 10
5.961120
 20
5.231600
  0
VERTEX
  8
0
  6
CONTINUOUS
 10
6.592960
 20
4.845720
  0
VERTEX
  8
0
  6
CONTINUOUS
 10
6.454360
 20
4.706240
  0
VERTEX
  8
0
  6
CONTINUOUS
 10
5.822520
 20
5.092120
  0
VERTEX
  8
0
  6
CONTINUOUS
 10
5.961120
 20
5.231600
  0
SEQEND
  8
0
  0
SOLID
  8
0
 62
    15
 10
5.822520
 20
5.092120
 11
6.454360
 21
4.706240
 12
5.688760
 22
4.914360
 13
6.320600
 23
4.528920
  0
POLYLINE
  8
0
  6
CONTINUOUS
 66
     1
 40
0.000000
 41
0.000000
  0
VERTEX
  8
0
  6
CONTINUOUS
 10
5.822520
 20
5.092120
  0
VERTEX
  8
0
  6
CONTINUOUS
 10
6.454360
 20
4.706240
  0
VERTEX
  8
0
  6
CONTINUOUS
 10
6.320600
 20
4.528920
  0
VERTEX
  8
0
  6
CONTINUOUS
 10
5.688760
 20
4.914360
  0
VERTEX
  8
0
  6
CONTINUOUS
 10
5.822520
 20
5.092120
  0
SEQEND
  8
0
  0
SOLID
  8
0
 62
    15
 10
5.688760
 20
4.914360
 11
6.320600
 21
4.528920
 12
5.561600
 22
4.696120
 13
6.193440
 23
4.310240
  0
POLYLINE
  8
0
  6
CONTINUOUS
 66
     1
 40
0.000000
 41
0.000000
  0
VERTEX
  8
0
  6
CONTINUOUS
 10
5.688760
 20
4.914360
  0
VERTEX
  8
0
  6
CONTINUOUS
 10
6.320600
 20
4.528920
  0
VERTEX
  8
0
  6
CONTINUOUS
 10
6.193440
 20
4.310240
  0
VERTEX
  8
0
  6
CONTINUOUS
 10
5.561600
 20
4.696120
  0
VERTEX
  8
0
  6
CONTINUOUS
 10
5.688760
 20
4.914360
  0
SEQEND
  8
0
  0
SOLID
  8
0
 62
    15
 10
5.561600
 20
4.696120
 11
6.193440
 21
4.310240
 12
5.443680
 22
4.434320
 13
6.075520
 23
4.048440
  0
POLYLINE
  8
0
  6
CONTINUOUS
 66
     1
 40
0.000000
 41
0.000000
  0
VERTEX
  8
0
  6
CONTINUOUS
 10
5.561600
 20
4.696120
  0
VERTEX
  8
0
  6
CONTINUOUS
 10
6.193440
 20
4.310240
  0
VERTEX
  8
0
  6
CONTINUOUS
 10
6.075520
 20
4.048440
  0
VERTEX
  8
0
  6
CONTINUOUS
 10
5.443680
 20
4.434320
  0
VERTEX
  8
0
  6
CONTINUOUS
 10
5.561600
 20
4.696120
  0
SEQEND
  8
0
  0
SOLID
  8
0
 62
    15
 10
5.443680
 20
4.434320
 11
6.075520
 21
4.048440
 12
5.388680
 22
4.286040
 13
6.020080
 23
3.900160
  0
POLYLINE
  8
0
  6
CONTINUOUS
 66
     1
 40
0.000000
 41
0.000000
  0
VERTEX
  8
0
  6
CONTINUOUS
 10
5.443680
 20
4.434320
  0
VERTEX
  8
0
  6
CONTINUOUS
 10
6.075520
 20
4.048440
  0
VERTEX
  8
0
  6
CONTINUOUS
 10
6.020080
 20
3.900160
  0
VERTEX
  8
0
  6
CONTINUOUS
 10
5.388680
 20
4.286040
  0
VERTEX
  8
0
  6
CONTINUOUS
 10
5.443680
 20
4.434320
  0
SEQEND
  8
0
  0
SOLID
  8
0
 62
    15
 10
5.388680
 20
4.286040
 11
6.020080
 21
3.900160
 12
5.336320
 22
4.126320
 13
5.967720
 23
3.740440
  0
POLYLINE
  8
0
  6
CONTINUOUS
 66
     1
 40
0.000000
 41
0.000000
  0
VERTEX
  8
0
  6
CONTINUOUS
 10
5.388680
 20
4.286040
  0
VERTEX
  8
0
  6
CONTINUOUS
 10
6.020080
 20
3.900160
  0
VERTEX
  8
0
  6
CONTINUOUS
 10
5.967720
 20
3.740440
  0
VERTEX
  8
0
  6
CONTINUOUS
 10
5.336320
 20
4.126320
  0
VERTEX
  8
0
  6
CONTINUOUS
 10
5.388680
 20
4.286040
  0
SEQEND
  8
0
  0
SOLID
  8
0
 62
    15
 10
6.400680
 20
6.076400
 11
7.032080
 21
5.690520
 12
6.386600
 22
5.446320
 13
7.018440
 23
5.060440
  0
POLYLINE
  8
0
  6
CONTINUOUS
 66
     1
 40
0.000000
 41
0.000000
  0
VERTEX
  8
0
  6
CONTINUOUS
 10
6.400680
 20
6.076400
  0
VERTEX
  8
0
  6
CONTINUOUS
 10
7.032080
 20
5.690520
  0
VERTEX
  8
0
  6
CONTINUOUS
 10
7.018440
 20
5.060440
  0
VERTEX
  8
0
  6
CONTINUOUS
 10
6.386600
 20
5.446320
  0
VERTEX
  8
0
  6
CONTINUOUS
 10
6.400680
 20
6.076400
  0
SEQEND
  8
0
  0
SOLID
  8
0
 62
    15
 10
5.233360
 20
3.816560
 11
5.865200
 21
3.430680
 12
5.127320
 22
3.549040
 13
5.758720
 23
3.163600
  0
POLYLINE
  8
0
  6
CONTINUOUS
 66
     1
 40
0.000000
 41
0.000000
  0
VERTEX
  8
0
  6
CONTINUOUS
 10
5.233360
 20
3.816560
  0
VERTEX
  8
0
  6
CONTINUOUS
 10
5.865200
 20
3.430680
  0
VERTEX
  8
0
  6
CONTINUOUS
 10
5.758720
 20
3.163600
  0
VERTEX
  8
0
  6
CONTINUOUS
 10
5.127320
 20
3.549040
  0
VERTEX
  8
0
  6
CONTINUOUS
 10
5.233360
 20
3.816560
  0
SEQEND
  8
0
  0
SOLID
  8
0
 62
    15
 10
5.127320
 20
3.549040
 11
5.758720
 21
3.163600
 12
5.016440
 22
3.323320
 13
5.648280
 23
2.937440
  0
POLYLINE
  8
0
  6
CONTINUOUS
 66
     1
 40
0.000000
 41
0.000000
  0
VERTEX
  8
0
  6
CONTINUOUS
 10
5.127320
 20
3.549040
  0
VERTEX
  8
0
  6
CONTINUOUS
 10
5.758720
 20
3.163600
  0
VERTEX
  8
0
  6
CONTINUOUS
 10
5.648280
 20
2.937440
  0
VERTEX
  8
0
  6
CONTINUOUS
 10
5.016440
 20
3.323320
  0
VERTEX
  8
0
  6
CONTINUOUS
 10
5.127320
 20
3.549040
  0
SEQEND
  8
0
  0
SOLID
  8
0
 62
    15
 10
5.016440
 20
3.323320
 11
5.648280
 21
2.937440
 12
4.901160
 22
3.137200
 13
5.532560
 23
2.751760
  0
POLYLINE
  8
0
  6
CONTINUOUS
 66
     1
 40
0.000000
 41
0.000000
  0
VERTEX
  8
0
  6
CONTINUOUS
 10
5.016440
 20
3.323320
  0
VERTEX
  8
0
  6
CONTINUOUS
 10
5.648280
 20
2.937440
  0
VERTEX
  8
0
  6
CONTINUOUS
 10
5.532560
 20
2.751760
  0
VERTEX
  8
0
  6
CONTINUOUS
 10
4.901160
 20
3.137200
  0
VERTEX
  8
0
  6
CONTINUOUS
 10
5.016440
 20
3.323320
  0
SEQEND
  8
0
  0
SOLID
  8
0
 62
    15
 10
4.901160
 20
3.137200
 11
5.532560
 21
2.751760
 12
4.779720
 22
2.990680
 13
5.411120
 23
2.604800
  0
POLYLINE
  8
0
  6
CONTINUOUS
 66
     1
 40
0.000000
 41
0.000000
  0
VERTEX
  8
0
  6
CONTINUOUS
 10
4.901160
 20
3.137200
  0
VERTEX
  8
0
  6
CONTINUOUS
 10
5.532560
 20
2.751760
  0
VERTEX
  8
0
  6
CONTINUOUS
 10
5.411120
 20
2.604800
  0
VERTEX
  8
0
  6
CONTINUOUS
 10
4.779720
 20
2.990680
  0
VERTEX
  8
0
  6
CONTINUOUS
 10
4.901160
 20
3.137200
  0
SEQEND
  8
0
  0
SOLID
  8
0
 62
    15
 10
4.779720
 20
2.990680
 11
5.411120
 21
2.604800
 12
4.651680
 22
2.881120
 13
5.283520
 23
2.495240
  0
POLYLINE
  8
0
  6
CONTINUOUS
 66
     1
 40
0.000000
 41
0.000000
  0
VERTEX
  8
0
  6
CONTINUOUS
 10
4.779720
 20
2.990680
  0
VERTEX
  8
0
  6
CONTINUOUS
 10
5.411120
 20
2.604800
  0
VERTEX
  8
0
  6
CONTINUOUS
 10
5.283520
 20
2.495240
  0
VERTEX
  8
0
  6
CONTINUOUS
 10
4.651680
 20
2.881120
  0
VERTEX
  8
0
  6
CONTINUOUS
 10
4.779720
 20
2.990680
  0
SEQEND
  8
0
  0
SOLID
  8
0
 62
    15
 10
4.651680
 20
2.881120
 11
5.283520
 21
2.495240
 12
4.516160
 22
2.808080
 13
5.148000
 23
2.422200
  0
POLYLINE
  8
0
  6
CONTINUOUS
 66
     1
 40
0.000000
 41
0.000000
  0
VERTEX
  8
0
  6
CONTINUOUS
 10
4.651680
 20
2.881120
  0
VERTEX
  8
0
  6
CONTINUOUS
 10
5.283520
 20
2.495240
  0
VERTEX
  8
0
  6
CONTINUOUS
 10
5.148000
 20
2.422200
  0
VERTEX
  8
0
  6
CONTINUOUS
 10
4.516160
 20
2.808080
  0
VERTEX
  8
0
  6
CONTINUOUS
 10
4.651680
 20
2.881120
  0
SEQEND
  8
0
  0
SOLID
  8
0
 62
    15
 10
4.516160
 20
2.808080
 11
5.148000
 21
2.422200
 12
4.372280
 22
2.770240
 13
5.004120
 23
2.384360
  0
POLYLINE
  8
0
  6
CONTINUOUS
 66
     1
 40
0.000000
 41
0.000000
  0
VERTEX
  8
0
  6
CONTINUOUS
 10
4.516160
 20
2.808080
  0
VERTEX
  8
0
  6
CONTINUOUS
 10
5.148000
 20
2.422200
  0
VERTEX
  8
0
  6
CONTINUOUS
 10
5.004120
 20
2.384360
  0
VERTEX
  8
0
  6
CONTINUOUS
 10
4.372280
 20
2.770240
  0
VERTEX
  8
0
  6
CONTINUOUS
 10
4.516160
 20
2.808080
  0
SEQEND
  8
0
  0
SOLID
  8
0
 62
    15
 10
4.372280
 20
2.770240
 11
5.004120
 21
2.384360
 12
4.347200
 22
2.257200
 13
4.979040
 23
1.871320
  0
POLYLINE
  8
0
  6
CONTINUOUS
 66
     1
 40
0.000000
 41
0.000000
  0
VERTEX
  8
0
  6
CONTINUOUS
 10
4.372280
 20
2.770240
  0
VERTEX
  8
0
  6
CONTINUOUS
 10
5.004120
 20
2.384360
  0
VERTEX
  8
0
  6
CONTINUOUS
 10
4.979040
 20
1.871320
  0
VERTEX
  8
0
  6
CONTINUOUS
 10
4.347200
 20
2.257200
  0
VERTEX
  8
0
  6
CONTINUOUS
 10
4.372280
 20
2.770240
  0
SEQEND
  8
0
  0
SOLID
  8
0
 62
    15
 10
4.347200
 20
2.257200
 11
4.979040
 21
1.871320
 12
3.798520
 22
2.251480
 13
4.430360
 23
1.865600
  0
POLYLINE
  8
0
  6
CONTINUOUS
 66
     1
 40
0.000000
 41
0.000000
  0
VERTEX
  8
0
  6
CONTINUOUS
 10
4.347200
 20
2.257200
  0
VERTEX
  8
0
  6
CONTINUOUS
 10
4.979040
 20
1.871320
  0
VERTEX
  8
0
  6
CONTINUOUS
 10
4.430360
 20
1.865600
  0
VERTEX
  8
0
  6
CONTINUOUS
 10
3.798520
 20
2.251480
  0
VERTEX
  8
0
  6
CONTINUOUS
 10
4.347200
 20
2.257200
  0
SEQEND
  8
0
  0
POLYLINE
  8
0
  6
CONTINUOUS
 66
     1
 40
0.000000
 41
0.000000
  0
VERTEX
  8
0
  6
CONTINUOUS
 10
6.400680
 20
6.076400
  0
VERTEX
  8
0
  6
CONTINUOUS
 10
6.386600
 20
5.446320
  0
VERTEX
  8
0
  6
CONTINUOUS
 10
6.245360
 20
5.406280
  0
VERTEX
  8
0
  6
CONTINUOUS
 10
6.102800
 20
5.335440
  0
VERTEX
  8
0
  6
CONTINUOUS
 10
5.961120
 20
5.231600
  0
VERTEX
  8
0
  6
CONTINUOUS
 10
5.822520
 20
5.092120
  0
VERTEX
  8
0
  6
CONTINUOUS
 10
5.688760
 20
4.914360
  0
VERTEX
  8
0
  6
CONTINUOUS
 10
5.561600
 20
4.696120
  0
VERTEX
  8
0
  6
CONTINUOUS
 10
5.443680
 20
4.434320
  0
VERTEX
  8
0
  6
CONTINUOUS
 10
5.388680
 20
4.286040
  0
VERTEX
  8
0
  6
CONTINUOUS
 10
5.336320
 20
4.126320
  0
VERTEX
  8
0
  6
CONTINUOUS
 10
5.233360
 20
3.816560
  0
VERTEX
  8
0
  6
CONTINUOUS
 10
5.127320
 20
3.549040
  0
VERTEX
  8
0
  6
CONTINUOUS
 10
5.016440
 20
3.323320
  0
VERTEX
  8
0
  6
CONTINUOUS
 10
4.901160
 20
3.137200
  0
VERTEX
  8
0
  6
CONTINUOUS
 10
4.779720
 20
2.990680
  0
VERTEX
  8
0
  6
CONTINUOUS
 10
4.651680
 20
2.881120
  0
VERTEX
  8
0
  6
CONTINUOUS
 10
4.516160
 20
2.808080
  0
VERTEX
  8
0
  6
CONTINUOUS
 10
4.372280
 20
2.770240
  0
VERTEX
  8
0
  6
CONTINUOUS
 10
4.347200
 20
2.257200
  0
VERTEX
  8
0
  6
CONTINUOUS
 10
3.798520
 20
2.251480
  0
VERTEX
  8
0
  6
CONTINUOUS
 10
3.816120
 20
2.759240
  0
VERTEX
  8
0
  6
CONTINUOUS
 10
5.954080
 20
6.073760
  0
VERTEX
  8
0
  6
CONTINUOUS
 10
6.400680
 20
6.076400
  0
SEQEND
  8
0
  0
TEXT
  8
0
 10
5.657960
 20
2.065800
 40
0.137969
  1
BA  1095
 41
1.000000
  7
SN0
 71
     0
 72
     5
 11
6.340447
 21
2.065800
  0
TEXT
  8
0
 10
5.456000
 20
1.874400
 40
0.137969
  1
11/16" x 4-5/8"
 41
1.000000
  7
SN0
 71
     0
 72
     5
 11
6.541835
 21
1.874400
  0
POLYLINE
  8
0
  6
CONTINUOUS
 66
     1
 40
0.014080
 41
0.014080
  0
VERTEX
  8
0
  6
CONTINUOUS
 10
7.524000
 20
6.684920
  0
VERTEX
  8
0
  6
CONTINUOUS
 10
6.986760
 20
7.014480
  0
VERTEX
  8
0
  6
CONTINUOUS
 10
6.934840
 20
6.964320
  0
VERTEX
  8
0
  6
CONTINUOUS
 10
6.906240
 20
6.940120
  0
VERTEX
  8
0
  6
CONTINUOUS
 10
6.844640
 20
6.895240
  0
VERTEX
  8
0
  6
CONTINUOUS
 10
6.811640
 20
6.874560
  0
VERTEX
  8
0
  6
CONTINUOUS
 10
6.739920
 20
6.835840
  0
VERTEX
  8
0
  6
CONTINUOUS
 10
6.701640
 20
6.818240
  0
VERTEX
  8
0
  6
CONTINUOUS
 10
6.661600
 20
6.801960
  0
VERTEX
  8
0
  6
CONTINUOUS
 10
6.575800
 20
6.772920
  0
VERTEX
  8
0
  6
CONTINUOUS
 10
6.530480
 20
6.760600
  0
VERTEX
  8
0
  6
CONTINUOUS
 10
6.483400
 20
6.749600
  0
VERTEX
  8
0
  6
CONTINUOUS
 10
6.383520
 20
6.732000
  0
VERTEX
  8
0
  6
CONTINUOUS
 10
6.330720
 20
6.725400
  0
VERTEX
  8
0
  6
CONTINUOUS
 10
6.276600
 20
6.720560
  0
VERTEX
  8
0
  6
CONTINUOUS
 10
6.191240
 20
6.716600
  0
VERTEX
  8
0
  6
CONTINUOUS
 10
6.131840
 20
6.715720
  0
VERTEX
  8
0
  6
CONTINUOUS
 10
6.039440
 20
6.717920
  0
VERTEX
  8
0
  6
CONTINUOUS
 10
5.942640
 20
6.724520
  0
VERTEX
  8
0
  6
CONTINUOUS
 10
5.841000
 20
6.735080
  0
VERTEX
  8
0
  6
CONTINUOUS
 10
5.735400
 20
6.750040
  0
VERTEX
  8
0
  6
CONTINUOUS
 10
5.624960
 20
6.769840
  0
VERTEX
  8
0
  6
CONTINUOUS
 10
5.510120
 20
6.794480
  0
VERTEX
  8
0
  6
CONTINUOUS
 10
5.390440
 20
6.823960
  0
VERTEX
  8
0
  6
CONTINUOUS
 10
5.145800
 20
6.890400
  0
VERTEX
  8
0
  6
CONTINUOUS
 10
5.029640
 20
6.919000
  0
VERTEX
  8
0
  6
CONTINUOUS
 10
4.846600
 20
6.959040
  0
VERTEX
  8
0
  6
CONTINUOUS
 10
4.709760
 20
6.983680
  0
VERTEX
  8
0
  6
CONTINUOUS
 10
4.580840
 20
7.001720
  0
VERTEX
  8
0
  6
CONTINUOUS
 10
4.489320
 20
7.010960
  0
VERTEX
  8
0
  6
CONTINUOUS
 10
4.402640
 20
7.016240
  0
VERTEX
  8
0
  6
CONTINUOUS
 10
4.346760
 20
7.018000
  0
VERTEX
  8
0
  6
CONTINUOUS
 10
4.293080
 20
7.018000
  0
VERTEX
  8
0
  6
CONTINUOUS
 10
4.241160
 20
7.016680
  0
VERTEX
  8
0
  6
CONTINUOUS
 10
4.191440
 20
7.013600
  0
VERTEX
  8
0
  6
CONTINUOUS
 10
4.143040
 20
7.008760
  0
VERTEX
  8
0
  6
CONTINUOUS
 10
4.051960
 20
6.994240
  0
VERTEX
  8
0
  6
CONTINUOUS
 10
4.009280
 20
6.984560
  0
VERTEX
  8
0
  6
CONTINUOUS
 10
3.967920
 20
6.973120
  0
VERTEX
  8
0
  6
CONTINUOUS
 10
3.928320
 20
6.960360
  0
VERTEX
  8
0
  6
CONTINUOUS
 10
3.890920
 20
6.945840
  0
VERTEX
  8
0
  6
CONTINUOUS
 10
3.854400
 20
6.929560
  0
VERTEX
  8
0
  6
CONTINUOUS
 10
3.820080
 20
6.911960
  0
VERTEX
  8
0
  6
CONTINUOUS
 10
3.787080
 20
6.892600
  0
VERTEX
  8
0
  6
CONTINUOUS
 10
3.755840
 20
6.871480
  0
VERTEX
  8
0
  6
CONTINUOUS
 10
3.726360
 20
6.849040
  0
VERTEX
  8
0
  6
CONTINUOUS
 10
3.671360
 20
6.798880
  0
VERTEX
  8
0
  6
CONTINUOUS
 10
3.646280
 20
6.771160
  0
VERTEX
  8
0
  6
CONTINUOUS
 10
3.201440
 20
7.027680
  0
VERTEX
  8
0
  6
CONTINUOUS
 10
2.899160
 20
6.569640
  0
VERTEX
  8
0
  6
CONTINUOUS
 10
3.335640
 20
6.309600
  0
VERTEX
  8
0
  6
CONTINUOUS
 10
7.279800
 20
6.310920
  0
VERTEX
  8
0
  6
CONTINUOUS
 10
7.524000
 20
6.684920
  0
SEQEND
  8
0
  0
TEXT
  8
0
 10
4.191000
 20
6.578000
 40
0.137969
  1
BA  1095
 41
1.000000
  7
SN0
 71
     0
 72
     5
 11
4.873487
 21
6.578000
  0
TEXT
  8
0
 10
3.989040
 20
6.386160
 40
0.137969
  1
11/16" x 4-5/8"
 41
1.000000
  7
SN0
 71
     0
 72
     5
 11
5.074875
 21
6.386160
  0
ENDSEC
  0
EOF
