  0
SECTION
  2
HEADER
  9
$ACADVER
  1
AC1006
  9
$EXTMIN
 10
3.177680
 20
3.166680
  9
$EXTMAX
 10
5.837480
 20
6.020960
  9
$LTSCALE
 40
0.044000
  9
$PDMODE
 70
    35
  9
$PDSIZE
 40
0.035200
  0
ENDSEC
  0
SECTION
  2
TABLES
  0
TABLE
  2
LTYPE
 70
     9
  0
LTYPE
  2
CONTINUOUS
 70
    64
  3
Solid line
 72
    65
 73
     0
 40
0.000000
  0
LTYPE
  2
DASHED
 70
    64
  3
__ __ __ __ __ __ __ __ __ __ __ __ __ __ __
 72
    65
 73
     2
 40
0.000330
 49
0.000220
 49
-0.000110
  0
LTYPE
  2
HIDDEN
 70
    64
  3
 _ _ _ _ _ _ _ _ _ _ _ _ _ _ _ _ _ _ _ _ _ _
 72
    65
 73
     2
 40
0.000165
 49
0.000110
 49
-0.000055
  0
LTYPE
  2
CENTER
 70
    64
  3
____ _ ____ _ ____ _ ____ _ ____ _ ____ _ ____
 72
    65
 73
     4
 40
0.000880
 49
0.000550
 49
-0.000110
 49
0.000110
 49
-0.000110
  0
LTYPE
  2
PHANTOM
 70
    64
  3
_____ _ _ _____ _ _ _____ _ _ _____ _ _ ____
 72
    65
 73
     6
 40
0.001100
 49
0.000550
 49
-0.000110
 49
0.000110
 49
-0.000110
 49
0.000110
 49
-0.000110
  0
LTYPE
  2
DOT
 70
    64
  3
...............................................
 72
    65
 73
     2
 40
0.000110
 49
0.000000
 49
-0.000110
  0
LTYPE
  2
DASHDOT
 70
    64
  3
__ . __ . __ . __ . __ . __ . __ . __ . __ . __
 72
    65
 73
     4
 40
0.000440
 49
0.000220
 49
-0.000110
 49
0.000000
 49
-0.000110
  0
LTYPE
  2
BORDER
 70
    64
  3
__ __ . __ __ . __ __ . __ __ . __ __ . __ __
 72
    65
 73
     6
 40
0.000770
 49
0.000220
 49
-0.000110
 49
0.000220
 49
-0.000110
 49
0.000000
 49
-0.000110
  0
LTYPE
  2
DIVIDE
 70
    64
  3
__ . . __ . . __ . . __ . . __ . . __ . . __
 72
    65
 73
     6
 40
0.000550
 49
0.000220
 49
-0.000110
 49
0.000000
 49
-0.000110
 49
0.000000
 49
-0.000110
  0
LTYPE
  2
DOTDOT
 70
    64
  3
 . .  . .  . .  . .  . .  . . 
 72
    65
 73
     5
 40
0.000242
 49
-0.000110
 49
0.000000
 49
-0.000110
 49
0.000000
 49
-0.000110
  0
ENDTAB
  0
TABLE
  2
STYLE
 70
     2
  0
STYLE
 70
     0
  2
SN0
 40
0.000000
 41
0.000440
 50
0.000000
 71
     0
 42
0.000000
  3
ROMAND
  0
STYLE
 70
    68
  2
SV0
 40
0.000000
 41
0.000440
 50
0.000000
 71
     0
 42
0.000000
  3
ROMAND
  0
ENDTAB
  0
TABLE
  2
LAYER
 70
     3
  0
LAYER
  2
FOREGROUND
 70
    64
 62
     7
  6
CONTINUOUS
  0
LAYER
  2
BACKGROUND
 70
    65
 62
    -7
  6
CONTINUOUS
  0
LAYER
  2
0
 70
    64
 62
     7
  6
CONTINUOUS
  0
ENDTAB
  0
ENDSEC
  0
SECTION
  2
ENTITIES
  0
POLYLINE
  8
FOREGROUND
  6
CONTINUOUS
 66
     1
 40
0.000000
 41
0.000000
  0
VERTEX
  8
FOREGROUND
  6
CONTINUOUS
 10
0.000000
 20
9.187640
  0
VERTEX
  8
FOREGROUND
  6
CONTINUOUS
 10
8.499920
 20
9.187640
  0
VERTEX
  8
FOREGROUND
  6
CONTINUOUS
 10
8.499920
 20
-1.812360
  0
VERTEX
  8
FOREGROUND
  6
CONTINUOUS
 10
0.000000
 20
-1.812360
  0
VERTEX
  8
FOREGROUND
  6
CONTINUOUS
 10
0.000000
 20
9.187640
  0
SEQEND
  8
0
  0
POLYLINE
  8
FOREGROUND
  6
CONTINUOUS
 66
     1
 40
0.000000
 41
0.000000
  0
VERTEX
  8
FOREGROUND
  6
CONTINUOUS
 10
0.000000
 20
9.187640
  0
VERTEX
  8
FOREGROUND
  6
CONTINUOUS
 10
8.499920
 20
9.187640
  0
VERTEX
  8
FOREGROUND
  6
CONTINUOUS
 10
8.499920
 20
-1.812360
  0
VERTEX
  8
FOREGROUND
  6
CONTINUOUS
 10
0.000000
 20
-1.812360
  0
VERTEX
  8
FOREGROUND
  6
CONTINUOUS
 10
0.000000
 20
9.187640
  0
SEQEND
  8
0
  0
SOLID
  8
0
 62
    15
 10
4.722520
 20
3.821400
 11
5.376360
 21
4.197600
 12
4.812280
 22
3.812160
 13
5.466120
 23
4.187920
  0
POLYLINE
  8
0
  6
CONTINUOUS
 66
     1
 40
0.000000
 41
0.000000
  0
VERTEX
  8
0
  6
CONTINUOUS
 10
4.722520
 20
3.821400
  0
VERTEX
  8
0
  6
CONTINUOUS
 10
5.376360
 20
4.197600
  0
VERTEX
  8
0
  6
CONTINUOUS
 10
5.466120
 20
4.187920
  0
VERTEX
  8
0
  6
CONTINUOUS
 10
4.812280
 20
3.812160
  0
VERTEX
  8
0
  6
CONTINUOUS
 10
4.722520
 20
3.821400
  0
SEQEND
  8
0
  0
SOLID
  8
0
 62
    15
 10
3.821840
 20
4.098600
 11
4.475680
 21
4.474800
 12
3.946800
 22
4.037440
 13
4.600640
 23
4.413640
  0
POLYLINE
  8
0
  6
CONTINUOUS
 66
     1
 40
0.000000
 41
0.000000
  0
VERTEX
  8
0
  6
CONTINUOUS
 10
3.821840
 20
4.098600
  0
VERTEX
  8
0
  6
CONTINUOUS
 10
4.475680
 20
4.474800
  0
VERTEX
  8
0
  6
CONTINUOUS
 10
4.600640
 20
4.413640
  0
VERTEX
  8
0
  6
CONTINUOUS
 10
3.946800
 20
4.037440
  0
VERTEX
  8
0
  6
CONTINUOUS
 10
3.821840
 20
4.098600
  0
SEQEND
  8
0
  0
SOLID
  8
0
 62
    15
 10
3.946800
 20
4.037440
 11
4.600640
 21
4.413640
 12
4.069560
 22
3.985080
 13
4.723400
 23
4.361280
  0
POLYLINE
  8
0
  6
CONTINUOUS
 66
     1
 40
0.000000
 41
0.000000
  0
VERTEX
  8
0
  6
CONTINUOUS
 10
3.946800
 20
4.037440
  0
VERTEX
  8
0
  6
CONTINUOUS
 10
4.600640
 20
4.413640
  0
VERTEX
  8
0
  6
CONTINUOUS
 10
4.723400
 20
4.361280
  0
VERTEX
  8
0
  6
CONTINUOUS
 10
4.069560
 20
3.985080
  0
VERTEX
  8
0
  6
CONTINUOUS
 10
3.946800
 20
4.037440
  0
SEQEND
  8
0
  0
SOLID
  8
0
 62
    15
 10
4.069560
 20
3.985080
 11
4.723400
 21
4.361280
 12
4.189240
 22
3.941520
 13
4.843080
 23
4.317280
  0
POLYLINE
  8
0
  6
CONTINUOUS
 66
     1
 40
0.000000
 41
0.000000
  0
VERTEX
  8
0
  6
CONTINUOUS
 10
4.069560
 20
3.985080
  0
VERTEX
  8
0
  6
CONTINUOUS
 10
4.723400
 20
4.361280
  0
VERTEX
  8
0
  6
CONTINUOUS
 10
4.843080
 20
4.317280
  0
VERTEX
  8
0
  6
CONTINUOUS
 10
4.189240
 20
3.941520
  0
VERTEX
  8
0
  6
CONTINUOUS
 10
4.069560
 20
3.985080
  0
SEQEND
  8
0
  0
SOLID
  8
0
 62
    15
 10
4.189240
 20
3.941520
 11
4.843080
 21
4.317280
 12
4.305400
 22
3.905000
 13
4.959240
 23
4.281200
  0
POLYLINE
  8
0
  6
CONTINUOUS
 66
     1
 40
0.000000
 41
0.000000
  0
VERTEX
  8
0
  6
CONTINUOUS
 10
4.189240
 20
3.941520
  0
VERTEX
  8
0
  6
CONTINUOUS
 10
4.843080
 20
4.317280
  0
VERTEX
  8
0
  6
CONTINUOUS
 10
4.959240
 20
4.281200
  0
VERTEX
  8
0
  6
CONTINUOUS
 10
4.305400
 20
3.905000
  0
VERTEX
  8
0
  6
CONTINUOUS
 10
4.189240
 20
3.941520
  0
SEQEND
  8
0
  0
SOLID
  8
0
 62
    15
 10
4.305400
 20
3.905000
 11
4.959240
 21
4.281200
 12
4.417160
 22
3.875960
 13
5.071440
 23
4.251720
  0
POLYLINE
  8
0
  6
CONTINUOUS
 66
     1
 40
0.000000
 41
0.000000
  0
VERTEX
  8
0
  6
CONTINUOUS
 10
4.305400
 20
3.905000
  0
VERTEX
  8
0
  6
CONTINUOUS
 10
4.959240
 20
4.281200
  0
VERTEX
  8
0
  6
CONTINUOUS
 10
5.071440
 20
4.251720
  0
VERTEX
  8
0
  6
CONTINUOUS
 10
4.417160
 20
3.875960
  0
VERTEX
  8
0
  6
CONTINUOUS
 10
4.305400
 20
3.905000
  0
SEQEND
  8
0
  0
SOLID
  8
0
 62
    15
 10
4.417160
 20
3.875960
 11
5.071440
 21
4.251720
 12
4.524520
 22
3.852640
 13
5.178360
 23
4.228400
  0
POLYLINE
  8
0
  6
CONTINUOUS
 66
     1
 40
0.000000
 41
0.000000
  0
VERTEX
  8
0
  6
CONTINUOUS
 10
4.417160
 20
3.875960
  0
VERTEX
  8
0
  6
CONTINUOUS
 10
5.071440
 20
4.251720
  0
VERTEX
  8
0
  6
CONTINUOUS
 10
5.178360
 20
4.228400
  0
VERTEX
  8
0
  6
CONTINUOUS
 10
4.524520
 20
3.852640
  0
VERTEX
  8
0
  6
CONTINUOUS
 10
4.417160
 20
3.875960
  0
SEQEND
  8
0
  0
SOLID
  8
0
 62
    15
 10
4.524520
 20
3.852640
 11
5.178360
 21
4.228400
 12
4.626600
 22
3.834600
 13
5.280440
 23
4.210800
  0
POLYLINE
  8
0
  6
CONTINUOUS
 66
     1
 40
0.000000
 41
0.000000
  0
VERTEX
  8
0
  6
CONTINUOUS
 10
4.524520
 20
3.852640
  0
VERTEX
  8
0
  6
CONTINUOUS
 10
5.178360
 20
4.228400
  0
VERTEX
  8
0
  6
CONTINUOUS
 10
5.280440
 20
4.210800
  0
VERTEX
  8
0
  6
CONTINUOUS
 10
4.626600
 20
3.834600
  0
VERTEX
  8
0
  6
CONTINUOUS
 10
4.524520
 20
3.852640
  0
SEQEND
  8
0
  0
SOLID
  8
0
 62
    15
 10
4.626600
 20
3.834600
 11
5.280440
 21
4.210800
 12
4.722520
 22
3.821400
 13
5.376360
 23
4.197600
  0
POLYLINE
  8
0
  6
CONTINUOUS
 66
     1
 40
0.000000
 41
0.000000
  0
VERTEX
  8
0
  6
CONTINUOUS
 10
4.626600
 20
3.834600
  0
VERTEX
  8
0
  6
CONTINUOUS
 10
5.280440
 20
4.210800
  0
VERTEX
  8
0
  6
CONTINUOUS
 10
5.376360
 20
4.197600
  0
VERTEX
  8
0
  6
CONTINUOUS
 10
4.722520
 20
3.821400
  0
VERTEX
  8
0
  6
CONTINUOUS
 10
4.626600
 20
3.834600
  0
SEQEND
  8
0
  0
SOLID
  8
0
 62
    15
 10
3.758480
 20
4.132920
 11
4.412320
 21
4.509120
 12
3.821840
 22
4.098600
 13
4.475680
 23
4.474800
  0
POLYLINE
  8
0
  6
CONTINUOUS
 66
     1
 40
0.000000
 41
0.000000
  0
VERTEX
  8
0
  6
CONTINUOUS
 10
3.758480
 20
4.132920
  0
VERTEX
  8
0
  6
CONTINUOUS
 10
4.412320
 20
4.509120
  0
VERTEX
  8
0
  6
CONTINUOUS
 10
4.475680
 20
4.474800
  0
VERTEX
  8
0
  6
CONTINUOUS
 10
3.821840
 20
4.098600
  0
VERTEX
  8
0
  6
CONTINUOUS
 10
3.758480
 20
4.132920
  0
SEQEND
  8
0
  0
SOLID
  8
0
 62
    15
 10
4.812280
 20
3.812160
 11
5.466120
 21
4.187920
 12
4.895000
 22
3.806000
 13
5.548840
 23
4.181760
  0
POLYLINE
  8
0
  6
CONTINUOUS
 66
     1
 40
0.000000
 41
0.000000
  0
VERTEX
  8
0
  6
CONTINUOUS
 10
4.812280
 20
3.812160
  0
VERTEX
  8
0
  6
CONTINUOUS
 10
5.466120
 20
4.187920
  0
VERTEX
  8
0
  6
CONTINUOUS
 10
5.548840
 20
4.181760
  0
VERTEX
  8
0
  6
CONTINUOUS
 10
4.895000
 20
3.806000
  0
VERTEX
  8
0
  6
CONTINUOUS
 10
4.812280
 20
3.812160
  0
SEQEND
  8
0
  0
SOLID
  8
0
 62
    15
 10
4.895000
 20
3.806000
 11
5.548840
 21
4.181760
 12
4.970240
 22
3.802040
 13
5.624080
 23
4.178240
  0
POLYLINE
  8
0
  6
CONTINUOUS
 66
     1
 40
0.000000
 41
0.000000
  0
VERTEX
  8
0
  6
CONTINUOUS
 10
4.895000
 20
3.806000
  0
VERTEX
  8
0
  6
CONTINUOUS
 10
5.548840
 20
4.181760
  0
VERTEX
  8
0
  6
CONTINUOUS
 10
5.624080
 20
4.178240
  0
VERTEX
  8
0
  6
CONTINUOUS
 10
4.970240
 20
3.802040
  0
VERTEX
  8
0
  6
CONTINUOUS
 10
4.895000
 20
3.806000
  0
SEQEND
  8
0
  0
SOLID
  8
0
 62
    15
 10
4.970240
 20
3.802040
 11
5.624080
 21
4.178240
 12
5.037120
 22
3.799840
 13
5.690960
 23
4.176040
  0
POLYLINE
  8
0
  6
CONTINUOUS
 66
     1
 40
0.000000
 41
0.000000
  0
VERTEX
  8
0
  6
CONTINUOUS
 10
4.970240
 20
3.802040
  0
VERTEX
  8
0
  6
CONTINUOUS
 10
5.624080
 20
4.178240
  0
VERTEX
  8
0
  6
CONTINUOUS
 10
5.690960
 20
4.176040
  0
VERTEX
  8
0
  6
CONTINUOUS
 10
5.037120
 20
3.799840
  0
VERTEX
  8
0
  6
CONTINUOUS
 10
4.970240
 20
3.802040
  0
SEQEND
  8
0
  0
SOLID
  8
0
 62
    15
 10
5.037120
 20
3.799840
 11
5.690960
 21
4.176040
 12
5.121160
 22
3.798080
 13
5.775000
 23
4.174280
  0
POLYLINE
  8
0
  6
CONTINUOUS
 66
     1
 40
0.000000
 41
0.000000
  0
VERTEX
  8
0
  6
CONTINUOUS
 10
5.037120
 20
3.799840
  0
VERTEX
  8
0
  6
CONTINUOUS
 10
5.690960
 20
4.176040
  0
VERTEX
  8
0
  6
CONTINUOUS
 10
5.775000
 20
4.174280
  0
VERTEX
  8
0
  6
CONTINUOUS
 10
5.121160
 20
3.798080
  0
VERTEX
  8
0
  6
CONTINUOUS
 10
5.037120
 20
3.799840
  0
SEQEND
  8
0
  0
SOLID
  8
0
 62
    15
 10
5.121160
 20
3.798080
 11
5.775000
 21
4.174280
 12
5.144480
 22
3.797640
 13
5.798320
 23
4.173840
  0
POLYLINE
  8
0
  6
CONTINUOUS
 66
     1
 40
0.000000
 41
0.000000
  0
VERTEX
  8
0
  6
CONTINUOUS
 10
5.121160
 20
3.798080
  0
VERTEX
  8
0
  6
CONTINUOUS
 10
5.775000
 20
4.174280
  0
VERTEX
  8
0
  6
CONTINUOUS
 10
5.798320
 20
4.173840
  0
VERTEX
  8
0
  6
CONTINUOUS
 10
5.144480
 20
3.797640
  0
VERTEX
  8
0
  6
CONTINUOUS
 10
5.121160
 20
3.798080
  0
SEQEND
  8
0
  0
SOLID
  8
0
 62
    15
 10
5.144480
 20
3.797640
 11
5.798320
 21
4.173840
 12
5.183200
 22
3.796320
 13
5.837480
 23
4.172080
  0
POLYLINE
  8
0
  6
CONTINUOUS
 66
     1
 40
0.000000
 41
0.000000
  0
VERTEX
  8
0
  6
CONTINUOUS
 10
5.144480
 20
3.797640
  0
VERTEX
  8
0
  6
CONTINUOUS
 10
5.798320
 20
4.173840
  0
VERTEX
  8
0
  6
CONTINUOUS
 10
5.837480
 20
4.172080
  0
VERTEX
  8
0
  6
CONTINUOUS
 10
5.183200
 20
3.796320
  0
VERTEX
  8
0
  6
CONTINUOUS
 10
5.144480
 20
3.797640
  0
SEQEND
  8
0
  0
SOLID
  8
0
 62
    15
 10
5.183200
 20
3.796320
 11
5.837480
 21
4.172080
 12
5.183200
 22
3.631320
 13
5.837480
 23
4.007520
  0
POLYLINE
  8
0
  6
CONTINUOUS
 66
     1
 40
0.000000
 41
0.000000
  0
VERTEX
  8
0
  6
CONTINUOUS
 10
5.183200
 20
3.796320
  0
VERTEX
  8
0
  6
CONTINUOUS
 10
5.837480
 20
4.172080
  0
VERTEX
  8
0
  6
CONTINUOUS
 10
5.837480
 20
4.007520
  0
VERTEX
  8
0
  6
CONTINUOUS
 10
5.183200
 20
3.631320
  0
VERTEX
  8
0
  6
CONTINUOUS
 10
5.183200
 20
3.796320
  0
SEQEND
  8
0
  0
SOLID
  8
0
 62
    15
 10
3.178560
 20
4.169880
 11
3.832400
 21
4.545640
 12
3.694680
 22
4.169880
 13
4.348960
 23
4.545640
  0
POLYLINE
  8
0
  6
CONTINUOUS
 66
     1
 40
0.000000
 41
0.000000
  0
VERTEX
  8
0
  6
CONTINUOUS
 10
3.178560
 20
4.169880
  0
VERTEX
  8
0
  6
CONTINUOUS
 10
3.832400
 20
4.545640
  0
VERTEX
  8
0
  6
CONTINUOUS
 10
4.348960
 20
4.545640
  0
VERTEX
  8
0
  6
CONTINUOUS
 10
3.694680
 20
4.169880
  0
VERTEX
  8
0
  6
CONTINUOUS
 10
3.178560
 20
4.169880
  0
SEQEND
  8
0
  0
SOLID
  8
0
 62
    15
 10
3.694680
 20
4.169880
 11
4.348960
 21
4.545640
 12
3.758480
 22
4.132920
 13
4.412320
 23
4.509120
  0
POLYLINE
  8
0
  6
CONTINUOUS
 66
     1
 40
0.000000
 41
0.000000
  0
VERTEX
  8
0
  6
CONTINUOUS
 10
3.694680
 20
4.169880
  0
VERTEX
  8
0
  6
CONTINUOUS
 10
4.348960
 20
4.545640
  0
VERTEX
  8
0
  6
CONTINUOUS
 10
4.412320
 20
4.509120
  0
VERTEX
  8
0
  6
CONTINUOUS
 10
3.758480
 20
4.132920
  0
VERTEX
  8
0
  6
CONTINUOUS
 10
3.694680
 20
4.169880
  0
SEQEND
  8
0
  0
POLYLINE
  8
0
  6
CONTINUOUS
 66
     1
 40
0.000000
 41
0.000000
  0
VERTEX
  8
0
  6
CONTINUOUS
 10
3.758480
 20
4.132920
  0
VERTEX
  8
0
  6
CONTINUOUS
 10
3.821840
 20
4.098600
  0
VERTEX
  8
0
  6
CONTINUOUS
 10
3.946800
 20
4.037440
  0
VERTEX
  8
0
  6
CONTINUOUS
 10
4.069560
 20
3.985080
  0
VERTEX
  8
0
  6
CONTINUOUS
 10
4.189240
 20
3.941520
  0
VERTEX
  8
0
  6
CONTINUOUS
 10
4.305400
 20
3.905000
  0
VERTEX
  8
0
  6
CONTINUOUS
 10
4.417160
 20
3.875960
  0
VERTEX
  8
0
  6
CONTINUOUS
 10
4.524520
 20
3.852640
  0
VERTEX
  8
0
  6
CONTINUOUS
 10
4.626600
 20
3.834600
  0
VERTEX
  8
0
  6
CONTINUOUS
 10
4.722520
 20
3.821400
  0
VERTEX
  8
0
  6
CONTINUOUS
 10
4.812280
 20
3.812160
  0
VERTEX
  8
0
  6
CONTINUOUS
 10
4.895000
 20
3.806000
  0
VERTEX
  8
0
  6
CONTINUOUS
 10
4.970240
 20
3.802040
  0
VERTEX
  8
0
  6
CONTINUOUS
 10
5.037120
 20
3.799840
  0
VERTEX
  8
0
  6
CONTINUOUS
 10
5.121160
 20
3.798080
  0
VERTEX
  8
0
  6
CONTINUOUS
 10
5.144480
 20
3.797640
  0
VERTEX
  8
0
  6
CONTINUOUS
 10
5.183200
 20
3.796320
  0
VERTEX
  8
0
  6
CONTINUOUS
 10
5.183200
 20
3.631320
  0
VERTEX
  8
0
  6
CONTINUOUS
 10
3.178560
 20
3.631320
  0
VERTEX
  8
0
  6
CONTINUOUS
 10
3.178560
 20
4.169880
  0
VERTEX
  8
0
  6
CONTINUOUS
 10
3.694680
 20
4.169880
  0
VERTEX
  8
0
  6
CONTINUOUS
 10
3.758480
 20
4.132920
  0
SEQEND
  8
0
  0
TEXT
  8
0
 10
4.130720
 20
3.401640
 40
0.138152
  1
BA  1094
 41
1.000000
  7
SN0
 71
     0
 72
     5
 11
4.812179
 21
3.401640
  0
TEXT
  8
0
 10
4.130720
 20
3.210240
 40
0.138152
  1
7/6" x 2"
 41
1.000000
  7
SN0
 71
     0
 72
     5
 11
4.744818
 21
3.210240
  0
POLYLINE
  8
0
  6
CONTINUOUS
 66
     1
 40
0.014080
 41
0.014080
  0
VERTEX
  8
0
  6
CONTINUOUS
 10
4.154040
 20
6.013480
  0
VERTEX
  8
0
  6
CONTINUOUS
 10
3.637920
 20
6.013480
  0
VERTEX
  8
0
  6
CONTINUOUS
 10
3.637920
 20
5.474920
  0
VERTEX
  8
0
  6
CONTINUOUS
 10
5.642560
 20
5.474920
  0
VERTEX
  8
0
  6
CONTINUOUS
 10
5.642560
 20
5.639920
  0
VERTEX
  8
0
  6
CONTINUOUS
 10
5.633760
 20
5.640360
  0
VERTEX
  8
0
  6
CONTINUOUS
 10
5.624080
 20
5.640800
  0
VERTEX
  8
0
  6
CONTINUOUS
 10
5.603400
 20
5.641680
  0
VERTEX
  8
0
  6
CONTINUOUS
 10
5.580080
 20
5.642120
  0
VERTEX
  8
0
  6
CONTINUOUS
 10
5.554560
 20
5.642560
  0
VERTEX
  8
0
  6
CONTINUOUS
 10
5.526400
 20
5.643000
  0
VERTEX
  8
0
  6
CONTINUOUS
 10
5.496040
 20
5.643440
  0
VERTEX
  8
0
  6
CONTINUOUS
 10
5.463920
 20
5.644320
  0
VERTEX
  8
0
  6
CONTINUOUS
 10
5.429160
 20
5.645640
  0
VERTEX
  8
0
  6
CONTINUOUS
 10
5.392640
 20
5.647400
  0
VERTEX
  8
0
  6
CONTINUOUS
 10
5.354360
 20
5.649600
  0
VERTEX
  8
0
  6
CONTINUOUS
 10
5.313880
 20
5.652240
  0
VERTEX
  8
0
  6
CONTINUOUS
 10
5.271640
 20
5.655760
  0
VERTEX
  8
0
  6
CONTINUOUS
 10
5.227640
 20
5.660160
  0
VERTEX
  8
0
  6
CONTINUOUS
 10
5.181880
 20
5.665000
  0
VERTEX
  8
0
  6
CONTINUOUS
 10
5.134360
 20
5.671160
  0
VERTEX
  8
0
  6
CONTINUOUS
 10
5.085960
 20
5.678200
  0
VERTEX
  8
0
  6
CONTINUOUS
 10
5.035360
 20
5.686560
  0
VERTEX
  8
0
  6
CONTINUOUS
 10
4.983880
 20
5.696240
  0
VERTEX
  8
0
  6
CONTINUOUS
 10
4.930640
 20
5.707240
  0
VERTEX
  8
0
  6
CONTINUOUS
 10
4.876520
 20
5.719560
  0
VERTEX
  8
0
  6
CONTINUOUS
 10
4.821080
 20
5.733200
  0
VERTEX
  8
0
  6
CONTINUOUS
 10
4.764760
 20
5.749040
  0
VERTEX
  8
0
  6
CONTINUOUS
 10
4.707120
 20
5.766200
  0
VERTEX
  8
0
  6
CONTINUOUS
 10
4.648600
 20
5.785120
  0
VERTEX
  8
0
  6
CONTINUOUS
 10
4.589200
 20
5.806240
  0
VERTEX
  8
0
  6
CONTINUOUS
 10
4.528920
 20
5.829120
  0
VERTEX
  8
0
  6
CONTINUOUS
 10
4.467760
 20
5.853760
  0
VERTEX
  8
0
  6
CONTINUOUS
 10
4.406160
 20
5.881040
  0
VERTEX
  8
0
  6
CONTINUOUS
 10
4.343680
 20
5.910520
  0
VERTEX
  8
0
  6
CONTINUOUS
 10
4.281200
 20
5.942200
  0
VERTEX
  8
0
  6
CONTINUOUS
 10
4.217840
 20
5.976520
  0
VERTEX
  8
0
  6
CONTINUOUS
 10
4.185720
 20
5.994560
  0
VERTEX
  8
0
  6
CONTINUOUS
 10
4.154040
 20
6.013480
  0
SEQEND
  8
0
  0
TEXT
  8
0
 10
4.026000
 20
5.264600
 40
0.138152
  1
BA  1094
 41
1.000000
  7
SN0
 71
     0
 72
     5
 11
4.707459
 21
5.264600
  0
TEXT
  8
0
 10
4.026000
 20
5.073200
 40
0.138152
  1
7/6" x 2"
 41
1.000000
  7
SN0
 71
     0
 72
     5
 11
4.640098
 21
5.073200
  0
ENDSEC
  0
EOF
