  0
SECTION
  2
HEADER
  9
$ACADVER
  1
AC1006
  9
$EXTMIN
 10
1.152360
 20
0.997920
  9
$EXTMAX
 10
7.320280
 20
4.084960
  9
$LTSCALE
 40
0.044000
  9
$PDMODE
 70
    35
  9
$PDSIZE
 40
0.035200
  0
ENDSEC
  0
SECTION
  2
TABLES
  0
TABLE
  2
LTYPE
 70
     9
  0
LTYPE
  2
CONTINUOUS
 70
    64
  3
Solid line
 72
    65
 73
     0
 40
0.000000
  0
LTYPE
  2
DASHED
 70
    64
  3
__ __ __ __ __ __ __ __ __ __ __ __ __ __ __
 72
    65
 73
     2
 40
0.000330
 49
0.000220
 49
-0.000110
  0
LTYPE
  2
HIDDEN
 70
    64
  3
 _ _ _ _ _ _ _ _ _ _ _ _ _ _ _ _ _ _ _ _ _ _
 72
    65
 73
     2
 40
0.000165
 49
0.000110
 49
-0.000055
  0
LTYPE
  2
CENTER
 70
    64
  3
____ _ ____ _ ____ _ ____ _ ____ _ ____ _ ____
 72
    65
 73
     4
 40
0.000880
 49
0.000550
 49
-0.000110
 49
0.000110
 49
-0.000110
  0
LTYPE
  2
PHANTOM
 70
    64
  3
_____ _ _ _____ _ _ _____ _ _ _____ _ _ ____
 72
    65
 73
     6
 40
0.001100
 49
0.000550
 49
-0.000110
 49
0.000110
 49
-0.000110
 49
0.000110
 49
-0.000110
  0
LTYPE
  2
DOT
 70
    64
  3
...............................................
 72
    65
 73
     2
 40
0.000110
 49
0.000000
 49
-0.000110
  0
LTYPE
  2
DASHDOT
 70
    64
  3
__ . __ . __ . __ . __ . __ . __ . __ . __ . __
 72
    65
 73
     4
 40
0.000440
 49
0.000220
 49
-0.000110
 49
0.000000
 49
-0.000110
  0
LTYPE
  2
BORDER
 70
    64
  3
__ __ . __ __ . __ __ . __ __ . __ __ . __ __
 72
    65
 73
     6
 40
0.000770
 49
0.000220
 49
-0.000110
 49
0.000220
 49
-0.000110
 49
0.000000
 49
-0.000110
  0
LTYPE
  2
DIVIDE
 70
    64
  3
__ . . __ . . __ . . __ . . __ . . __ . . __
 72
    65
 73
     6
 40
0.000550
 49
0.000220
 49
-0.000110
 49
0.000000
 49
-0.000110
 49
0.000000
 49
-0.000110
  0
LTYPE
  2
DOTDOT
 70
    64
  3
 . .  . .  . .  . .  . .  . . 
 72
    65
 73
     5
 40
0.000242
 49
-0.000110
 49
0.000000
 49
-0.000110
 49
0.000000
 49
-0.000110
  0
ENDTAB
  0
TABLE
  2
STYLE
 70
     2
  0
STYLE
 70
     0
  2
SN0
 40
0.000000
 41
0.000440
 50
0.000000
 71
     0
 42
0.000000
  3
ROMAND
  0
STYLE
 70
    68
  2
SV0
 40
0.000000
 41
0.000440
 50
0.000000
 71
     0
 42
0.000000
  3
ROMAND
  0
ENDTAB
  0
TABLE
  2
LAYER
 70
     3
  0
LAYER
  2
FOREGROUND
 70
    64
 62
     7
  6
CONTINUOUS
  0
LAYER
  2
BACKGROUND
 70
    65
 62
    -7
  6
CONTINUOUS
  0
LAYER
  2
0
 70
    64
 62
     7
  6
CONTINUOUS
  0
ENDTAB
  0
ENDSEC
  0
SECTION
  2
ENTITIES
  0
POLYLINE
  8
FOREGROUND
  6
CONTINUOUS
 66
     1
 40
0.000000
 41
0.000000
  0
VERTEX
  8
FOREGROUND
  6
CONTINUOUS
 10
0.000000
 20
5.082880
  0
VERTEX
  8
FOREGROUND
  6
CONTINUOUS
 10
8.499920
 20
5.082880
  0
VERTEX
  8
FOREGROUND
  6
CONTINUOUS
 10
8.499920
 20
-5.917120
  0
VERTEX
  8
FOREGROUND
  6
CONTINUOUS
 10
0.000000
 20
-5.917120
  0
VERTEX
  8
FOREGROUND
  6
CONTINUOUS
 10
0.000000
 20
5.082880
  0
SEQEND
  8
0
  0
POLYLINE
  8
FOREGROUND
  6
CONTINUOUS
 66
     1
 40
0.000000
 41
0.000000
  0
VERTEX
  8
FOREGROUND
  6
CONTINUOUS
 10
0.000000
 20
5.082880
  0
VERTEX
  8
FOREGROUND
  6
CONTINUOUS
 10
8.499920
 20
5.082880
  0
VERTEX
  8
FOREGROUND
  6
CONTINUOUS
 10
8.499920
 20
-5.917120
  0
VERTEX
  8
FOREGROUND
  6
CONTINUOUS
 10
0.000000
 20
-5.917120
  0
VERTEX
  8
FOREGROUND
  6
CONTINUOUS
 10
0.000000
 20
5.082880
  0
SEQEND
  8
0
  0
POLYLINE
  8
0
  6
CONTINUOUS
 66
     1
 40
0.014080
 41
0.014080
  0
VERTEX
  8
0
  6
CONTINUOUS
 10
6.354040
 20
4.000480
  0
VERTEX
  8
0
  6
CONTINUOUS
 10
5.643880
 20
4.000480
  0
VERTEX
  8
0
  6
CONTINUOUS
 10
5.546200
 20
3.997840
  0
VERTEX
  8
0
  6
CONTINUOUS
 10
5.455120
 20
3.989480
  0
VERTEX
  8
0
  6
CONTINUOUS
 10
5.370200
 20
3.976280
  0
VERTEX
  8
0
  6
CONTINUOUS
 10
5.291440
 20
3.957800
  0
VERTEX
  8
0
  6
CONTINUOUS
 10
5.254040
 20
3.947240
  0
VERTEX
  8
0
  6
CONTINUOUS
 10
5.183640
 20
3.922600
  0
VERTEX
  8
0
  6
CONTINUOUS
 10
5.118960
 20
3.893560
  0
VERTEX
  8
0
  6
CONTINUOUS
 10
5.059560
 20
3.861440
  0
VERTEX
  8
0
  6
CONTINUOUS
 10
5.005440
 20
3.825360
  0
VERTEX
  8
0
  6
CONTINUOUS
 10
4.956160
 20
3.786640
  0
VERTEX
  8
0
  6
CONTINUOUS
 10
4.911720
 20
3.745280
  0
VERTEX
  8
0
  6
CONTINUOUS
 10
4.871680
 20
3.701280
  0
VERTEX
  8
0
  6
CONTINUOUS
 10
4.836480
 20
3.655080
  0
VERTEX
  8
0
  6
CONTINUOUS
 10
4.805240
 20
3.607120
  0
VERTEX
  8
0
  6
CONTINUOUS
 10
4.777960
 20
3.557840
  0
VERTEX
  8
0
  6
CONTINUOUS
 10
4.755080
 20
3.507240
  0
VERTEX
  8
0
  6
CONTINUOUS
 10
4.735280
 20
3.455760
  0
VERTEX
  8
0
  6
CONTINUOUS
 10
4.719440
 20
3.404280
  0
VERTEX
  8
0
  6
CONTINUOUS
 10
4.706680
 20
3.351920
  0
VERTEX
  8
0
  6
CONTINUOUS
 10
4.693920
 20
3.274480
  0
VERTEX
  8
0
  6
CONTINUOUS
 10
4.688640
 20
3.223000
  0
VERTEX
  8
0
  6
CONTINUOUS
 10
4.686000
 20
3.148200
  0
VERTEX
  8
0
  6
CONTINUOUS
 10
4.687320
 20
3.099800
  0
VERTEX
  8
0
  6
CONTINUOUS
 10
4.693480
 20
3.030720
  0
VERTEX
  8
0
  6
CONTINUOUS
 10
4.704040
 20
2.966480
  0
VERTEX
  8
0
  6
CONTINUOUS
 10
4.718560
 20
2.908400
  0
VERTEX
  8
0
  6
CONTINUOUS
 10
4.736160
 20
2.856920
  0
VERTEX
  8
0
  6
CONTINUOUS
 10
4.756400
 20
2.813800
  0
VERTEX
  8
0
  6
CONTINUOUS
 10
4.770920
 20
2.790040
  0
VERTEX
  8
0
  6
CONTINUOUS
 10
4.855400
 20
2.663760
  0
VERTEX
  8
0
  6
CONTINUOUS
 10
4.928440
 20
2.546720
  0
VERTEX
  8
0
  6
CONTINUOUS
 10
4.986520
 20
2.442000
  0
VERTEX
  8
0
  6
CONTINUOUS
 10
5.015560
 20
2.381280
  0
VERTEX
  8
0
  6
CONTINUOUS
 10
5.036240
 20
2.328920
  0
VERTEX
  8
0
  6
CONTINUOUS
 10
5.046800
 20
2.285800
  0
VERTEX
  8
0
  6
CONTINUOUS
 10
5.048120
 20
2.268200
  0
VERTEX
  8
0
  6
CONTINUOUS
 10
5.048120
 20
2.207040
  0
VERTEX
  8
0
  6
CONTINUOUS
 10
5.050320
 20
2.180200
  0
VERTEX
  8
0
  6
CONTINUOUS
 10
5.056040
 20
2.156880
  0
VERTEX
  8
0
  6
CONTINUOUS
 10
5.060000
 20
2.146760
  0
VERTEX
  8
0
  6
CONTINUOUS
 10
5.072760
 20
2.130040
  0
VERTEX
  8
0
  6
CONTINUOUS
 10
5.081560
 20
2.123440
  0
VERTEX
  8
0
  6
CONTINUOUS
 10
5.097840
 20
2.115960
  0
VERTEX
  8
0
  6
CONTINUOUS
 10
5.118960
 20
2.112000
  0
VERTEX
  8
0
  6
CONTINUOUS
 10
5.136120
 20
2.111120
  0
VERTEX
  8
0
  6
CONTINUOUS
 10
5.183640
 20
2.111120
  0
VERTEX
  8
0
  6
CONTINUOUS
 10
5.183640
 20
1.963280
  0
VERTEX
  8
0
  6
CONTINUOUS
 10
5.165600
 20
1.962400
  0
VERTEX
  8
0
  6
CONTINUOUS
 10
5.148880
 20
1.958440
  0
VERTEX
  8
0
  6
CONTINUOUS
 10
5.126880
 20
1.947880
  0
VERTEX
  8
0
  6
CONTINUOUS
 10
5.108840
 20
1.932480
  0
VERTEX
  8
0
  6
CONTINUOUS
 10
5.095640
 20
1.913120
  0
VERTEX
  8
0
  6
CONTINUOUS
 10
5.086840
 20
1.891120
  0
VERTEX
  8
0
  6
CONTINUOUS
 10
5.084200
 20
1.875280
  0
VERTEX
  8
0
  6
CONTINUOUS
 10
5.084200
 20
1.859000
  0
VERTEX
  8
0
  6
CONTINUOUS
 10
5.089040
 20
1.833920
  0
VERTEX
  8
0
  6
CONTINUOUS
 10
5.100480
 20
1.809720
  0
VERTEX
  8
0
  6
CONTINUOUS
 10
5.119400
 20
1.786840
  0
VERTEX
  8
0
  6
CONTINUOUS
 10
5.135680
 20
1.773200
  0
VERTEX
  8
0
  6
CONTINUOUS
 10
5.145360
 20
1.766600
  0
VERTEX
  8
0
  6
CONTINUOUS
 10
6.854760
 20
1.766600
  0
VERTEX
  8
0
  6
CONTINUOUS
 10
6.854320
 20
1.766160
  0
VERTEX
  8
0
  6
CONTINUOUS
 10
6.872800
 20
1.779360
  0
VERTEX
  8
0
  6
CONTINUOUS
 10
6.893480
 20
1.801800
  0
VERTEX
  8
0
  6
CONTINUOUS
 10
6.903600
 20
1.817640
  0
VERTEX
  8
0
  6
CONTINUOUS
 10
6.910640
 20
1.833920
  0
VERTEX
  8
0
  6
CONTINUOUS
 10
6.915480
 20
1.858560
  0
VERTEX
  8
0
  6
CONTINUOUS
 10
6.915480
 20
1.875280
  0
VERTEX
  8
0
  6
CONTINUOUS
 10
6.910640
 20
1.898600
  0
VERTEX
  8
0
  6
CONTINUOUS
 10
6.900080
 20
1.919720
  0
VERTEX
  8
0
  6
CONTINUOUS
 10
6.885120
 20
1.937760
  0
VERTEX
  8
0
  6
CONTINUOUS
 10
6.865760
 20
1.951840
  0
VERTEX
  8
0
  6
CONTINUOUS
 10
6.842440
 20
1.960200
  0
VERTEX
  8
0
  6
CONTINUOUS
 10
6.825280
 20
1.962840
  0
VERTEX
  8
0
  6
CONTINUOUS
 10
6.816040
 20
1.962840
  0
VERTEX
  8
0
  6
CONTINUOUS
 10
6.816040
 20
2.111120
  0
VERTEX
  8
0
  6
CONTINUOUS
 10
6.871920
 20
2.111120
  0
VERTEX
  8
0
  6
CONTINUOUS
 10
6.894800
 20
2.114200
  0
VERTEX
  8
0
  6
CONTINUOUS
 10
6.907560
 20
2.117720
  0
VERTEX
  8
0
  6
CONTINUOUS
 10
6.918120
 20
2.123000
  0
VERTEX
  8
0
  6
CONTINUOUS
 10
6.926920
 20
2.129600
  0
VERTEX
  8
0
  6
CONTINUOUS
 10
6.939680
 20
2.146760
  0
VERTEX
  8
0
  6
CONTINUOUS
 10
6.947160
 20
2.167880
  0
VERTEX
  8
0
  6
CONTINUOUS
 10
6.950680
 20
2.193400
  0
VERTEX
  8
0
  6
CONTINUOUS
 10
6.952000
 20
2.276560
  0
VERTEX
  8
0
  6
CONTINUOUS
 10
6.956840
 20
2.306040
  0
VERTEX
  8
0
  6
CONTINUOUS
 10
6.967840
 20
2.341240
  0
VERTEX
  8
0
  6
CONTINUOUS
 10
6.990280
 20
2.395800
  0
VERTEX
  8
0
  6
CONTINUOUS
 10
7.030320
 20
2.475440
  0
VERTEX
  8
0
  6
CONTINUOUS
 10
7.093680
 20
2.584560
  0
VERTEX
  8
0
  6
CONTINUOUS
 10
7.171120
 20
2.705120
  0
VERTEX
  8
0
  6
CONTINUOUS
 10
7.236240
 20
2.801480
  0
VERTEX
  8
0
  6
CONTINUOUS
 10
7.256920
 20
2.841520
  0
VERTEX
  8
0
  6
CONTINUOUS
 10
7.275400
 20
2.890360
  0
VERTEX
  8
0
  6
CONTINUOUS
 10
7.291240
 20
2.946240
  0
VERTEX
  8
0
  6
CONTINUOUS
 10
7.303120
 20
3.008720
  0
VERTEX
  8
0
  6
CONTINUOUS
 10
7.310600
 20
3.076480
  0
VERTEX
  8
0
  6
CONTINUOUS
 10
7.313240
 20
3.124000
  0
VERTEX
  8
0
  6
CONTINUOUS
 10
7.313240
 20
3.172840
  0
VERTEX
  8
0
  6
CONTINUOUS
 10
7.311040
 20
3.223000
  0
VERTEX
  8
0
  6
CONTINUOUS
 10
7.302240
 20
3.300000
  0
VERTEX
  8
0
  6
CONTINUOUS
 10
7.286840
 20
3.378320
  0
VERTEX
  8
0
  6
CONTINUOUS
 10
7.272760
 20
3.430240
  0
VERTEX
  8
0
  6
CONTINUOUS
 10
7.244600
 20
3.507240
  0
VERTEX
  8
0
  6
CONTINUOUS
 10
7.221280
 20
3.557840
  0
VERTEX
  8
0
  6
CONTINUOUS
 10
7.194440
 20
3.607120
  0
VERTEX
  8
0
  6
CONTINUOUS
 10
7.163200
 20
3.655080
  0
VERTEX
  8
0
  6
CONTINUOUS
 10
7.128000
 20
3.701280
  0
VERTEX
  8
0
  6
CONTINUOUS
 10
7.087960
 20
3.745280
  0
VERTEX
  8
0
  6
CONTINUOUS
 10
7.043520
 20
3.786640
  0
VERTEX
  8
0
  6
CONTINUOUS
 10
6.994240
 20
3.825360
  0
VERTEX
  8
0
  6
CONTINUOUS
 10
6.940120
 20
3.861440
  0
VERTEX
  8
0
  6
CONTINUOUS
 10
6.880280
 20
3.893560
  0
VERTEX
  8
0
  6
CONTINUOUS
 10
6.815600
 20
3.922600
  0
VERTEX
  8
0
  6
CONTINUOUS
 10
6.745200
 20
3.947240
  0
VERTEX
  8
0
  6
CONTINUOUS
 10
6.669080
 20
3.967480
  0
VERTEX
  8
0
  6
CONTINUOUS
 10
6.629040
 20
3.976280
  0
VERTEX
  8
0
  6
CONTINUOUS
 10
6.544120
 20
3.989480
  0
VERTEX
  8
0
  6
CONTINUOUS
 10
6.453040
 20
3.997840
  0
VERTEX
  8
0
  6
CONTINUOUS
 10
6.354040
 20
4.000480
  0
SEQEND
  8
0
  0
TEXT
  8
0
 10
5.692280
 20
2.123000
 40
0.138244
  1
BA  1093
 41
1.000000
  7
SN0
 71
     0
 72
     5
 11
6.374760
 21
2.123000
  0
TEXT
  8
0
 10
5.508800
 20
1.931600
 40
0.138244
  1
2-1/4" x 2-5/8"
 41
1.000000
  7
SN0
 71
     0
 72
     5
 11
6.557346
 21
1.931600
  0
TEXT
  8
0
 10
2.449920
 20
1.233760
 40
0.138244
  1
BA  1093
 41
1.000000
  7
SN0
 71
     0
 72
     5
 11
3.132400
 21
1.233760
  0
TEXT
  8
0
 10
2.266440
 20
1.041920
 40
0.138244
  1
2-1/4" x 2-5/8"
 41
1.000000
  7
SN0
 71
     0
 72
     5
 11
3.314986
 21
1.041920
  0
SOLID
  8
0
 62
    15
 10
3.418360
 20
1.972960
 11
4.066920
 21
2.351800
 12
3.418360
 22
1.956680
 13
4.066920
 23
2.335520
  0
POLYLINE
  8
0
  6
CONTINUOUS
 66
     1
 40
0.000000
 41
0.000000
  0
VERTEX
  8
0
  6
CONTINUOUS
 10
3.418360
 20
1.972960
  0
VERTEX
  8
0
  6
CONTINUOUS
 10
4.066920
 20
2.351800
  0
VERTEX
  8
0
  6
CONTINUOUS
 10
4.066920
 20
2.335520
  0
VERTEX
  8
0
  6
CONTINUOUS
 10
3.418360
 20
1.956680
  0
VERTEX
  8
0
  6
CONTINUOUS
 10
3.418360
 20
1.972960
  0
SEQEND
  8
0
  0
SOLID
  8
0
 62
    15
 10
3.010920
 20
3.694240
 11
3.659480
 21
4.073080
 12
3.174600
 22
3.663000
 13
3.823600
 23
4.041400
  0
POLYLINE
  8
0
  6
CONTINUOUS
 66
     1
 40
0.000000
 41
0.000000
  0
VERTEX
  8
0
  6
CONTINUOUS
 10
3.010920
 20
3.694240
  0
VERTEX
  8
0
  6
CONTINUOUS
 10
3.659480
 20
4.073080
  0
VERTEX
  8
0
  6
CONTINUOUS
 10
3.823600
 20
4.041400
  0
VERTEX
  8
0
  6
CONTINUOUS
 10
3.174600
 20
3.663000
  0
VERTEX
  8
0
  6
CONTINUOUS
 10
3.010920
 20
3.694240
  0
SEQEND
  8
0
  0
SOLID
  8
0
 62
    15
 10
3.174600
 20
3.663000
 11
3.823600
 21
4.041400
 12
3.315400
 22
3.613280
 13
3.963960
 23
3.992120
  0
POLYLINE
  8
0
  6
CONTINUOUS
 66
     1
 40
0.000000
 41
0.000000
  0
VERTEX
  8
0
  6
CONTINUOUS
 10
3.174600
 20
3.663000
  0
VERTEX
  8
0
  6
CONTINUOUS
 10
3.823600
 20
4.041400
  0
VERTEX
  8
0
  6
CONTINUOUS
 10
3.963960
 20
3.992120
  0
VERTEX
  8
0
  6
CONTINUOUS
 10
3.315400
 20
3.613280
  0
VERTEX
  8
0
  6
CONTINUOUS
 10
3.174600
 20
3.663000
  0
SEQEND
  8
0
  0
SOLID
  8
0
 62
    15
 10
3.315400
 20
3.613280
 11
3.963960
 21
3.992120
 12
3.434200
 22
3.548600
 13
4.083200
 23
3.927440
  0
POLYLINE
  8
0
  6
CONTINUOUS
 66
     1
 40
0.000000
 41
0.000000
  0
VERTEX
  8
0
  6
CONTINUOUS
 10
3.315400
 20
3.613280
  0
VERTEX
  8
0
  6
CONTINUOUS
 10
3.963960
 20
3.992120
  0
VERTEX
  8
0
  6
CONTINUOUS
 10
4.083200
 20
3.927440
  0
VERTEX
  8
0
  6
CONTINUOUS
 10
3.434200
 20
3.548600
  0
VERTEX
  8
0
  6
CONTINUOUS
 10
3.315400
 20
3.613280
  0
SEQEND
  8
0
  0
SOLID
  8
0
 62
    15
 10
3.434200
 20
3.548600
 11
4.083200
 21
3.927440
 12
3.532760
 22
3.471160
 13
4.181760
 23
3.850000
  0
POLYLINE
  8
0
  6
CONTINUOUS
 66
     1
 40
0.000000
 41
0.000000
  0
VERTEX
  8
0
  6
CONTINUOUS
 10
3.434200
 20
3.548600
  0
VERTEX
  8
0
  6
CONTINUOUS
 10
4.083200
 20
3.927440
  0
VERTEX
  8
0
  6
CONTINUOUS
 10
4.181760
 20
3.850000
  0
VERTEX
  8
0
  6
CONTINUOUS
 10
3.532760
 20
3.471160
  0
VERTEX
  8
0
  6
CONTINUOUS
 10
3.434200
 20
3.548600
  0
SEQEND
  8
0
  0
SOLID
  8
0
 62
    15
 10
3.532760
 20
3.471160
 11
4.181760
 21
3.850000
 12
3.612400
 22
3.383160
 13
4.261400
 23
3.762000
  0
POLYLINE
  8
0
  6
CONTINUOUS
 66
     1
 40
0.000000
 41
0.000000
  0
VERTEX
  8
0
  6
CONTINUOUS
 10
3.532760
 20
3.471160
  0
VERTEX
  8
0
  6
CONTINUOUS
 10
4.181760
 20
3.850000
  0
VERTEX
  8
0
  6
CONTINUOUS
 10
4.261400
 20
3.762000
  0
VERTEX
  8
0
  6
CONTINUOUS
 10
3.612400
 20
3.383160
  0
VERTEX
  8
0
  6
CONTINUOUS
 10
3.532760
 20
3.471160
  0
SEQEND
  8
0
  0
SOLID
  8
0
 62
    15
 10
3.612400
 20
3.383160
 11
4.261400
 21
3.762000
 12
3.674880
 22
3.287680
 13
4.323880
 23
3.666080
  0
POLYLINE
  8
0
  6
CONTINUOUS
 66
     1
 40
0.000000
 41
0.000000
  0
VERTEX
  8
0
  6
CONTINUOUS
 10
3.612400
 20
3.383160
  0
VERTEX
  8
0
  6
CONTINUOUS
 10
4.261400
 20
3.762000
  0
VERTEX
  8
0
  6
CONTINUOUS
 10
4.323880
 20
3.666080
  0
VERTEX
  8
0
  6
CONTINUOUS
 10
3.674880
 20
3.287680
  0
VERTEX
  8
0
  6
CONTINUOUS
 10
3.612400
 20
3.383160
  0
SEQEND
  8
0
  0
SOLID
  8
0
 62
    15
 10
3.674880
 20
3.287680
 11
4.323880
 21
3.666080
 12
3.721520
 22
3.186480
 13
4.370080
 23
3.565320
  0
POLYLINE
  8
0
  6
CONTINUOUS
 66
     1
 40
0.000000
 41
0.000000
  0
VERTEX
  8
0
  6
CONTINUOUS
 10
3.674880
 20
3.287680
  0
VERTEX
  8
0
  6
CONTINUOUS
 10
4.323880
 20
3.666080
  0
VERTEX
  8
0
  6
CONTINUOUS
 10
4.370080
 20
3.565320
  0
VERTEX
  8
0
  6
CONTINUOUS
 10
3.721520
 20
3.186480
  0
VERTEX
  8
0
  6
CONTINUOUS
 10
3.674880
 20
3.287680
  0
SEQEND
  8
0
  0
SOLID
  8
0
 62
    15
 10
3.721520
 20
3.186480
 11
4.370080
 21
3.565320
 12
3.753200
 22
3.083080
 13
4.402200
 23
3.461920
  0
POLYLINE
  8
0
  6
CONTINUOUS
 66
     1
 40
0.000000
 41
0.000000
  0
VERTEX
  8
0
  6
CONTINUOUS
 10
3.721520
 20
3.186480
  0
VERTEX
  8
0
  6
CONTINUOUS
 10
4.370080
 20
3.565320
  0
VERTEX
  8
0
  6
CONTINUOUS
 10
4.402200
 20
3.461920
  0
VERTEX
  8
0
  6
CONTINUOUS
 10
3.753200
 20
3.083080
  0
VERTEX
  8
0
  6
CONTINUOUS
 10
3.721520
 20
3.186480
  0
SEQEND
  8
0
  0
SOLID
  8
0
 62
    15
 10
3.753200
 20
3.083080
 11
4.402200
 21
3.461920
 12
3.772120
 22
2.979240
 13
4.421120
 23
3.358080
  0
POLYLINE
  8
0
  6
CONTINUOUS
 66
     1
 40
0.000000
 41
0.000000
  0
VERTEX
  8
0
  6
CONTINUOUS
 10
3.753200
 20
3.083080
  0
VERTEX
  8
0
  6
CONTINUOUS
 10
4.402200
 20
3.461920
  0
VERTEX
  8
0
  6
CONTINUOUS
 10
4.421120
 20
3.358080
  0
VERTEX
  8
0
  6
CONTINUOUS
 10
3.772120
 20
2.979240
  0
VERTEX
  8
0
  6
CONTINUOUS
 10
3.753200
 20
3.083080
  0
SEQEND
  8
0
  0
SOLID
  8
0
 62
    15
 10
3.772120
 20
2.979240
 11
4.421120
 21
3.358080
 12
3.779600
 22
2.878040
 13
4.428600
 23
3.256440
  0
POLYLINE
  8
0
  6
CONTINUOUS
 66
     1
 40
0.000000
 41
0.000000
  0
VERTEX
  8
0
  6
CONTINUOUS
 10
3.772120
 20
2.979240
  0
VERTEX
  8
0
  6
CONTINUOUS
 10
4.421120
 20
3.358080
  0
VERTEX
  8
0
  6
CONTINUOUS
 10
4.428600
 20
3.256440
  0
VERTEX
  8
0
  6
CONTINUOUS
 10
3.779600
 20
2.878040
  0
VERTEX
  8
0
  6
CONTINUOUS
 10
3.772120
 20
2.979240
  0
SEQEND
  8
0
  0
SOLID
  8
0
 62
    15
 10
3.779600
 20
2.878040
 11
4.428600
 21
3.256440
 12
3.776960
 22
2.781240
 13
4.425960
 23
3.160080
  0
POLYLINE
  8
0
  6
CONTINUOUS
 66
     1
 40
0.000000
 41
0.000000
  0
VERTEX
  8
0
  6
CONTINUOUS
 10
3.779600
 20
2.878040
  0
VERTEX
  8
0
  6
CONTINUOUS
 10
4.428600
 20
3.256440
  0
VERTEX
  8
0
  6
CONTINUOUS
 10
4.425960
 20
3.160080
  0
VERTEX
  8
0
  6
CONTINUOUS
 10
3.776960
 20
2.781240
  0
VERTEX
  8
0
  6
CONTINUOUS
 10
3.779600
 20
2.878040
  0
SEQEND
  8
0
  0
SOLID
  8
0
 62
    15
 10
3.776960
 20
2.781240
 11
4.425960
 21
3.160080
 12
3.765960
 22
2.692360
 13
4.414520
 23
3.071200
  0
POLYLINE
  8
0
  6
CONTINUOUS
 66
     1
 40
0.000000
 41
0.000000
  0
VERTEX
  8
0
  6
CONTINUOUS
 10
3.776960
 20
2.781240
  0
VERTEX
  8
0
  6
CONTINUOUS
 10
4.425960
 20
3.160080
  0
VERTEX
  8
0
  6
CONTINUOUS
 10
4.414520
 20
3.071200
  0
VERTEX
  8
0
  6
CONTINUOUS
 10
3.765960
 20
2.692360
  0
VERTEX
  8
0
  6
CONTINUOUS
 10
3.776960
 20
2.781240
  0
SEQEND
  8
0
  0
SOLID
  8
0
 62
    15
 10
3.765960
 20
2.692360
 11
4.414520
 21
3.071200
 12
3.747480
 22
2.613160
 13
4.396480
 23
2.992000
  0
POLYLINE
  8
0
  6
CONTINUOUS
 66
     1
 40
0.000000
 41
0.000000
  0
VERTEX
  8
0
  6
CONTINUOUS
 10
3.765960
 20
2.692360
  0
VERTEX
  8
0
  6
CONTINUOUS
 10
4.414520
 20
3.071200
  0
VERTEX
  8
0
  6
CONTINUOUS
 10
4.396480
 20
2.992000
  0
VERTEX
  8
0
  6
CONTINUOUS
 10
3.747480
 20
2.613160
  0
VERTEX
  8
0
  6
CONTINUOUS
 10
3.765960
 20
2.692360
  0
SEQEND
  8
0
  0
SOLID
  8
0
 62
    15
 10
3.747480
 20
2.613160
 11
4.396480
 21
2.992000
 12
3.723720
 22
2.546720
 13
4.372280
 23
2.925560
  0
POLYLINE
  8
0
  6
CONTINUOUS
 66
     1
 40
0.000000
 41
0.000000
  0
VERTEX
  8
0
  6
CONTINUOUS
 10
3.747480
 20
2.613160
  0
VERTEX
  8
0
  6
CONTINUOUS
 10
4.396480
 20
2.992000
  0
VERTEX
  8
0
  6
CONTINUOUS
 10
4.372280
 20
2.925560
  0
VERTEX
  8
0
  6
CONTINUOUS
 10
3.723720
 20
2.546720
  0
VERTEX
  8
0
  6
CONTINUOUS
 10
3.747480
 20
2.613160
  0
SEQEND
  8
0
  0
SOLID
  8
0
 62
    15
 10
3.723720
 20
2.546720
 11
4.372280
 21
2.925560
 12
3.695120
 22
2.494800
 13
4.344120
 23
2.873640
  0
POLYLINE
  8
0
  6
CONTINUOUS
 66
     1
 40
0.000000
 41
0.000000
  0
VERTEX
  8
0
  6
CONTINUOUS
 10
3.723720
 20
2.546720
  0
VERTEX
  8
0
  6
CONTINUOUS
 10
4.372280
 20
2.925560
  0
VERTEX
  8
0
  6
CONTINUOUS
 10
4.344120
 20
2.873640
  0
VERTEX
  8
0
  6
CONTINUOUS
 10
3.695120
 20
2.494800
  0
VERTEX
  8
0
  6
CONTINUOUS
 10
3.723720
 20
2.546720
  0
SEQEND
  8
0
  0
SOLID
  8
0
 62
    15
 10
3.695120
 20
2.494800
 11
4.344120
 21
2.873640
 12
3.584680
 22
2.328480
 13
4.233680
 23
2.707320
  0
POLYLINE
  8
0
  6
CONTINUOUS
 66
     1
 40
0.000000
 41
0.000000
  0
VERTEX
  8
0
  6
CONTINUOUS
 10
3.695120
 20
2.494800
  0
VERTEX
  8
0
  6
CONTINUOUS
 10
4.344120
 20
2.873640
  0
VERTEX
  8
0
  6
CONTINUOUS
 10
4.233680
 20
2.707320
  0
VERTEX
  8
0
  6
CONTINUOUS
 10
3.584680
 20
2.328480
  0
VERTEX
  8
0
  6
CONTINUOUS
 10
3.695120
 20
2.494800
  0
SEQEND
  8
0
  0
SOLID
  8
0
 62
    15
 10
3.584680
 20
2.328480
 11
4.233680
 21
2.707320
 12
3.497120
 22
2.180200
 13
4.145680
 23
2.559040
  0
POLYLINE
  8
0
  6
CONTINUOUS
 66
     1
 40
0.000000
 41
0.000000
  0
VERTEX
  8
0
  6
CONTINUOUS
 10
3.584680
 20
2.328480
  0
VERTEX
  8
0
  6
CONTINUOUS
 10
4.233680
 20
2.707320
  0
VERTEX
  8
0
  6
CONTINUOUS
 10
4.145680
 20
2.559040
  0
VERTEX
  8
0
  6
CONTINUOUS
 10
3.497120
 20
2.180200
  0
VERTEX
  8
0
  6
CONTINUOUS
 10
3.584680
 20
2.328480
  0
SEQEND
  8
0
  0
SOLID
  8
0
 62
    15
 10
3.497120
 20
2.180200
 11
4.145680
 21
2.559040
 12
3.464120
 22
2.115520
 13
4.112680
 23
2.494360
  0
POLYLINE
  8
0
  6
CONTINUOUS
 66
     1
 40
0.000000
 41
0.000000
  0
VERTEX
  8
0
  6
CONTINUOUS
 10
3.497120
 20
2.180200
  0
VERTEX
  8
0
  6
CONTINUOUS
 10
4.145680
 20
2.559040
  0
VERTEX
  8
0
  6
CONTINUOUS
 10
4.112680
 20
2.494360
  0
VERTEX
  8
0
  6
CONTINUOUS
 10
3.464120
 20
2.115520
  0
VERTEX
  8
0
  6
CONTINUOUS
 10
3.497120
 20
2.180200
  0
SEQEND
  8
0
  0
SOLID
  8
0
 62
    15
 10
3.464120
 20
2.115520
 11
4.112680
 21
2.494360
 12
3.439040
 22
2.058760
 13
4.088040
 23
2.437600
  0
POLYLINE
  8
0
  6
CONTINUOUS
 66
     1
 40
0.000000
 41
0.000000
  0
VERTEX
  8
0
  6
CONTINUOUS
 10
3.464120
 20
2.115520
  0
VERTEX
  8
0
  6
CONTINUOUS
 10
4.112680
 20
2.494360
  0
VERTEX
  8
0
  6
CONTINUOUS
 10
4.088040
 20
2.437600
  0
VERTEX
  8
0
  6
CONTINUOUS
 10
3.439040
 20
2.058760
  0
VERTEX
  8
0
  6
CONTINUOUS
 10
3.464120
 20
2.115520
  0
SEQEND
  8
0
  0
SOLID
  8
0
 62
    15
 10
3.439040
 20
2.058760
 11
4.088040
 21
2.437600
 12
3.423640
 22
2.010800
 13
4.072640
 23
2.389640
  0
POLYLINE
  8
0
  6
CONTINUOUS
 66
     1
 40
0.000000
 41
0.000000
  0
VERTEX
  8
0
  6
CONTINUOUS
 10
3.439040
 20
2.058760
  0
VERTEX
  8
0
  6
CONTINUOUS
 10
4.088040
 20
2.437600
  0
VERTEX
  8
0
  6
CONTINUOUS
 10
4.072640
 20
2.389640
  0
VERTEX
  8
0
  6
CONTINUOUS
 10
3.423640
 20
2.010800
  0
VERTEX
  8
0
  6
CONTINUOUS
 10
3.439040
 20
2.058760
  0
SEQEND
  8
0
  0
SOLID
  8
0
 62
    15
 10
3.423640
 20
2.010800
 11
4.072640
 21
2.389640
 12
3.418360
 22
1.972960
 13
4.066920
 23
2.351800
  0
POLYLINE
  8
0
  6
CONTINUOUS
 66
     1
 40
0.000000
 41
0.000000
  0
VERTEX
  8
0
  6
CONTINUOUS
 10
3.423640
 20
2.010800
  0
VERTEX
  8
0
  6
CONTINUOUS
 10
4.072640
 20
2.389640
  0
VERTEX
  8
0
  6
CONTINUOUS
 10
4.066920
 20
2.351800
  0
VERTEX
  8
0
  6
CONTINUOUS
 10
3.418360
 20
1.972960
  0
VERTEX
  8
0
  6
CONTINUOUS
 10
3.423640
 20
2.010800
  0
SEQEND
  8
0
  0
SOLID
  8
0
 62
    15
 10
2.822160
 20
3.705240
 11
3.471160
 21
4.084080
 12
3.010920
 22
3.694240
 13
3.659480
 23
4.073080
  0
POLYLINE
  8
0
  6
CONTINUOUS
 66
     1
 40
0.000000
 41
0.000000
  0
VERTEX
  8
0
  6
CONTINUOUS
 10
2.822160
 20
3.705240
  0
VERTEX
  8
0
  6
CONTINUOUS
 10
3.471160
 20
4.084080
  0
VERTEX
  8
0
  6
CONTINUOUS
 10
3.659480
 20
4.073080
  0
VERTEX
  8
0
  6
CONTINUOUS
 10
3.010920
 20
3.694240
  0
VERTEX
  8
0
  6
CONTINUOUS
 10
2.822160
 20
3.705240
  0
SEQEND
  8
0
  0
SOLID
  8
0
 62
    15
 10
3.418360
 20
1.956680
 11
4.066920
 21
2.335520
 12
3.418360
 22
1.941280
 13
4.067360
 23
2.320120
  0
POLYLINE
  8
0
  6
CONTINUOUS
 66
     1
 40
0.000000
 41
0.000000
  0
VERTEX
  8
0
  6
CONTINUOUS
 10
3.418360
 20
1.956680
  0
VERTEX
  8
0
  6
CONTINUOUS
 10
4.066920
 20
2.335520
  0
VERTEX
  8
0
  6
CONTINUOUS
 10
4.067360
 20
2.320120
  0
VERTEX
  8
0
  6
CONTINUOUS
 10
3.418360
 20
1.941280
  0
VERTEX
  8
0
  6
CONTINUOUS
 10
3.418360
 20
1.956680
  0
SEQEND
  8
0
  0
SOLID
  8
0
 62
    15
 10
3.418360
 20
1.941280
 11
4.067360
 21
2.320120
 12
3.417920
 22
1.911800
 13
4.066920
 23
2.290640
  0
POLYLINE
  8
0
  6
CONTINUOUS
 66
     1
 40
0.000000
 41
0.000000
  0
VERTEX
  8
0
  6
CONTINUOUS
 10
3.418360
 20
1.941280
  0
VERTEX
  8
0
  6
CONTINUOUS
 10
4.067360
 20
2.320120
  0
VERTEX
  8
0
  6
CONTINUOUS
 10
4.066920
 20
2.290640
  0
VERTEX
  8
0
  6
CONTINUOUS
 10
3.417920
 20
1.911800
  0
VERTEX
  8
0
  6
CONTINUOUS
 10
3.418360
 20
1.941280
  0
SEQEND
  8
0
  0
SOLID
  8
0
 62
    15
 10
3.282840
 20
1.815880
 11
3.931400
 21
2.194720
 12
3.282840
 22
1.668040
 13
3.931400
 23
2.046440
  0
POLYLINE
  8
0
  6
CONTINUOUS
 66
     1
 40
0.000000
 41
0.000000
  0
VERTEX
  8
0
  6
CONTINUOUS
 10
3.282840
 20
1.815880
  0
VERTEX
  8
0
  6
CONTINUOUS
 10
3.931400
 20
2.194720
  0
VERTEX
  8
0
  6
CONTINUOUS
 10
3.931400
 20
2.046440
  0
VERTEX
  8
0
  6
CONTINUOUS
 10
3.282840
 20
1.668040
  0
VERTEX
  8
0
  6
CONTINUOUS
 10
3.282840
 20
1.815880
  0
SEQEND
  8
0
  0
SOLID
  8
0
 62
    15
 10
3.410440
 20
1.861640
 11
4.059000
 21
2.240480
 12
3.384480
 22
1.828200
 13
4.033480
 23
2.206600
  0
POLYLINE
  8
0
  6
CONTINUOUS
 66
     1
 40
0.000000
 41
0.000000
  0
VERTEX
  8
0
  6
CONTINUOUS
 10
3.410440
 20
1.861640
  0
VERTEX
  8
0
  6
CONTINUOUS
 10
4.059000
 20
2.240480
  0
VERTEX
  8
0
  6
CONTINUOUS
 10
4.033480
 20
2.206600
  0
VERTEX
  8
0
  6
CONTINUOUS
 10
3.384480
 20
1.828200
  0
VERTEX
  8
0
  6
CONTINUOUS
 10
3.410440
 20
1.861640
  0
SEQEND
  8
0
  0
SOLID
  8
0
 62
    15
 10
3.417920
 20
1.911800
 11
4.066920
 21
2.290640
 12
3.410440
 22
1.861640
 13
4.059000
 23
2.240480
  0
POLYLINE
  8
0
  6
CONTINUOUS
 66
     1
 40
0.000000
 41
0.000000
  0
VERTEX
  8
0
  6
CONTINUOUS
 10
3.417920
 20
1.911800
  0
VERTEX
  8
0
  6
CONTINUOUS
 10
4.066920
 20
2.290640
  0
VERTEX
  8
0
  6
CONTINUOUS
 10
4.059000
 20
2.240480
  0
VERTEX
  8
0
  6
CONTINUOUS
 10
3.410440
 20
1.861640
  0
VERTEX
  8
0
  6
CONTINUOUS
 10
3.417920
 20
1.911800
  0
SEQEND
  8
0
  0
SOLID
  8
0
 62
    15
 10
3.282840
 20
1.668040
 11
3.931400
 21
2.046440
 12
3.317600
 22
1.663200
 13
3.966160
 23
2.042040
  0
POLYLINE
  8
0
  6
CONTINUOUS
 66
     1
 40
0.000000
 41
0.000000
  0
VERTEX
  8
0
  6
CONTINUOUS
 10
3.282840
 20
1.668040
  0
VERTEX
  8
0
  6
CONTINUOUS
 10
3.931400
 20
2.046440
  0
VERTEX
  8
0
  6
CONTINUOUS
 10
3.966160
 20
2.042040
  0
VERTEX
  8
0
  6
CONTINUOUS
 10
3.317600
 20
1.663200
  0
VERTEX
  8
0
  6
CONTINUOUS
 10
3.282840
 20
1.668040
  0
SEQEND
  8
0
  0
SOLID
  8
0
 62
    15
 10
3.317600
 20
1.663200
 11
3.966160
 21
2.042040
 12
3.345760
 22
1.647800
 13
3.994760
 23
2.026640
  0
POLYLINE
  8
0
  6
CONTINUOUS
 66
     1
 40
0.000000
 41
0.000000
  0
VERTEX
  8
0
  6
CONTINUOUS
 10
3.317600
 20
1.663200
  0
VERTEX
  8
0
  6
CONTINUOUS
 10
3.966160
 20
2.042040
  0
VERTEX
  8
0
  6
CONTINUOUS
 10
3.994760
 20
2.026640
  0
VERTEX
  8
0
  6
CONTINUOUS
 10
3.345760
 20
1.647800
  0
VERTEX
  8
0
  6
CONTINUOUS
 10
3.317600
 20
1.663200
  0
SEQEND
  8
0
  0
SOLID
  8
0
 62
    15
 10
3.345760
 20
1.647800
 11
3.994760
 21
2.026640
 12
3.379200
 22
1.595880
 13
4.028200
 23
1.974720
  0
POLYLINE
  8
0
  6
CONTINUOUS
 66
     1
 40
0.000000
 41
0.000000
  0
VERTEX
  8
0
  6
CONTINUOUS
 10
3.345760
 20
1.647800
  0
VERTEX
  8
0
  6
CONTINUOUS
 10
3.994760
 20
2.026640
  0
VERTEX
  8
0
  6
CONTINUOUS
 10
4.028200
 20
1.974720
  0
VERTEX
  8
0
  6
CONTINUOUS
 10
3.379200
 20
1.595880
  0
VERTEX
  8
0
  6
CONTINUOUS
 10
3.345760
 20
1.647800
  0
SEQEND
  8
0
  0
SOLID
  8
0
 62
    15
 10
3.379200
 20
1.595880
 11
4.028200
 21
1.974720
 12
3.382280
 22
1.563760
 13
4.030840
 23
1.942600
  0
POLYLINE
  8
0
  6
CONTINUOUS
 66
     1
 40
0.000000
 41
0.000000
  0
VERTEX
  8
0
  6
CONTINUOUS
 10
3.379200
 20
1.595880
  0
VERTEX
  8
0
  6
CONTINUOUS
 10
4.028200
 20
1.974720
  0
VERTEX
  8
0
  6
CONTINUOUS
 10
4.030840
 20
1.942600
  0
VERTEX
  8
0
  6
CONTINUOUS
 10
3.382280
 20
1.563760
  0
VERTEX
  8
0
  6
CONTINUOUS
 10
3.379200
 20
1.595880
  0
SEQEND
  8
0
  0
SOLID
  8
0
 62
    15
 10
3.382280
 20
1.563760
 11
4.030840
 21
1.942600
 12
3.373920
 22
1.530320
 13
4.022920
 23
1.909160
  0
POLYLINE
  8
0
  6
CONTINUOUS
 66
     1
 40
0.000000
 41
0.000000
  0
VERTEX
  8
0
  6
CONTINUOUS
 10
3.382280
 20
1.563760
  0
VERTEX
  8
0
  6
CONTINUOUS
 10
4.030840
 20
1.942600
  0
VERTEX
  8
0
  6
CONTINUOUS
 10
4.022920
 20
1.909160
  0
VERTEX
  8
0
  6
CONTINUOUS
 10
3.373920
 20
1.530320
  0
VERTEX
  8
0
  6
CONTINUOUS
 10
3.382280
 20
1.563760
  0
SEQEND
  8
0
  0
SOLID
  8
0
 62
    15
 10
3.373920
 20
1.530320
 11
4.022920
 21
1.909160
 12
3.354120
 22
1.499080
 13
4.002680
 23
1.877920
  0
POLYLINE
  8
0
  6
CONTINUOUS
 66
     1
 40
0.000000
 41
0.000000
  0
VERTEX
  8
0
  6
CONTINUOUS
 10
3.373920
 20
1.530320
  0
VERTEX
  8
0
  6
CONTINUOUS
 10
4.022920
 20
1.909160
  0
VERTEX
  8
0
  6
CONTINUOUS
 10
4.002680
 20
1.877920
  0
VERTEX
  8
0
  6
CONTINUOUS
 10
3.354120
 20
1.499080
  0
VERTEX
  8
0
  6
CONTINUOUS
 10
3.373920
 20
1.530320
  0
SEQEND
  8
0
  0
SOLID
  8
0
 62
    15
 10
3.354120
 20
1.499080
 11
4.002680
 21
1.877920
 12
3.321120
 22
1.471360
 13
3.969680
 23
1.849760
  0
POLYLINE
  8
0
  6
CONTINUOUS
 66
     1
 40
0.000000
 41
0.000000
  0
VERTEX
  8
0
  6
CONTINUOUS
 10
3.354120
 20
1.499080
  0
VERTEX
  8
0
  6
CONTINUOUS
 10
4.002680
 20
1.877920
  0
VERTEX
  8
0
  6
CONTINUOUS
 10
3.969680
 20
1.849760
  0
VERTEX
  8
0
  6
CONTINUOUS
 10
3.321120
 20
1.471360
  0
VERTEX
  8
0
  6
CONTINUOUS
 10
3.354120
 20
1.499080
  0
SEQEND
  8
0
  0
SOLID
  8
0
 62
    15
 10
3.321120
 20
1.471360
 11
3.969680
 21
1.849760
 12
3.321120
 22
1.471360
 13
3.970120
 23
1.850200
  0
POLYLINE
  8
0
  6
CONTINUOUS
 66
     1
 40
0.000000
 41
0.000000
  0
VERTEX
  8
0
  6
CONTINUOUS
 10
3.321120
 20
1.471360
  0
VERTEX
  8
0
  6
CONTINUOUS
 10
3.969680
 20
1.849760
  0
VERTEX
  8
0
  6
CONTINUOUS
 10
3.970120
 20
1.850200
  0
VERTEX
  8
0
  6
CONTINUOUS
 10
3.321120
 20
1.471360
  0
SEQEND
  8
0
  0
SOLID
  8
0
 62
    15
 10
1.587080
 20
1.647800
 11
2.235640
 21
2.026640
 12
1.615680
 22
1.663200
 13
2.264240
 23
2.042040
  0
POLYLINE
  8
0
  6
CONTINUOUS
 66
     1
 40
0.000000
 41
0.000000
  0
VERTEX
  8
0
  6
CONTINUOUS
 10
1.587080
 20
1.647800
  0
VERTEX
  8
0
  6
CONTINUOUS
 10
2.235640
 20
2.026640
  0
VERTEX
  8
0
  6
CONTINUOUS
 10
2.264240
 20
2.042040
  0
VERTEX
  8
0
  6
CONTINUOUS
 10
1.615680
 20
1.663200
  0
VERTEX
  8
0
  6
CONTINUOUS
 10
1.587080
 20
1.647800
  0
SEQEND
  8
0
  0
SOLID
  8
0
 62
    15
 10
1.615680
 20
1.663200
 11
2.264240
 21
2.042040
 12
1.650000
 22
1.668040
 13
2.299000
 23
2.046880
  0
POLYLINE
  8
0
  6
CONTINUOUS
 66
     1
 40
0.000000
 41
0.000000
  0
VERTEX
  8
0
  6
CONTINUOUS
 10
1.615680
 20
1.663200
  0
VERTEX
  8
0
  6
CONTINUOUS
 10
2.264240
 20
2.042040
  0
VERTEX
  8
0
  6
CONTINUOUS
 10
2.299000
 20
2.046880
  0
VERTEX
  8
0
  6
CONTINUOUS
 10
1.650000
 20
1.668040
  0
VERTEX
  8
0
  6
CONTINUOUS
 10
1.615680
 20
1.663200
  0
SEQEND
  8
0
  0
SOLID
  8
0
 62
    15
 10
1.498640
 20
3.548600
 11
2.147200
 21
3.927440
 12
1.617440
 22
3.613720
 13
2.266000
 23
3.992120
  0
POLYLINE
  8
0
  6
CONTINUOUS
 66
     1
 40
0.000000
 41
0.000000
  0
VERTEX
  8
0
  6
CONTINUOUS
 10
1.498640
 20
3.548600
  0
VERTEX
  8
0
  6
CONTINUOUS
 10
2.147200
 20
3.927440
  0
VERTEX
  8
0
  6
CONTINUOUS
 10
2.266000
 20
3.992120
  0
VERTEX
  8
0
  6
CONTINUOUS
 10
1.617440
 20
3.613720
  0
VERTEX
  8
0
  6
CONTINUOUS
 10
1.498640
 20
3.548600
  0
SEQEND
  8
0
  0
SOLID
  8
0
 62
    15
 10
1.617440
 20
3.613720
 11
2.266000
 21
3.992120
 12
1.758240
 22
3.663000
 13
2.406800
 23
4.041840
  0
POLYLINE
  8
0
  6
CONTINUOUS
 66
     1
 40
0.000000
 41
0.000000
  0
VERTEX
  8
0
  6
CONTINUOUS
 10
1.617440
 20
3.613720
  0
VERTEX
  8
0
  6
CONTINUOUS
 10
2.266000
 20
3.992120
  0
VERTEX
  8
0
  6
CONTINUOUS
 10
2.406800
 20
4.041840
  0
VERTEX
  8
0
  6
CONTINUOUS
 10
1.758240
 20
3.663000
  0
VERTEX
  8
0
  6
CONTINUOUS
 10
1.617440
 20
3.613720
  0
SEQEND
  8
0
  0
SOLID
  8
0
 62
    15
 10
1.758240
 20
3.663000
 11
2.406800
 21
4.041840
 12
1.921920
 22
3.694240
 13
2.570920
 23
4.073080
  0
POLYLINE
  8
0
  6
CONTINUOUS
 66
     1
 40
0.000000
 41
0.000000
  0
VERTEX
  8
0
  6
CONTINUOUS
 10
1.758240
 20
3.663000
  0
VERTEX
  8
0
  6
CONTINUOUS
 10
2.406800
 20
4.041840
  0
VERTEX
  8
0
  6
CONTINUOUS
 10
2.570920
 20
4.073080
  0
VERTEX
  8
0
  6
CONTINUOUS
 10
1.921920
 20
3.694240
  0
VERTEX
  8
0
  6
CONTINUOUS
 10
1.758240
 20
3.663000
  0
SEQEND
  8
0
  0
SOLID
  8
0
 62
    15
 10
1.921920
 20
3.694240
 11
2.570920
 21
4.073080
 12
2.110680
 22
3.705240
 13
2.759240
 23
4.084080
  0
POLYLINE
  8
0
  6
CONTINUOUS
 66
     1
 40
0.000000
 41
0.000000
  0
VERTEX
  8
0
  6
CONTINUOUS
 10
1.921920
 20
3.694240
  0
VERTEX
  8
0
  6
CONTINUOUS
 10
2.570920
 20
4.073080
  0
VERTEX
  8
0
  6
CONTINUOUS
 10
2.759240
 20
4.084080
  0
VERTEX
  8
0
  6
CONTINUOUS
 10
2.110680
 20
3.705240
  0
VERTEX
  8
0
  6
CONTINUOUS
 10
1.921920
 20
3.694240
  0
SEQEND
  8
0
  0
SOLID
  8
0
 62
    15
 10
2.110680
 20
3.705240
 11
2.759240
 21
4.084080
 12
2.820840
 22
3.705240
 13
3.469400
 23
4.084080
  0
POLYLINE
  8
0
  6
CONTINUOUS
 66
     1
 40
0.000000
 41
0.000000
  0
VERTEX
  8
0
  6
CONTINUOUS
 10
2.110680
 20
3.705240
  0
VERTEX
  8
0
  6
CONTINUOUS
 10
2.759240
 20
4.084080
  0
VERTEX
  8
0
  6
CONTINUOUS
 10
3.469400
 20
4.084080
  0
VERTEX
  8
0
  6
CONTINUOUS
 10
2.820840
 20
3.705240
  0
VERTEX
  8
0
  6
CONTINUOUS
 10
2.110680
 20
3.705240
  0
SEQEND
  8
0
  0
SOLID
  8
0
 62
    15
 10
2.820840
 20
3.705240
 11
3.469400
 21
4.084080
 12
2.822160
 22
3.705240
 13
3.471160
 23
4.084080
  0
POLYLINE
  8
0
  6
CONTINUOUS
 66
     1
 40
0.000000
 41
0.000000
  0
VERTEX
  8
0
  6
CONTINUOUS
 10
2.820840
 20
3.705240
  0
VERTEX
  8
0
  6
CONTINUOUS
 10
3.469400
 20
4.084080
  0
VERTEX
  8
0
  6
CONTINUOUS
 10
3.471160
 20
4.084080
  0
VERTEX
  8
0
  6
CONTINUOUS
 10
2.822160
 20
3.705240
  0
VERTEX
  8
0
  6
CONTINUOUS
 10
2.820840
 20
3.705240
  0
SEQEND
  8
0
  0
POLYLINE
  8
0
  6
CONTINUOUS
 66
     1
 40
0.000000
 41
0.000000
  0
VERTEX
  8
0
  6
CONTINUOUS
 10
2.822160
 20
3.705240
  0
VERTEX
  8
0
  6
CONTINUOUS
 10
3.010920
 20
3.694240
  0
VERTEX
  8
0
  6
CONTINUOUS
 10
3.174600
 20
3.663000
  0
VERTEX
  8
0
  6
CONTINUOUS
 10
3.315400
 20
3.613280
  0
VERTEX
  8
0
  6
CONTINUOUS
 10
3.434200
 20
3.548600
  0
VERTEX
  8
0
  6
CONTINUOUS
 10
3.532760
 20
3.471160
  0
VERTEX
  8
0
  6
CONTINUOUS
 10
3.612400
 20
3.383160
  0
VERTEX
  8
0
  6
CONTINUOUS
 10
3.674880
 20
3.287680
  0
VERTEX
  8
0
  6
CONTINUOUS
 10
3.721520
 20
3.186480
  0
VERTEX
  8
0
  6
CONTINUOUS
 10
3.753200
 20
3.083080
  0
VERTEX
  8
0
  6
CONTINUOUS
 10
3.772120
 20
2.979240
  0
VERTEX
  8
0
  6
CONTINUOUS
 10
3.779600
 20
2.878040
  0
VERTEX
  8
0
  6
CONTINUOUS
 10
3.776960
 20
2.781240
  0
VERTEX
  8
0
  6
CONTINUOUS
 10
3.765960
 20
2.692360
  0
VERTEX
  8
0
  6
CONTINUOUS
 10
3.747480
 20
2.613160
  0
VERTEX
  8
0
  6
CONTINUOUS
 10
3.723720
 20
2.546720
  0
VERTEX
  8
0
  6
CONTINUOUS
 10
3.695120
 20
2.494800
  0
VERTEX
  8
0
  6
CONTINUOUS
 10
3.584680
 20
2.328480
  0
VERTEX
  8
0
  6
CONTINUOUS
 10
3.497120
 20
2.180200
  0
VERTEX
  8
0
  6
CONTINUOUS
 10
3.464120
 20
2.115520
  0
VERTEX
  8
0
  6
CONTINUOUS
 10
3.439040
 20
2.058760
  0
VERTEX
  8
0
  6
CONTINUOUS
 10
3.423640
 20
2.010800
  0
VERTEX
  8
0
  6
CONTINUOUS
 10
3.418360
 20
1.972960
  0
VERTEX
  8
0
  6
CONTINUOUS
 10
3.417920
 20
1.911800
  0
VERTEX
  8
0
  6
CONTINUOUS
 10
3.410440
 20
1.861640
  0
VERTEX
  8
0
  6
CONTINUOUS
 10
3.384480
 20
1.828200
  0
VERTEX
  8
0
  6
CONTINUOUS
 10
3.361600
 20
1.818960
  0
VERTEX
  8
0
  6
CONTINUOUS
 10
3.329920
 20
1.815880
  0
VERTEX
  8
0
  6
CONTINUOUS
 10
3.282840
 20
1.815880
  0
VERTEX
  8
0
  6
CONTINUOUS
 10
3.282840
 20
1.668040
  0
VERTEX
  8
0
  6
CONTINUOUS
 10
3.317600
 20
1.663200
  0
VERTEX
  8
0
  6
CONTINUOUS
 10
3.345760
 20
1.647800
  0
VERTEX
  8
0
  6
CONTINUOUS
 10
3.379200
 20
1.595880
  0
VERTEX
  8
0
  6
CONTINUOUS
 10
3.382280
 20
1.563760
  0
VERTEX
  8
0
  6
CONTINUOUS
 10
3.373920
 20
1.530320
  0
VERTEX
  8
0
  6
CONTINUOUS
 10
3.354120
 20
1.499080
  0
VERTEX
  8
0
  6
CONTINUOUS
 10
3.321120
 20
1.471360
  0
VERTEX
  8
0
  6
CONTINUOUS
 10
1.611720
 20
1.471360
  0
VERTEX
  8
0
  6
CONTINUOUS
 10
1.578720
 20
1.499080
  0
VERTEX
  8
0
  6
CONTINUOUS
 10
1.558920
 20
1.530760
  0
VERTEX
  8
0
  6
CONTINUOUS
 10
1.550560
 20
1.563760
  0
VERTEX
  8
0
  6
CONTINUOUS
 10
1.553640
 20
1.595880
  0
VERTEX
  8
0
  6
CONTINUOUS
 10
1.587080
 20
1.647800
  0
VERTEX
  8
0
  6
CONTINUOUS
 10
1.615680
 20
1.663200
  0
VERTEX
  8
0
  6
CONTINUOUS
 10
1.650000
 20
1.668040
  0
VERTEX
  8
0
  6
CONTINUOUS
 10
1.650000
 20
1.816320
  0
VERTEX
  8
0
  6
CONTINUOUS
 10
1.602920
 20
1.816320
  0
VERTEX
  8
0
  6
CONTINUOUS
 10
1.571240
 20
1.818960
  0
VERTEX
  8
0
  6
CONTINUOUS
 10
1.548360
 20
1.828200
  0
VERTEX
  8
0
  6
CONTINUOUS
 10
1.522400
 20
1.861640
  0
VERTEX
  8
0
  6
CONTINUOUS
 10
1.514920
 20
1.911800
  0
VERTEX
  8
0
  6
CONTINUOUS
 10
1.514480
 20
1.972960
  0
VERTEX
  8
0
  6
CONTINUOUS
 10
1.509200
 20
2.010800
  0
VERTEX
  8
0
  6
CONTINUOUS
 10
1.493800
 20
2.058760
  0
VERTEX
  8
0
  6
CONTINUOUS
 10
1.468720
 20
2.115520
  0
VERTEX
  8
0
  6
CONTINUOUS
 10
1.435720
 20
2.180200
  0
VERTEX
  8
0
  6
CONTINUOUS
 10
1.348160
 20
2.328480
  0
VERTEX
  8
0
  6
CONTINUOUS
 10
1.237720
 20
2.495240
  0
VERTEX
  8
0
  6
CONTINUOUS
 10
1.209120
 20
2.546720
  0
VERTEX
  8
0
  6
CONTINUOUS
 10
1.185360
 20
2.613160
  0
VERTEX
  8
0
  6
CONTINUOUS
 10
1.166880
 20
2.692360
  0
VERTEX
  8
0
  6
CONTINUOUS
 10
1.155880
 20
2.781240
  0
VERTEX
  8
0
  6
CONTINUOUS
 10
1.152800
 20
2.878040
  0
VERTEX
  8
0
  6
CONTINUOUS
 10
1.160280
 20
2.979240
  0
VERTEX
  8
0
  6
CONTINUOUS
 10
1.179200
 20
3.083080
  0
VERTEX
  8
0
  6
CONTINUOUS
 10
1.211320
 20
3.186480
  0
VERTEX
  8
0
  6
CONTINUOUS
 10
1.257960
 20
3.287680
  0
VERTEX
  8
0
  6
CONTINUOUS
 10
1.320000
 20
3.383160
  0
VERTEX
  8
0
  6
CONTINUOUS
 10
1.400080
 20
3.471160
  0
VERTEX
  8
0
  6
CONTINUOUS
 10
1.498640
 20
3.548600
  0
VERTEX
  8
0
  6
CONTINUOUS
 10
1.617440
 20
3.613720
  0
VERTEX
  8
0
  6
CONTINUOUS
 10
1.758240
 20
3.663000
  0
VERTEX
  8
0
  6
CONTINUOUS
 10
1.921920
 20
3.694240
  0
VERTEX
  8
0
  6
CONTINUOUS
 10
2.110680
 20
3.705240
  0
VERTEX
  8
0
  6
CONTINUOUS
 10
2.822160
 20
3.705240
  0
SEQEND
  8
0
  0
ENDSEC
  0
EOF
