  0
SECTION
  2
HEADER
  9
$ACADVER
  1
AC1006
  9
$EXTMIN
 10
2.040720
 20
0.637560
  9
$EXTMAX
 10
6.934840
 20
7.646320
  9
$LTSCALE
 40
0.044000
  9
$PDMODE
 70
    35
  9
$PDSIZE
 40
0.035200
  0
ENDSEC
  0
SECTION
  2
TABLES
  0
TABLE
  2
LTYPE
 70
     9
  0
LTYPE
  2
CONTINUOUS
 70
    64
  3
Solid line
 72
    65
 73
     0
 40
0.000000
  0
LTYPE
  2
DASHED
 70
    64
  3
__ __ __ __ __ __ __ __ __ __ __ __ __ __ __
 72
    65
 73
     2
 40
0.000330
 49
0.000220
 49
-0.000110
  0
LTYPE
  2
HIDDEN
 70
    64
  3
 _ _ _ _ _ _ _ _ _ _ _ _ _ _ _ _ _ _ _ _ _ _
 72
    65
 73
     2
 40
0.000165
 49
0.000110
 49
-0.000055
  0
LTYPE
  2
CENTER
 70
    64
  3
____ _ ____ _ ____ _ ____ _ ____ _ ____ _ ____
 72
    65
 73
     4
 40
0.000880
 49
0.000550
 49
-0.000110
 49
0.000110
 49
-0.000110
  0
LTYPE
  2
PHANTOM
 70
    64
  3
_____ _ _ _____ _ _ _____ _ _ _____ _ _ ____
 72
    65
 73
     6
 40
0.001100
 49
0.000550
 49
-0.000110
 49
0.000110
 49
-0.000110
 49
0.000110
 49
-0.000110
  0
LTYPE
  2
DOT
 70
    64
  3
...............................................
 72
    65
 73
     2
 40
0.000110
 49
0.000000
 49
-0.000110
  0
LTYPE
  2
DASHDOT
 70
    64
  3
__ . __ . __ . __ . __ . __ . __ . __ . __ . __
 72
    65
 73
     4
 40
0.000440
 49
0.000220
 49
-0.000110
 49
0.000000
 49
-0.000110
  0
LTYPE
  2
BORDER
 70
    64
  3
__ __ . __ __ . __ __ . __ __ . __ __ . __ __
 72
    65
 73
     6
 40
0.000770
 49
0.000220
 49
-0.000110
 49
0.000220
 49
-0.000110
 49
0.000000
 49
-0.000110
  0
LTYPE
  2
DIVIDE
 70
    64
  3
__ . . __ . . __ . . __ . . __ . . __ . . __
 72
    65
 73
     6
 40
0.000550
 49
0.000220
 49
-0.000110
 49
0.000000
 49
-0.000110
 49
0.000000
 49
-0.000110
  0
LTYPE
  2
DOTDOT
 70
    64
  3
 . .  . .  . .  . .  . .  . . 
 72
    65
 73
     5
 40
0.000242
 49
-0.000110
 49
0.000000
 49
-0.000110
 49
0.000000
 49
-0.000110
  0
ENDTAB
  0
TABLE
  2
STYLE
 70
     2
  0
STYLE
 70
     0
  2
SN0
 40
0.000000
 41
0.000440
 50
0.000000
 71
     0
 42
0.000000
  3
ROMAND
  0
STYLE
 70
    68
  2
SV0
 40
0.000000
 41
0.000440
 50
0.000000
 71
     0
 42
0.000000
  3
ROMAND
  0
ENDTAB
  0
TABLE
  2
LAYER
 70
     3
  0
LAYER
  2
FOREGROUND
 70
    64
 62
     7
  6
CONTINUOUS
  0
LAYER
  2
BACKGROUND
 70
    65
 62
    -7
  6
CONTINUOUS
  0
LAYER
  2
0
 70
    64
 62
     7
  6
CONTINUOUS
  0
ENDTAB
  0
ENDSEC
  0
SECTION
  2
ENTITIES
  0
POLYLINE
  8
FOREGROUND
  6
CONTINUOUS
 66
     1
 40
0.000000
 41
0.000000
  0
VERTEX
  8
FOREGROUND
  6
CONTINUOUS
 10
0.000000
 20
8.283880
  0
VERTEX
  8
FOREGROUND
  6
CONTINUOUS
 10
8.499920
 20
8.283880
  0
VERTEX
  8
FOREGROUND
  6
CONTINUOUS
 10
8.499920
 20
-2.716120
  0
VERTEX
  8
FOREGROUND
  6
CONTINUOUS
 10
0.000000
 20
-2.716120
  0
VERTEX
  8
FOREGROUND
  6
CONTINUOUS
 10
0.000000
 20
8.283880
  0
SEQEND
  8
0
  0
POLYLINE
  8
FOREGROUND
  6
CONTINUOUS
 66
     1
 40
0.000000
 41
0.000000
  0
VERTEX
  8
FOREGROUND
  6
CONTINUOUS
 10
0.000000
 20
8.283880
  0
VERTEX
  8
FOREGROUND
  6
CONTINUOUS
 10
8.499920
 20
8.283880
  0
VERTEX
  8
FOREGROUND
  6
CONTINUOUS
 10
8.499920
 20
-2.716120
  0
VERTEX
  8
FOREGROUND
  6
CONTINUOUS
 10
0.000000
 20
-2.716120
  0
VERTEX
  8
FOREGROUND
  6
CONTINUOUS
 10
0.000000
 20
8.283880
  0
SEQEND
  8
0
  0
POLYLINE
  8
0
  6
CONTINUOUS
 66
     1
 40
0.000000
 41
0.000000
  0
VERTEX
  8
0
  6
CONTINUOUS
 10
4.505160
 20
2.380400
  0
VERTEX
  8
0
  6
CONTINUOUS
 10
5.761360
 20
2.280080
  0
VERTEX
  8
0
  6
CONTINUOUS
 10
5.761360
 20
2.281840
  0
VERTEX
  8
0
  6
CONTINUOUS
 10
5.760480
 20
2.280960
  0
VERTEX
  8
0
  6
CONTINUOUS
 10
5.762240
 20
2.256760
  0
VERTEX
  8
0
  6
CONTINUOUS
 10
5.769720
 20
2.210560
  0
VERTEX
  8
0
  6
CONTINUOUS
 10
5.781160
 20
2.168320
  0
VERTEX
  8
0
  6
CONTINUOUS
 10
5.796560
 20
2.129160
  0
VERTEX
  8
0
  6
CONTINUOUS
 10
5.815040
 20
2.093960
  0
VERTEX
  8
0
  6
CONTINUOUS
 10
5.836600
 20
2.061840
  0
VERTEX
  8
0
  6
CONTINUOUS
 10
5.873560
 20
2.020040
  0
VERTEX
  8
0
  6
CONTINUOUS
 10
5.900400
 20
1.996280
  0
VERTEX
  8
0
  6
CONTINUOUS
 10
5.928560
 20
1.975600
  0
VERTEX
  8
0
  6
CONTINUOUS
 10
5.958040
 20
1.957560
  0
VERTEX
  8
0
  6
CONTINUOUS
 10
6.003360
 20
1.936440
  0
VERTEX
  8
0
  6
CONTINUOUS
 10
6.048240
 20
1.921480
  0
VERTEX
  8
0
  6
CONTINUOUS
 10
6.091800
 20
1.912680
  0
VERTEX
  8
0
  6
CONTINUOUS
 10
6.119080
 20
1.910040
  0
VERTEX
  8
0
  6
CONTINUOUS
 10
6.141520
 20
1.909160
  0
VERTEX
  8
0
  6
CONTINUOUS
 10
6.141520
 20
1.695320
  0
VERTEX
  8
0
  6
CONTINUOUS
 10
6.165720
 20
1.694880
  0
VERTEX
  8
0
  6
CONTINUOUS
 10
6.213240
 20
1.689600
  0
VERTEX
  8
0
  6
CONTINUOUS
 10
6.259440
 20
1.680360
  0
VERTEX
  8
0
  6
CONTINUOUS
 10
6.303880
 20
1.666280
  0
VERTEX
  8
0
  6
CONTINUOUS
 10
6.346120
 20
1.648240
  0
VERTEX
  8
0
  6
CONTINUOUS
 10
6.386600
 20
1.626240
  0
VERTEX
  8
0
  6
CONTINUOUS
 10
6.424440
 20
1.600720
  0
VERTEX
  8
0
  6
CONTINUOUS
 10
6.459640
 20
1.571680
  0
VERTEX
  8
0
  6
CONTINUOUS
 10
6.491760
 20
1.539560
  0
VERTEX
  8
0
  6
CONTINUOUS
 10
6.520800
 20
1.504360
  0
VERTEX
  8
0
  6
CONTINUOUS
 10
6.546320
 20
1.466520
  0
VERTEX
  8
0
  6
CONTINUOUS
 10
6.568320
 20
1.426040
  0
VERTEX
  8
0
  6
CONTINUOUS
 10
6.586360
 20
1.383800
  0
VERTEX
  8
0
  6
CONTINUOUS
 10
6.600440
 20
1.339360
  0
VERTEX
  8
0
  6
CONTINUOUS
 10
6.609680
 20
1.293160
  0
VERTEX
  8
0
  6
CONTINUOUS
 10
6.614960
 20
1.245640
  0
VERTEX
  8
0
  6
CONTINUOUS
 10
6.614960
 20
1.197240
  0
VERTEX
  8
0
  6
CONTINUOUS
 10
6.609680
 20
1.149720
  0
VERTEX
  8
0
  6
CONTINUOUS
 10
6.600440
 20
1.103520
  0
VERTEX
  8
0
  6
CONTINUOUS
 10
6.586360
 20
1.059080
  0
VERTEX
  8
0
  6
CONTINUOUS
 10
6.568320
 20
1.016840
  0
VERTEX
  8
0
  6
CONTINUOUS
 10
6.546320
 20
0.976360
  0
VERTEX
  8
0
  6
CONTINUOUS
 10
6.520800
 20
0.938520
  0
VERTEX
  8
0
  6
CONTINUOUS
 10
6.491760
 20
0.903320
  0
VERTEX
  8
0
  6
CONTINUOUS
 10
6.459640
 20
0.871200
  0
VERTEX
  8
0
  6
CONTINUOUS
 10
6.424440
 20
0.842160
  0
VERTEX
  8
0
  6
CONTINUOUS
 10
6.386600
 20
0.816640
  0
VERTEX
  8
0
  6
CONTINUOUS
 10
6.346120
 20
0.794640
  0
VERTEX
  8
0
  6
CONTINUOUS
 10
6.303880
 20
0.776600
  0
VERTEX
  8
0
  6
CONTINUOUS
 10
6.259440
 20
0.762520
  0
VERTEX
  8
0
  6
CONTINUOUS
 10
6.213240
 20
0.753280
  0
VERTEX
  8
0
  6
CONTINUOUS
 10
6.165720
 20
0.748000
  0
VERTEX
  8
0
  6
CONTINUOUS
 10
6.141520
 20
0.747560
  0
VERTEX
  8
0
  6
CONTINUOUS
 10
6.141520
 20
0.637560
  0
VERTEX
  8
0
  6
CONTINUOUS
 10
2.834920
 20
0.638440
  0
VERTEX
  8
0
  6
CONTINUOUS
 10
2.834920
 20
0.748440
  0
VERTEX
  8
0
  6
CONTINUOUS
 10
2.810720
 20
0.748880
  0
VERTEX
  8
0
  6
CONTINUOUS
 10
2.763200
 20
0.753720
  0
VERTEX
  8
0
  6
CONTINUOUS
 10
2.717000
 20
0.763400
  0
VERTEX
  8
0
  6
CONTINUOUS
 10
2.672560
 20
0.777480
  0
VERTEX
  8
0
  6
CONTINUOUS
 10
2.629880
 20
0.795520
  0
VERTEX
  8
0
  6
CONTINUOUS
 10
2.589840
 20
0.817520
  0
VERTEX
  8
0
  6
CONTINUOUS
 10
2.552000
 20
0.843040
  0
VERTEX
  8
0
  6
CONTINUOUS
 10
2.516800
 20
0.872080
  0
VERTEX
  8
0
  6
CONTINUOUS
 10
2.484680
 20
0.904200
  0
VERTEX
  8
0
  6
CONTINUOUS
 10
2.455640
 20
0.939400
  0
VERTEX
  8
0
  6
CONTINUOUS
 10
2.430120
 20
0.977240
  0
VERTEX
  8
0
  6
CONTINUOUS
 10
2.408120
 20
1.017280
  0
VERTEX
  8
0
  6
CONTINUOUS
 10
2.390080
 20
1.059960
  0
VERTEX
  8
0
  6
CONTINUOUS
 10
2.376000
 20
1.104400
  0
VERTEX
  8
0
  6
CONTINUOUS
 10
2.366320
 20
1.150600
  0
VERTEX
  8
0
  6
CONTINUOUS
 10
2.361480
 20
1.198120
  0
VERTEX
  8
0
  6
CONTINUOUS
 10
2.361480
 20
1.246520
  0
VERTEX
  8
0
  6
CONTINUOUS
 10
2.366320
 20
1.294040
  0
VERTEX
  8
0
  6
CONTINUOUS
 10
2.376000
 20
1.340240
  0
VERTEX
  8
0
  6
CONTINUOUS
 10
2.390080
 20
1.384680
  0
VERTEX
  8
0
  6
CONTINUOUS
 10
2.408120
 20
1.426920
  0
VERTEX
  8
0
  6
CONTINUOUS
 10
2.430120
 20
1.466960
  0
VERTEX
  8
0
  6
CONTINUOUS
 10
2.455640
 20
1.504800
  0
VERTEX
  8
0
  6
CONTINUOUS
 10
2.484680
 20
1.540000
  0
VERTEX
  8
0
  6
CONTINUOUS
 10
2.516800
 20
1.572120
  0
VERTEX
  8
0
  6
CONTINUOUS
 10
2.552000
 20
1.601160
  0
VERTEX
  8
0
  6
CONTINUOUS
 10
2.589840
 20
1.626680
  0
VERTEX
  8
0
  6
CONTINUOUS
 10
2.629880
 20
1.648680
  0
VERTEX
  8
0
  6
CONTINUOUS
 10
2.672560
 20
1.666720
  0
VERTEX
  8
0
  6
CONTINUOUS
 10
2.717000
 20
1.680800
  0
VERTEX
  8
0
  6
CONTINUOUS
 10
2.763200
 20
1.690480
  0
VERTEX
  8
0
  6
CONTINUOUS
 10
2.810720
 20
1.695320
  0
VERTEX
  8
0
  6
CONTINUOUS
 10
2.834920
 20
1.695760
  0
VERTEX
  8
0
  6
CONTINUOUS
 10
2.834920
 20
1.910040
  0
VERTEX
  8
0
  6
CONTINUOUS
 10
2.871000
 20
1.911800
  0
VERTEX
  8
0
  6
CONTINUOUS
 10
2.913680
 20
1.918840
  0
VERTEX
  8
0
  6
CONTINUOUS
 10
2.958120
 20
1.931600
  0
VERTEX
  8
0
  6
CONTINUOUS
 10
3.003440
 20
1.950960
  0
VERTEX
  8
0
  6
CONTINUOUS
 10
3.032920
 20
1.967240
  0
VERTEX
  8
0
  6
CONTINUOUS
 10
3.061960
 20
1.986600
  0
VERTEX
  8
0
  6
CONTINUOUS
 10
3.089680
 20
2.008600
  0
VERTEX
  8
0
  6
CONTINUOUS
 10
3.127960
 20
2.048200
  0
VERTEX
  8
0
  6
CONTINUOUS
 10
3.150840
 20
2.078560
  0
VERTEX
  8
0
  6
CONTINUOUS
 10
3.171080
 20
2.112000
  0
VERTEX
  8
0
  6
CONTINUOUS
 10
3.187800
 20
2.148960
  0
VERTEX
  8
0
  6
CONTINUOUS
 10
3.201000
 20
2.189880
  0
VERTEX
  8
0
  6
CONTINUOUS
 10
3.210680
 20
2.233880
  0
VERTEX
  8
0
  6
CONTINUOUS
 10
3.215520
 20
2.281840
  0
VERTEX
  8
0
  6
CONTINUOUS
 10
3.214640
 20
2.282720
  0
VERTEX
  8
0
  6
CONTINUOUS
 10
3.214640
 20
2.280960
  0
VERTEX
  8
0
  6
CONTINUOUS
 10
4.470840
 20
2.381280
  0
VERTEX
  8
0
  6
CONTINUOUS
 10
4.505160
 20
2.380400
  0
SEQEND
  8
0
  0
SOLID
  8
0
 62
    15
 10
6.258560
 20
4.087160
 11
6.897000
 21
4.470840
 12
6.286280
 22
3.998280
 13
6.924720
 23
4.382400
  0
POLYLINE
  8
0
  6
CONTINUOUS
 66
     1
 40
0.000000
 41
0.000000
  0
VERTEX
  8
0
  6
CONTINUOUS
 10
6.258560
 20
4.087160
  0
VERTEX
  8
0
  6
CONTINUOUS
 10
6.897000
 20
4.470840
  0
VERTEX
  8
0
  6
CONTINUOUS
 10
6.924720
 20
4.382400
  0
VERTEX
  8
0
  6
CONTINUOUS
 10
6.286280
 20
3.998280
  0
VERTEX
  8
0
  6
CONTINUOUS
 10
6.258560
 20
4.087160
  0
SEQEND
  8
0
  0
SOLID
  8
0
 62
    15
 10
4.185720
 20
5.062640
 11
4.824600
 21
5.446320
 12
5.441480
 22
4.962320
 13
6.080360
 23
5.346000
  0
POLYLINE
  8
0
  6
CONTINUOUS
 66
     1
 40
0.000000
 41
0.000000
  0
VERTEX
  8
0
  6
CONTINUOUS
 10
4.185720
 20
5.062640
  0
VERTEX
  8
0
  6
CONTINUOUS
 10
4.824600
 20
5.446320
  0
VERTEX
  8
0
  6
CONTINUOUS
 10
6.080360
 20
5.346000
  0
VERTEX
  8
0
  6
CONTINUOUS
 10
5.441480
 20
4.962320
  0
VERTEX
  8
0
  6
CONTINUOUS
 10
4.185720
 20
5.062640
  0
SEQEND
  8
0
  0
SOLID
  8
0
 62
    15
 10
5.441040
 20
4.962760
 11
6.079920
 21
5.346880
 12
5.455560
 22
4.870800
 13
6.094440
 23
5.254920
  0
POLYLINE
  8
0
  6
CONTINUOUS
 66
     1
 40
0.000000
 41
0.000000
  0
VERTEX
  8
0
  6
CONTINUOUS
 10
5.441040
 20
4.962760
  0
VERTEX
  8
0
  6
CONTINUOUS
 10
6.079920
 20
5.346880
  0
VERTEX
  8
0
  6
CONTINUOUS
 10
6.094440
 20
5.254920
  0
VERTEX
  8
0
  6
CONTINUOUS
 10
5.455560
 20
4.870800
  0
VERTEX
  8
0
  6
CONTINUOUS
 10
5.441040
 20
4.962760
  0
SEQEND
  8
0
  0
SOLID
  8
0
 62
    15
 10
6.080360
 20
5.346000
 11
6.080800
 21
5.346000
 12
5.441480
 22
4.962320
 13
5.441920
 23
4.962320
  0
POLYLINE
  8
0
  6
CONTINUOUS
 66
     1
 40
0.000000
 41
0.000000
  0
VERTEX
  8
0
  6
CONTINUOUS
 10
6.080360
 20
5.346000
  0
VERTEX
  8
0
  6
CONTINUOUS
 10
6.080800
 20
5.346000
  0
VERTEX
  8
0
  6
CONTINUOUS
 10
5.441920
 20
4.962320
  0
VERTEX
  8
0
  6
CONTINUOUS
 10
5.441480
 20
4.962320
  0
VERTEX
  8
0
  6
CONTINUOUS
 10
6.080360
 20
5.346000
  0
SEQEND
  8
0
  0
SOLID
  8
0
 62
    15
 10
5.455560
 20
4.870800
 11
6.094440
 21
5.254920
 12
5.485920
 22
4.793360
 13
6.124800
 23
5.177040
  0
POLYLINE
  8
0
  6
CONTINUOUS
 66
     1
 40
0.000000
 41
0.000000
  0
VERTEX
  8
0
  6
CONTINUOUS
 10
5.455560
 20
4.870800
  0
VERTEX
  8
0
  6
CONTINUOUS
 10
6.094440
 20
5.254920
  0
VERTEX
  8
0
  6
CONTINUOUS
 10
6.124800
 20
5.177040
  0
VERTEX
  8
0
  6
CONTINUOUS
 10
5.485920
 20
4.793360
  0
VERTEX
  8
0
  6
CONTINUOUS
 10
5.455560
 20
4.870800
  0
SEQEND
  8
0
  0
SOLID
  8
0
 62
    15
 10
5.485920
 20
4.793360
 11
6.124800
 21
5.177040
 12
5.528600
 22
4.729120
 13
6.167480
 23
5.113240
  0
POLYLINE
  8
0
  6
CONTINUOUS
 66
     1
 40
0.000000
 41
0.000000
  0
VERTEX
  8
0
  6
CONTINUOUS
 10
5.485920
 20
4.793360
  0
VERTEX
  8
0
  6
CONTINUOUS
 10
6.124800
 20
5.177040
  0
VERTEX
  8
0
  6
CONTINUOUS
 10
6.167480
 20
5.113240
  0
VERTEX
  8
0
  6
CONTINUOUS
 10
5.528600
 20
4.729120
  0
VERTEX
  8
0
  6
CONTINUOUS
 10
5.485920
 20
4.793360
  0
SEQEND
  8
0
  0
SOLID
  8
0
 62
    15
 10
5.528600
 20
4.729120
 11
6.167480
 21
5.113240
 12
5.580960
 22
4.678080
 13
6.219840
 23
5.062200
  0
POLYLINE
  8
0
  6
CONTINUOUS
 66
     1
 40
0.000000
 41
0.000000
  0
VERTEX
  8
0
  6
CONTINUOUS
 10
5.528600
 20
4.729120
  0
VERTEX
  8
0
  6
CONTINUOUS
 10
6.167480
 20
5.113240
  0
VERTEX
  8
0
  6
CONTINUOUS
 10
6.219840
 20
5.062200
  0
VERTEX
  8
0
  6
CONTINUOUS
 10
5.580960
 20
4.678080
  0
VERTEX
  8
0
  6
CONTINUOUS
 10
5.528600
 20
4.729120
  0
SEQEND
  8
0
  0
SOLID
  8
0
 62
    15
 10
5.580960
 20
4.678080
 11
6.219840
 21
5.062200
 12
5.638600
 22
4.639800
 13
6.277480
 23
5.023480
  0
POLYLINE
  8
0
  6
CONTINUOUS
 66
     1
 40
0.000000
 41
0.000000
  0
VERTEX
  8
0
  6
CONTINUOUS
 10
5.580960
 20
4.678080
  0
VERTEX
  8
0
  6
CONTINUOUS
 10
6.219840
 20
5.062200
  0
VERTEX
  8
0
  6
CONTINUOUS
 10
6.277480
 20
5.023480
  0
VERTEX
  8
0
  6
CONTINUOUS
 10
5.638600
 20
4.639800
  0
VERTEX
  8
0
  6
CONTINUOUS
 10
5.580960
 20
4.678080
  0
SEQEND
  8
0
  0
SOLID
  8
0
 62
    15
 10
5.638600
 20
4.639800
 11
6.277480
 21
5.023480
 12
5.698880
 22
4.612960
 13
6.337760
 23
4.996640
  0
POLYLINE
  8
0
  6
CONTINUOUS
 66
     1
 40
0.000000
 41
0.000000
  0
VERTEX
  8
0
  6
CONTINUOUS
 10
5.638600
 20
4.639800
  0
VERTEX
  8
0
  6
CONTINUOUS
 10
6.277480
 20
5.023480
  0
VERTEX
  8
0
  6
CONTINUOUS
 10
6.337760
 20
4.996640
  0
VERTEX
  8
0
  6
CONTINUOUS
 10
5.698880
 20
4.612960
  0
VERTEX
  8
0
  6
CONTINUOUS
 10
5.638600
 20
4.639800
  0
SEQEND
  8
0
  0
SOLID
  8
0
 62
    15
 10
5.698880
 20
4.612960
 11
6.337760
 21
4.996640
 12
5.757840
 22
4.597120
 13
6.396720
 23
4.980800
  0
POLYLINE
  8
0
  6
CONTINUOUS
 66
     1
 40
0.000000
 41
0.000000
  0
VERTEX
  8
0
  6
CONTINUOUS
 10
5.698880
 20
4.612960
  0
VERTEX
  8
0
  6
CONTINUOUS
 10
6.337760
 20
4.996640
  0
VERTEX
  8
0
  6
CONTINUOUS
 10
6.396720
 20
4.980800
  0
VERTEX
  8
0
  6
CONTINUOUS
 10
5.757840
 20
4.597120
  0
VERTEX
  8
0
  6
CONTINUOUS
 10
5.698880
 20
4.612960
  0
SEQEND
  8
0
  0
SOLID
  8
0
 62
    15
 10
5.757840
 20
4.597120
 11
6.396720
 21
4.980800
 12
5.812840
 22
4.591400
 13
6.451720
 23
4.975520
  0
POLYLINE
  8
0
  6
CONTINUOUS
 66
     1
 40
0.000000
 41
0.000000
  0
VERTEX
  8
0
  6
CONTINUOUS
 10
5.757840
 20
4.597120
  0
VERTEX
  8
0
  6
CONTINUOUS
 10
6.396720
 20
4.980800
  0
VERTEX
  8
0
  6
CONTINUOUS
 10
6.451720
 20
4.975520
  0
VERTEX
  8
0
  6
CONTINUOUS
 10
5.812840
 20
4.591400
  0
VERTEX
  8
0
  6
CONTINUOUS
 10
5.757840
 20
4.597120
  0
SEQEND
  8
0
  0
SOLID
  8
0
 62
    15
 10
5.812840
 20
4.591400
 11
6.451720
 21
4.975520
 12
5.822080
 22
4.590960
 13
6.460960
 23
4.975080
  0
POLYLINE
  8
0
  6
CONTINUOUS
 66
     1
 40
0.000000
 41
0.000000
  0
VERTEX
  8
0
  6
CONTINUOUS
 10
5.812840
 20
4.591400
  0
VERTEX
  8
0
  6
CONTINUOUS
 10
6.451720
 20
4.975520
  0
VERTEX
  8
0
  6
CONTINUOUS
 10
6.460960
 20
4.975080
  0
VERTEX
  8
0
  6
CONTINUOUS
 10
5.822080
 20
4.590960
  0
VERTEX
  8
0
  6
CONTINUOUS
 10
5.812840
 20
4.591400
  0
SEQEND
  8
0
  0
SOLID
  8
0
 62
    15
 10
5.822080
 20
4.590960
 11
6.460960
 21
4.975080
 12
5.822080
 22
4.377120
 13
6.460960
 23
4.760800
  0
POLYLINE
  8
0
  6
CONTINUOUS
 66
     1
 40
0.000000
 41
0.000000
  0
VERTEX
  8
0
  6
CONTINUOUS
 10
5.822080
 20
4.590960
  0
VERTEX
  8
0
  6
CONTINUOUS
 10
6.460960
 20
4.975080
  0
VERTEX
  8
0
  6
CONTINUOUS
 10
6.460960
 20
4.760800
  0
VERTEX
  8
0
  6
CONTINUOUS
 10
5.822080
 20
4.377120
  0
VERTEX
  8
0
  6
CONTINUOUS
 10
5.822080
 20
4.590960
  0
SEQEND
  8
0
  0
SOLID
  8
0
 62
    15
 10
5.822080
 20
4.377120
 11
6.460960
 21
4.760800
 12
5.917120
 22
4.367440
 13
6.556000
 23
4.751120
  0
POLYLINE
  8
0
  6
CONTINUOUS
 66
     1
 40
0.000000
 41
0.000000
  0
VERTEX
  8
0
  6
CONTINUOUS
 10
5.822080
 20
4.377120
  0
VERTEX
  8
0
  6
CONTINUOUS
 10
6.460960
 20
4.760800
  0
VERTEX
  8
0
  6
CONTINUOUS
 10
6.556000
 20
4.751120
  0
VERTEX
  8
0
  6
CONTINUOUS
 10
5.917120
 20
4.367440
  0
VERTEX
  8
0
  6
CONTINUOUS
 10
5.822080
 20
4.377120
  0
SEQEND
  8
0
  0
SOLID
  8
0
 62
    15
 10
5.917120
 20
4.367440
 11
6.556000
 21
4.751120
 12
6.006000
 22
4.339720
 13
6.644880
 23
4.723400
  0
POLYLINE
  8
0
  6
CONTINUOUS
 66
     1
 40
0.000000
 41
0.000000
  0
VERTEX
  8
0
  6
CONTINUOUS
 10
5.917120
 20
4.367440
  0
VERTEX
  8
0
  6
CONTINUOUS
 10
6.556000
 20
4.751120
  0
VERTEX
  8
0
  6
CONTINUOUS
 10
6.644880
 20
4.723400
  0
VERTEX
  8
0
  6
CONTINUOUS
 10
6.006000
 20
4.339720
  0
VERTEX
  8
0
  6
CONTINUOUS
 10
5.917120
 20
4.367440
  0
SEQEND
  8
0
  0
SOLID
  8
0
 62
    15
 10
6.006000
 20
4.339720
 11
6.644880
 21
4.723400
 12
6.086080
 22
4.295720
 13
6.724960
 23
4.679840
  0
POLYLINE
  8
0
  6
CONTINUOUS
 66
     1
 40
0.000000
 41
0.000000
  0
VERTEX
  8
0
  6
CONTINUOUS
 10
6.006000
 20
4.339720
  0
VERTEX
  8
0
  6
CONTINUOUS
 10
6.644880
 20
4.723400
  0
VERTEX
  8
0
  6
CONTINUOUS
 10
6.724960
 20
4.679840
  0
VERTEX
  8
0
  6
CONTINUOUS
 10
6.086080
 20
4.295720
  0
VERTEX
  8
0
  6
CONTINUOUS
 10
6.006000
 20
4.339720
  0
SEQEND
  8
0
  0
SOLID
  8
0
 62
    15
 10
6.086080
 20
4.295720
 11
6.724960
 21
4.679840
 12
6.156480
 22
4.237640
 13
6.795360
 23
4.621760
  0
POLYLINE
  8
0
  6
CONTINUOUS
 66
     1
 40
0.000000
 41
0.000000
  0
VERTEX
  8
0
  6
CONTINUOUS
 10
6.086080
 20
4.295720
  0
VERTEX
  8
0
  6
CONTINUOUS
 10
6.724960
 20
4.679840
  0
VERTEX
  8
0
  6
CONTINUOUS
 10
6.795360
 20
4.621760
  0
VERTEX
  8
0
  6
CONTINUOUS
 10
6.156480
 20
4.237640
  0
VERTEX
  8
0
  6
CONTINUOUS
 10
6.086080
 20
4.295720
  0
SEQEND
  8
0
  0
SOLID
  8
0
 62
    15
 10
6.156480
 20
4.237640
 11
6.795360
 21
4.621760
 12
6.214560
 22
4.167680
 13
6.853440
 23
4.551360
  0
POLYLINE
  8
0
  6
CONTINUOUS
 66
     1
 40
0.000000
 41
0.000000
  0
VERTEX
  8
0
  6
CONTINUOUS
 10
6.156480
 20
4.237640
  0
VERTEX
  8
0
  6
CONTINUOUS
 10
6.795360
 20
4.621760
  0
VERTEX
  8
0
  6
CONTINUOUS
 10
6.853440
 20
4.551360
  0
VERTEX
  8
0
  6
CONTINUOUS
 10
6.214560
 20
4.167680
  0
VERTEX
  8
0
  6
CONTINUOUS
 10
6.156480
 20
4.237640
  0
SEQEND
  8
0
  0
SOLID
  8
0
 62
    15
 10
6.214560
 20
4.167680
 11
6.853440
 21
4.551360
 12
6.258560
 22
4.087160
 13
6.897000
 23
4.470840
  0
POLYLINE
  8
0
  6
CONTINUOUS
 66
     1
 40
0.000000
 41
0.000000
  0
VERTEX
  8
0
  6
CONTINUOUS
 10
6.214560
 20
4.167680
  0
VERTEX
  8
0
  6
CONTINUOUS
 10
6.853440
 20
4.551360
  0
VERTEX
  8
0
  6
CONTINUOUS
 10
6.897000
 20
4.470840
  0
VERTEX
  8
0
  6
CONTINUOUS
 10
6.258560
 20
4.087160
  0
VERTEX
  8
0
  6
CONTINUOUS
 10
6.214560
 20
4.167680
  0
SEQEND
  8
0
  0
SOLID
  8
0
 62
    15
 10
5.441920
 20
4.963640
 11
6.080800
 21
5.347760
 12
5.441040
 22
4.962760
 13
6.079920
 23
5.346880
  0
POLYLINE
  8
0
  6
CONTINUOUS
 66
     1
 40
0.000000
 41
0.000000
  0
VERTEX
  8
0
  6
CONTINUOUS
 10
5.441920
 20
4.963640
  0
VERTEX
  8
0
  6
CONTINUOUS
 10
6.080800
 20
5.347760
  0
VERTEX
  8
0
  6
CONTINUOUS
 10
6.079920
 20
5.346880
  0
VERTEX
  8
0
  6
CONTINUOUS
 10
5.441040
 20
4.962760
  0
VERTEX
  8
0
  6
CONTINUOUS
 10
5.441920
 20
4.963640
  0
SEQEND
  8
0
  0
SOLID
  8
0
 62
    15
 10
6.286280
 20
3.998280
 11
6.924720
 21
4.382400
 12
6.295960
 22
3.903240
 13
6.934840
 23
4.287360
  0
POLYLINE
  8
0
  6
CONTINUOUS
 66
     1
 40
0.000000
 41
0.000000
  0
VERTEX
  8
0
  6
CONTINUOUS
 10
6.286280
 20
3.998280
  0
VERTEX
  8
0
  6
CONTINUOUS
 10
6.924720
 20
4.382400
  0
VERTEX
  8
0
  6
CONTINUOUS
 10
6.934840
 20
4.287360
  0
VERTEX
  8
0
  6
CONTINUOUS
 10
6.295960
 20
3.903240
  0
VERTEX
  8
0
  6
CONTINUOUS
 10
6.286280
 20
3.998280
  0
SEQEND
  8
0
  0
SOLID
  8
0
 62
    15
 10
6.295960
 20
3.903240
 11
6.934840
 21
4.287360
 12
6.286280
 22
3.808200
 13
6.924720
 23
4.192320
  0
POLYLINE
  8
0
  6
CONTINUOUS
 66
     1
 40
0.000000
 41
0.000000
  0
VERTEX
  8
0
  6
CONTINUOUS
 10
6.295960
 20
3.903240
  0
VERTEX
  8
0
  6
CONTINUOUS
 10
6.934840
 20
4.287360
  0
VERTEX
  8
0
  6
CONTINUOUS
 10
6.924720
 20
4.192320
  0
VERTEX
  8
0
  6
CONTINUOUS
 10
6.286280
 20
3.808200
  0
VERTEX
  8
0
  6
CONTINUOUS
 10
6.295960
 20
3.903240
  0
SEQEND
  8
0
  0
SOLID
  8
0
 62
    15
 10
6.286280
 20
3.808200
 11
6.924720
 21
4.192320
 12
6.258560
 22
3.719320
 13
6.897000
 23
4.103440
  0
POLYLINE
  8
0
  6
CONTINUOUS
 66
     1
 40
0.000000
 41
0.000000
  0
VERTEX
  8
0
  6
CONTINUOUS
 10
6.286280
 20
3.808200
  0
VERTEX
  8
0
  6
CONTINUOUS
 10
6.924720
 20
4.192320
  0
VERTEX
  8
0
  6
CONTINUOUS
 10
6.897000
 20
4.103440
  0
VERTEX
  8
0
  6
CONTINUOUS
 10
6.258560
 20
3.719320
  0
VERTEX
  8
0
  6
CONTINUOUS
 10
6.286280
 20
3.808200
  0
SEQEND
  8
0
  0
SOLID
  8
0
 62
    15
 10
6.214560
 20
3.639240
 11
6.853440
 21
4.022920
 12
6.156480
 22
3.568840
 13
6.795360
 23
3.952960
  0
POLYLINE
  8
0
  6
CONTINUOUS
 66
     1
 40
0.000000
 41
0.000000
  0
VERTEX
  8
0
  6
CONTINUOUS
 10
6.214560
 20
3.639240
  0
VERTEX
  8
0
  6
CONTINUOUS
 10
6.853440
 20
4.022920
  0
VERTEX
  8
0
  6
CONTINUOUS
 10
6.795360
 20
3.952960
  0
VERTEX
  8
0
  6
CONTINUOUS
 10
6.156480
 20
3.568840
  0
VERTEX
  8
0
  6
CONTINUOUS
 10
6.214560
 20
3.639240
  0
SEQEND
  8
0
  0
SOLID
  8
0
 62
    15
 10
5.822080
 20
3.429360
 11
6.460960
 21
3.813480
 12
5.822080
 22
3.319360
 13
6.460960
 23
3.703480
  0
POLYLINE
  8
0
  6
CONTINUOUS
 66
     1
 40
0.000000
 41
0.000000
  0
VERTEX
  8
0
  6
CONTINUOUS
 10
5.822080
 20
3.429360
  0
VERTEX
  8
0
  6
CONTINUOUS
 10
6.460960
 20
3.813480
  0
VERTEX
  8
0
  6
CONTINUOUS
 10
6.460960
 20
3.703480
  0
VERTEX
  8
0
  6
CONTINUOUS
 10
5.822080
 20
3.319360
  0
VERTEX
  8
0
  6
CONTINUOUS
 10
5.822080
 20
3.429360
  0
SEQEND
  8
0
  0
SOLID
  8
0
 62
    15
 10
6.156480
 20
3.568840
 11
6.795360
 21
3.952960
 12
6.086080
 22
3.510760
 13
6.724960
 23
3.894880
  0
POLYLINE
  8
0
  6
CONTINUOUS
 66
     1
 40
0.000000
 41
0.000000
  0
VERTEX
  8
0
  6
CONTINUOUS
 10
6.156480
 20
3.568840
  0
VERTEX
  8
0
  6
CONTINUOUS
 10
6.795360
 20
3.952960
  0
VERTEX
  8
0
  6
CONTINUOUS
 10
6.724960
 20
3.894880
  0
VERTEX
  8
0
  6
CONTINUOUS
 10
6.086080
 20
3.510760
  0
VERTEX
  8
0
  6
CONTINUOUS
 10
6.156480
 20
3.568840
  0
SEQEND
  8
0
  0
SOLID
  8
0
 62
    15
 10
6.258560
 20
3.719320
 11
6.897000
 21
4.103440
 12
6.214560
 22
3.639240
 13
6.853440
 23
4.022920
  0
POLYLINE
  8
0
  6
CONTINUOUS
 66
     1
 40
0.000000
 41
0.000000
  0
VERTEX
  8
0
  6
CONTINUOUS
 10
6.258560
 20
3.719320
  0
VERTEX
  8
0
  6
CONTINUOUS
 10
6.897000
 20
4.103440
  0
VERTEX
  8
0
  6
CONTINUOUS
 10
6.853440
 20
4.022920
  0
VERTEX
  8
0
  6
CONTINUOUS
 10
6.214560
 20
3.639240
  0
VERTEX
  8
0
  6
CONTINUOUS
 10
6.258560
 20
3.719320
  0
SEQEND
  8
0
  0
SOLID
  8
0
 62
    15
 10
2.251040
 20
4.296600
 11
2.889920
 21
4.680280
 12
2.331560
 22
4.340160
 13
2.970440
 23
4.724280
  0
POLYLINE
  8
0
  6
CONTINUOUS
 66
     1
 40
0.000000
 41
0.000000
  0
VERTEX
  8
0
  6
CONTINUOUS
 10
2.251040
 20
4.296600
  0
VERTEX
  8
0
  6
CONTINUOUS
 10
2.889920
 20
4.680280
  0
VERTEX
  8
0
  6
CONTINUOUS
 10
2.970440
 20
4.724280
  0
VERTEX
  8
0
  6
CONTINUOUS
 10
2.331560
 20
4.340160
  0
VERTEX
  8
0
  6
CONTINUOUS
 10
2.251040
 20
4.296600
  0
SEQEND
  8
0
  0
SOLID
  8
0
 62
    15
 10
2.331560
 20
4.340160
 11
2.970440
 21
4.724280
 12
2.420000
 22
4.367880
 13
3.058880
 23
4.752000
  0
POLYLINE
  8
0
  6
CONTINUOUS
 66
     1
 40
0.000000
 41
0.000000
  0
VERTEX
  8
0
  6
CONTINUOUS
 10
2.331560
 20
4.340160
  0
VERTEX
  8
0
  6
CONTINUOUS
 10
2.970440
 20
4.724280
  0
VERTEX
  8
0
  6
CONTINUOUS
 10
3.058880
 20
4.752000
  0
VERTEX
  8
0
  6
CONTINUOUS
 10
2.420000
 20
4.367880
  0
VERTEX
  8
0
  6
CONTINUOUS
 10
2.331560
 20
4.340160
  0
SEQEND
  8
0
  0
SOLID
  8
0
 62
    15
 10
2.420000
 20
4.367880
 11
3.058880
 21
4.752000
 12
2.515480
 22
4.377560
 13
3.153920
 23
4.761680
  0
POLYLINE
  8
0
  6
CONTINUOUS
 66
     1
 40
0.000000
 41
0.000000
  0
VERTEX
  8
0
  6
CONTINUOUS
 10
2.420000
 20
4.367880
  0
VERTEX
  8
0
  6
CONTINUOUS
 10
3.058880
 20
4.752000
  0
VERTEX
  8
0
  6
CONTINUOUS
 10
3.153920
 20
4.761680
  0
VERTEX
  8
0
  6
CONTINUOUS
 10
2.515480
 20
4.377560
  0
VERTEX
  8
0
  6
CONTINUOUS
 10
2.420000
 20
4.367880
  0
SEQEND
  8
0
  0
SOLID
  8
0
 62
    15
 10
2.515480
 20
4.591840
 11
3.153920
 21
4.975960
 12
2.524720
 22
4.592280
 13
3.163600
 23
4.976400
  0
POLYLINE
  8
0
  6
CONTINUOUS
 66
     1
 40
0.000000
 41
0.000000
  0
VERTEX
  8
0
  6
CONTINUOUS
 10
2.515480
 20
4.591840
  0
VERTEX
  8
0
  6
CONTINUOUS
 10
3.153920
 20
4.975960
  0
VERTEX
  8
0
  6
CONTINUOUS
 10
3.163600
 20
4.976400
  0
VERTEX
  8
0
  6
CONTINUOUS
 10
2.524720
 20
4.592280
  0
VERTEX
  8
0
  6
CONTINUOUS
 10
2.515480
 20
4.591840
  0
SEQEND
  8
0
  0
SOLID
  8
0
 62
    15
 10
2.524720
 20
4.592280
 11
3.163600
 21
4.976400
 12
2.579280
 22
4.597560
 13
3.218160
 23
4.981680
  0
POLYLINE
  8
0
  6
CONTINUOUS
 66
     1
 40
0.000000
 41
0.000000
  0
VERTEX
  8
0
  6
CONTINUOUS
 10
2.524720
 20
4.592280
  0
VERTEX
  8
0
  6
CONTINUOUS
 10
3.163600
 20
4.976400
  0
VERTEX
  8
0
  6
CONTINUOUS
 10
3.218160
 20
4.981680
  0
VERTEX
  8
0
  6
CONTINUOUS
 10
2.579280
 20
4.597560
  0
VERTEX
  8
0
  6
CONTINUOUS
 10
2.524720
 20
4.592280
  0
SEQEND
  8
0
  0
SOLID
  8
0
 62
    15
 10
2.579280
 20
4.597560
 11
3.218160
 21
4.981680
 12
2.638680
 22
4.613400
 13
3.277560
 23
4.997520
  0
POLYLINE
  8
0
  6
CONTINUOUS
 66
     1
 40
0.000000
 41
0.000000
  0
VERTEX
  8
0
  6
CONTINUOUS
 10
2.579280
 20
4.597560
  0
VERTEX
  8
0
  6
CONTINUOUS
 10
3.218160
 20
4.981680
  0
VERTEX
  8
0
  6
CONTINUOUS
 10
3.277560
 20
4.997520
  0
VERTEX
  8
0
  6
CONTINUOUS
 10
2.638680
 20
4.613400
  0
VERTEX
  8
0
  6
CONTINUOUS
 10
2.579280
 20
4.597560
  0
SEQEND
  8
0
  0
SOLID
  8
0
 62
    15
 10
2.638680
 20
4.613400
 11
3.277560
 21
4.997520
 12
2.698520
 22
4.640240
 13
3.337400
 23
5.024360
  0
POLYLINE
  8
0
  6
CONTINUOUS
 66
     1
 40
0.000000
 41
0.000000
  0
VERTEX
  8
0
  6
CONTINUOUS
 10
2.638680
 20
4.613400
  0
VERTEX
  8
0
  6
CONTINUOUS
 10
3.277560
 20
4.997520
  0
VERTEX
  8
0
  6
CONTINUOUS
 10
3.337400
 20
5.024360
  0
VERTEX
  8
0
  6
CONTINUOUS
 10
2.698520
 20
4.640240
  0
VERTEX
  8
0
  6
CONTINUOUS
 10
2.638680
 20
4.613400
  0
SEQEND
  8
0
  0
SOLID
  8
0
 62
    15
 10
2.895200
 20
4.964520
 11
3.534080
 21
5.348640
 12
2.895200
 22
4.962760
 13
3.534080
 23
5.346880
  0
POLYLINE
  8
0
  6
CONTINUOUS
 66
     1
 40
0.000000
 41
0.000000
  0
VERTEX
  8
0
  6
CONTINUOUS
 10
2.895200
 20
4.964520
  0
VERTEX
  8
0
  6
CONTINUOUS
 10
3.534080
 20
5.348640
  0
VERTEX
  8
0
  6
CONTINUOUS
 10
3.534080
 20
5.346880
  0
VERTEX
  8
0
  6
CONTINUOUS
 10
2.895200
 20
4.962760
  0
VERTEX
  8
0
  6
CONTINUOUS
 10
2.895200
 20
4.964520
  0
SEQEND
  8
0
  0
SOLID
  8
0
 62
    15
 10
2.895200
 20
4.962760
 11
3.534080
 21
5.346880
 12
4.151400
 22
5.063080
 13
4.790280
 23
5.447200
  0
POLYLINE
  8
0
  6
CONTINUOUS
 66
     1
 40
0.000000
 41
0.000000
  0
VERTEX
  8
0
  6
CONTINUOUS
 10
2.895200
 20
4.962760
  0
VERTEX
  8
0
  6
CONTINUOUS
 10
3.534080
 20
5.346880
  0
VERTEX
  8
0
  6
CONTINUOUS
 10
4.790280
 20
5.447200
  0
VERTEX
  8
0
  6
CONTINUOUS
 10
4.151400
 20
5.063080
  0
VERTEX
  8
0
  6
CONTINUOUS
 10
2.895200
 20
4.962760
  0
SEQEND
  8
0
  0
SOLID
  8
0
 62
    15
 10
4.151400
 20
5.063080
 11
4.790280
 21
5.447200
 12
4.185720
 22
5.062640
 13
4.824600
 23
5.446320
  0
POLYLINE
  8
0
  6
CONTINUOUS
 66
     1
 40
0.000000
 41
0.000000
  0
VERTEX
  8
0
  6
CONTINUOUS
 10
4.151400
 20
5.063080
  0
VERTEX
  8
0
  6
CONTINUOUS
 10
4.790280
 20
5.447200
  0
VERTEX
  8
0
  6
CONTINUOUS
 10
4.824600
 20
5.446320
  0
VERTEX
  8
0
  6
CONTINUOUS
 10
4.185720
 20
5.062640
  0
VERTEX
  8
0
  6
CONTINUOUS
 10
4.151400
 20
5.063080
  0
SEQEND
  8
0
  0
POLYLINE
  8
0
  6
CONTINUOUS
 66
     1
 40
0.000000
 41
0.000000
  0
VERTEX
  8
0
  6
CONTINUOUS
 10
4.185720
 20
5.062640
  0
VERTEX
  8
0
  6
CONTINUOUS
 10
5.441920
 20
4.962320
  0
VERTEX
  8
0
  6
CONTINUOUS
 10
5.441920
 20
4.963640
  0
VERTEX
  8
0
  6
CONTINUOUS
 10
5.441040
 20
4.962760
  0
VERTEX
  8
0
  6
CONTINUOUS
 10
5.455560
 20
4.870800
  0
VERTEX
  8
0
  6
CONTINUOUS
 10
5.485920
 20
4.793360
  0
VERTEX
  8
0
  6
CONTINUOUS
 10
5.528600
 20
4.729120
  0
VERTEX
  8
0
  6
CONTINUOUS
 10
5.580960
 20
4.678080
  0
VERTEX
  8
0
  6
CONTINUOUS
 10
5.638600
 20
4.639800
  0
VERTEX
  8
0
  6
CONTINUOUS
 10
5.698880
 20
4.612960
  0
VERTEX
  8
0
  6
CONTINUOUS
 10
5.757840
 20
4.597120
  0
VERTEX
  8
0
  6
CONTINUOUS
 10
5.822080
 20
4.590960
  0
VERTEX
  8
0
  6
CONTINUOUS
 10
5.822080
 20
4.377120
  0
VERTEX
  8
0
  6
CONTINUOUS
 10
5.917120
 20
4.367440
  0
VERTEX
  8
0
  6
CONTINUOUS
 10
6.006000
 20
4.339720
  0
VERTEX
  8
0
  6
CONTINUOUS
 10
6.086080
 20
4.295720
  0
VERTEX
  8
0
  6
CONTINUOUS
 10
6.156480
 20
4.237640
  0
VERTEX
  8
0
  6
CONTINUOUS
 10
6.214560
 20
4.167680
  0
VERTEX
  8
0
  6
CONTINUOUS
 10
6.258560
 20
4.087160
  0
VERTEX
  8
0
  6
CONTINUOUS
 10
6.286280
 20
3.998280
  0
VERTEX
  8
0
  6
CONTINUOUS
 10
6.295960
 20
3.903240
  0
VERTEX
  8
0
  6
CONTINUOUS
 10
6.286280
 20
3.808200
  0
VERTEX
  8
0
  6
CONTINUOUS
 10
6.258560
 20
3.719320
  0
VERTEX
  8
0
  6
CONTINUOUS
 10
6.214560
 20
3.639240
  0
VERTEX
  8
0
  6
CONTINUOUS
 10
6.156480
 20
3.568840
  0
VERTEX
  8
0
  6
CONTINUOUS
 10
6.086080
 20
3.510760
  0
VERTEX
  8
0
  6
CONTINUOUS
 10
6.006000
 20
3.466760
  0
VERTEX
  8
0
  6
CONTINUOUS
 10
5.917120
 20
3.439040
  0
VERTEX
  8
0
  6
CONTINUOUS
 10
5.822080
 20
3.429360
  0
VERTEX
  8
0
  6
CONTINUOUS
 10
5.822080
 20
3.319360
  0
VERTEX
  8
0
  6
CONTINUOUS
 10
2.515480
 20
3.320240
  0
VERTEX
  8
0
  6
CONTINUOUS
 10
2.515480
 20
3.430240
  0
VERTEX
  8
0
  6
CONTINUOUS
 10
2.420000
 20
3.439920
  0
VERTEX
  8
0
  6
CONTINUOUS
 10
2.331560
 20
3.467640
  0
VERTEX
  8
0
  6
CONTINUOUS
 10
2.251040
 20
3.511640
  0
VERTEX
  8
0
  6
CONTINUOUS
 10
2.181080
 20
3.569720
  0
VERTEX
  8
0
  6
CONTINUOUS
 10
2.123000
 20
3.639680
  0
VERTEX
  8
0
  6
CONTINUOUS
 10
2.079000
 20
3.720200
  0
VERTEX
  8
0
  6
CONTINUOUS
 10
2.051280
 20
3.809080
  0
VERTEX
  8
0
  6
CONTINUOUS
 10
2.041600
 20
3.904120
  0
VERTEX
  8
0
  6
CONTINUOUS
 10
2.051280
 20
3.999160
  0
VERTEX
  8
0
  6
CONTINUOUS
 10
2.079000
 20
4.087600
  0
VERTEX
  8
0
  6
CONTINUOUS
 10
2.123000
 20
4.168120
  0
VERTEX
  8
0
  6
CONTINUOUS
 10
2.181080
 20
4.238520
  0
VERTEX
  8
0
  6
CONTINUOUS
 10
2.251040
 20
4.296600
  0
VERTEX
  8
0
  6
CONTINUOUS
 10
2.331560
 20
4.340160
  0
VERTEX
  8
0
  6
CONTINUOUS
 10
2.420000
 20
4.367880
  0
VERTEX
  8
0
  6
CONTINUOUS
 10
2.515480
 20
4.377560
  0
VERTEX
  8
0
  6
CONTINUOUS
 10
2.515480
 20
4.591840
  0
VERTEX
  8
0
  6
CONTINUOUS
 10
2.579280
 20
4.597560
  0
VERTEX
  8
0
  6
CONTINUOUS
 10
2.638680
 20
4.613400
  0
VERTEX
  8
0
  6
CONTINUOUS
 10
2.698520
 20
4.640240
  0
VERTEX
  8
0
  6
CONTINUOUS
 10
2.756600
 20
4.678960
  0
VERTEX
  8
0
  6
CONTINUOUS
 10
2.808520
 20
4.730000
  0
VERTEX
  8
0
  6
CONTINUOUS
 10
2.851200
 20
4.793800
  0
VERTEX
  8
0
  6
CONTINUOUS
 10
2.881560
 20
4.871680
  0
VERTEX
  8
0
  6
CONTINUOUS
 10
2.896080
 20
4.963640
  0
VERTEX
  8
0
  6
CONTINUOUS
 10
2.895200
 20
4.964520
  0
VERTEX
  8
0
  6
CONTINUOUS
 10
2.895200
 20
4.962760
  0
VERTEX
  8
0
  6
CONTINUOUS
 10
4.151400
 20
5.063080
  0
VERTEX
  8
0
  6
CONTINUOUS
 10
4.185720
 20
5.062640
  0
SEQEND
  8
0
  0
TEXT
  8
0
 10
3.445200
 20
3.058000
 40
0.138136
  1
BA  1091 Top
 41
1.000000
  7
SN0
 71
     0
 72
     5
 11
4.459017
 21
3.058000
  0
TEXT
  8
0
 10
3.445200
 20
2.866160
 40
0.138136
  1
BA  1092 1-3/4" x 4-1/4"
 41
1.000000
  7
SN0
 71
     0
 72
     5
 11
5.220869
 21
2.866160
  0
POLYLINE
  8
0
  6
CONTINUOUS
 66
     1
 40
0.014080
 41
0.014080
  0
VERTEX
  8
0
  6
CONTINUOUS
 10
4.505160
 20
7.637520
  0
VERTEX
  8
0
  6
CONTINUOUS
 10
5.761360
 20
7.537640
  0
VERTEX
  8
0
  6
CONTINUOUS
 10
5.761360
 20
7.538960
  0
VERTEX
  8
0
  6
CONTINUOUS
 10
5.760480
 20
7.538080
  0
VERTEX
  8
0
  6
CONTINUOUS
 10
5.762240
 20
7.513880
  0
VERTEX
  8
0
  6
CONTINUOUS
 10
5.769720
 20
7.467680
  0
VERTEX
  8
0
  6
CONTINUOUS
 10
5.781160
 20
7.425440
  0
VERTEX
  8
0
  6
CONTINUOUS
 10
5.796560
 20
7.386280
  0
VERTEX
  8
0
  6
CONTINUOUS
 10
5.815040
 20
7.351080
  0
VERTEX
  8
0
  6
CONTINUOUS
 10
5.836600
 20
7.318960
  0
VERTEX
  8
0
  6
CONTINUOUS
 10
5.873560
 20
7.277160
  0
VERTEX
  8
0
  6
CONTINUOUS
 10
5.900400
 20
7.253400
  0
VERTEX
  8
0
  6
CONTINUOUS
 10
5.928560
 20
7.232720
  0
VERTEX
  8
0
  6
CONTINUOUS
 10
5.958040
 20
7.214680
  0
VERTEX
  8
0
  6
CONTINUOUS
 10
6.003360
 20
7.193560
  0
VERTEX
  8
0
  6
CONTINUOUS
 10
6.048240
 20
7.178600
  0
VERTEX
  8
0
  6
CONTINUOUS
 10
6.091800
 20
7.169800
  0
VERTEX
  8
0
  6
CONTINUOUS
 10
6.119080
 20
7.167160
  0
VERTEX
  8
0
  6
CONTINUOUS
 10
6.141520
 20
7.166280
  0
VERTEX
  8
0
  6
CONTINUOUS
 10
6.141520
 20
6.952440
  0
VERTEX
  8
0
  6
CONTINUOUS
 10
6.165720
 20
6.952000
  0
VERTEX
  8
0
  6
CONTINUOUS
 10
6.213240
 20
6.946720
  0
VERTEX
  8
0
  6
CONTINUOUS
 10
6.259440
 20
6.937480
  0
VERTEX
  8
0
  6
CONTINUOUS
 10
6.303880
 20
6.923400
  0
VERTEX
  8
0
  6
CONTINUOUS
 10
6.346120
 20
6.905360
  0
VERTEX
  8
0
  6
CONTINUOUS
 10
6.386600
 20
6.883360
  0
VERTEX
  8
0
  6
CONTINUOUS
 10
6.424440
 20
6.857840
  0
VERTEX
  8
0
  6
CONTINUOUS
 10
6.459640
 20
6.828800
  0
VERTEX
  8
0
  6
CONTINUOUS
 10
6.491760
 20
6.796680
  0
VERTEX
  8
0
  6
CONTINUOUS
 10
6.520800
 20
6.761480
  0
VERTEX
  8
0
  6
CONTINUOUS
 10
6.546320
 20
6.723640
  0
VERTEX
  8
0
  6
CONTINUOUS
 10
6.568320
 20
6.683160
  0
VERTEX
  8
0
  6
CONTINUOUS
 10
6.586360
 20
6.640920
  0
VERTEX
  8
0
  6
CONTINUOUS
 10
6.600440
 20
6.596480
  0
VERTEX
  8
0
  6
CONTINUOUS
 10
6.609680
 20
6.550280
  0
VERTEX
  8
0
  6
CONTINUOUS
 10
6.614960
 20
6.502760
  0
VERTEX
  8
0
  6
CONTINUOUS
 10
6.614960
 20
6.454360
  0
VERTEX
  8
0
  6
CONTINUOUS
 10
6.609680
 20
6.406840
  0
VERTEX
  8
0
  6
CONTINUOUS
 10
6.600440
 20
6.360640
  0
VERTEX
  8
0
  6
CONTINUOUS
 10
6.586360
 20
6.316200
  0
VERTEX
  8
0
  6
CONTINUOUS
 10
6.568320
 20
6.273960
  0
VERTEX
  8
0
  6
CONTINUOUS
 10
6.546320
 20
6.233480
  0
VERTEX
  8
0
  6
CONTINUOUS
 10
6.520800
 20
6.195640
  0
VERTEX
  8
0
  6
CONTINUOUS
 10
6.491760
 20
6.160440
  0
VERTEX
  8
0
  6
CONTINUOUS
 10
6.459640
 20
6.128320
  0
VERTEX
  8
0
  6
CONTINUOUS
 10
6.424440
 20
6.099280
  0
VERTEX
  8
0
  6
CONTINUOUS
 10
6.386600
 20
6.073760
  0
VERTEX
  8
0
  6
CONTINUOUS
 10
6.346120
 20
6.051760
  0
VERTEX
  8
0
  6
CONTINUOUS
 10
6.303880
 20
6.033720
  0
VERTEX
  8
0
  6
CONTINUOUS
 10
6.259440
 20
6.019640
  0
VERTEX
  8
0
  6
CONTINUOUS
 10
6.213240
 20
6.010400
  0
VERTEX
  8
0
  6
CONTINUOUS
 10
6.165720
 20
6.005120
  0
VERTEX
  8
0
  6
CONTINUOUS
 10
6.141520
 20
6.004680
  0
VERTEX
  8
0
  6
CONTINUOUS
 10
6.141520
 20
5.894680
  0
VERTEX
  8
0
  6
CONTINUOUS
 10
2.834920
 20
5.895560
  0
VERTEX
  8
0
  6
CONTINUOUS
 10
2.834920
 20
6.005560
  0
VERTEX
  8
0
  6
CONTINUOUS
 10
2.810720
 20
6.006000
  0
VERTEX
  8
0
  6
CONTINUOUS
 10
2.763200
 20
6.010840
  0
VERTEX
  8
0
  6
CONTINUOUS
 10
2.717000
 20
6.020520
  0
VERTEX
  8
0
  6
CONTINUOUS
 10
2.672560
 20
6.034600
  0
VERTEX
  8
0
  6
CONTINUOUS
 10
2.629880
 20
6.052640
  0
VERTEX
  8
0
  6
CONTINUOUS
 10
2.589840
 20
6.074640
  0
VERTEX
  8
0
  6
CONTINUOUS
 10
2.552000
 20
6.100160
  0
VERTEX
  8
0
  6
CONTINUOUS
 10
2.516800
 20
6.129200
  0
VERTEX
  8
0
  6
CONTINUOUS
 10
2.484680
 20
6.161320
  0
VERTEX
  8
0
  6
CONTINUOUS
 10
2.455640
 20
6.196520
  0
VERTEX
  8
0
  6
CONTINUOUS
 10
2.430120
 20
6.234360
  0
VERTEX
  8
0
  6
CONTINUOUS
 10
2.408120
 20
6.274400
  0
VERTEX
  8
0
  6
CONTINUOUS
 10
2.390080
 20
6.317080
  0
VERTEX
  8
0
  6
CONTINUOUS
 10
2.376000
 20
6.361520
  0
VERTEX
  8
0
  6
CONTINUOUS
 10
2.366320
 20
6.407720
  0
VERTEX
  8
0
  6
CONTINUOUS
 10
2.361480
 20
6.455240
  0
VERTEX
  8
0
  6
CONTINUOUS
 10
2.361480
 20
6.503640
  0
VERTEX
  8
0
  6
CONTINUOUS
 10
2.366320
 20
6.551160
  0
VERTEX
  8
0
  6
CONTINUOUS
 10
2.376000
 20
6.597360
  0
VERTEX
  8
0
  6
CONTINUOUS
 10
2.390080
 20
6.641800
  0
VERTEX
  8
0
  6
CONTINUOUS
 10
2.408120
 20
6.684040
  0
VERTEX
  8
0
  6
CONTINUOUS
 10
2.430120
 20
6.724080
  0
VERTEX
  8
0
  6
CONTINUOUS
 10
2.455640
 20
6.761920
  0
VERTEX
  8
0
  6
CONTINUOUS
 10
2.484680
 20
6.797120
  0
VERTEX
  8
0
  6
CONTINUOUS
 10
2.516800
 20
6.829240
  0
VERTEX
  8
0
  6
CONTINUOUS
 10
2.552000
 20
6.858280
  0
VERTEX
  8
0
  6
CONTINUOUS
 10
2.589840
 20
6.883800
  0
VERTEX
  8
0
  6
CONTINUOUS
 10
2.629880
 20
6.905800
  0
VERTEX
  8
0
  6
CONTINUOUS
 10
2.672560
 20
6.923840
  0
VERTEX
  8
0
  6
CONTINUOUS
 10
2.717000
 20
6.937920
  0
VERTEX
  8
0
  6
CONTINUOUS
 10
2.763200
 20
6.947600
  0
VERTEX
  8
0
  6
CONTINUOUS
 10
2.810720
 20
6.952440
  0
VERTEX
  8
0
  6
CONTINUOUS
 10
2.834920
 20
6.952880
  0
VERTEX
  8
0
  6
CONTINUOUS
 10
2.834920
 20
7.167160
  0
VERTEX
  8
0
  6
CONTINUOUS
 10
2.871000
 20
7.168920
  0
VERTEX
  8
0
  6
CONTINUOUS
 10
2.913680
 20
7.175960
  0
VERTEX
  8
0
  6
CONTINUOUS
 10
2.958120
 20
7.188720
  0
VERTEX
  8
0
  6
CONTINUOUS
 10
3.003440
 20
7.208080
  0
VERTEX
  8
0
  6
CONTINUOUS
 10
3.032920
 20
7.224360
  0
VERTEX
  8
0
  6
CONTINUOUS
 10
3.061960
 20
7.243720
  0
VERTEX
  8
0
  6
CONTINUOUS
 10
3.089680
 20
7.265720
  0
VERTEX
  8
0
  6
CONTINUOUS
 10
3.127960
 20
7.305320
  0
VERTEX
  8
0
  6
CONTINUOUS
 10
3.150840
 20
7.335680
  0
VERTEX
  8
0
  6
CONTINUOUS
 10
3.171080
 20
7.369120
  0
VERTEX
  8
0
  6
CONTINUOUS
 10
3.187800
 20
7.406080
  0
VERTEX
  8
0
  6
CONTINUOUS
 10
3.201000
 20
7.447000
  0
VERTEX
  8
0
  6
CONTINUOUS
 10
3.210680
 20
7.491000
  0
VERTEX
  8
0
  6
CONTINUOUS
 10
3.215520
 20
7.538960
  0
VERTEX
  8
0
  6
CONTINUOUS
 10
3.214640
 20
7.539840
  0
VERTEX
  8
0
  6
CONTINUOUS
 10
3.214640
 20
7.538080
  0
VERTEX
  8
0
  6
CONTINUOUS
 10
4.470840
 20
7.638400
  0
VERTEX
  8
0
  6
CONTINUOUS
 10
4.505160
 20
7.637520
  0
SEQEND
  8
0
  0
TEXT
  8
0
 10
3.419680
 20
6.242720
 40
0.138136
  1
BA  1091 Top
 41
1.000000
  7
SN0
 71
     0
 72
     5
 11
4.433497
 21
6.242720
  0
TEXT
  8
0
 10
3.419680
 20
6.050880
 40
0.138136
  1
BA  1092 1-3/4" x 4-1/4"
 41
1.000000
  7
SN0
 71
     0
 72
     5
 11
5.195349
 21
6.050880
  0
ENDSEC
  0
EOF
