  0
SECTION
  2
HEADER
  9
$ACADVER
  1
AC1006
  9
$EXTMIN
 10
1.157200
 20
0.465080
  9
$EXTMAX
 10
7.973240
 20
2.214080
  9
$LTSCALE
 40
0.044000
  9
$PDMODE
 70
    35
  9
$PDSIZE
 40
0.035200
  0
ENDSEC
  0
SECTION
  2
TABLES
  0
TABLE
  2
LTYPE
 70
     9
  0
LTYPE
  2
CONTINUOUS
 70
    64
  3
Solid line
 72
    65
 73
     0
 40
0.000000
  0
LTYPE
  2
DASHED
 70
    64
  3
__ __ __ __ __ __ __ __ __ __ __ __ __ __ __
 72
    65
 73
     2
 40
0.000330
 49
0.000220
 49
-0.000110
  0
LTYPE
  2
HIDDEN
 70
    64
  3
 _ _ _ _ _ _ _ _ _ _ _ _ _ _ _ _ _ _ _ _ _ _
 72
    65
 73
     2
 40
0.000165
 49
0.000110
 49
-0.000055
  0
LTYPE
  2
CENTER
 70
    64
  3
____ _ ____ _ ____ _ ____ _ ____ _ ____ _ ____
 72
    65
 73
     4
 40
0.000880
 49
0.000550
 49
-0.000110
 49
0.000110
 49
-0.000110
  0
LTYPE
  2
PHANTOM
 70
    64
  3
_____ _ _ _____ _ _ _____ _ _ _____ _ _ ____
 72
    65
 73
     6
 40
0.001100
 49
0.000550
 49
-0.000110
 49
0.000110
 49
-0.000110
 49
0.000110
 49
-0.000110
  0
LTYPE
  2
DOT
 70
    64
  3
...............................................
 72
    65
 73
     2
 40
0.000110
 49
0.000000
 49
-0.000110
  0
LTYPE
  2
DASHDOT
 70
    64
  3
__ . __ . __ . __ . __ . __ . __ . __ . __ . __
 72
    65
 73
     4
 40
0.000440
 49
0.000220
 49
-0.000110
 49
0.000000
 49
-0.000110
  0
LTYPE
  2
BORDER
 70
    64
  3
__ __ . __ __ . __ __ . __ __ . __ __ . __ __
 72
    65
 73
     6
 40
0.000770
 49
0.000220
 49
-0.000110
 49
0.000220
 49
-0.000110
 49
0.000000
 49
-0.000110
  0
LTYPE
  2
DIVIDE
 70
    64
  3
__ . . __ . . __ . . __ . . __ . . __ . . __
 72
    65
 73
     6
 40
0.000550
 49
0.000220
 49
-0.000110
 49
0.000000
 49
-0.000110
 49
0.000000
 49
-0.000110
  0
LTYPE
  2
DOTDOT
 70
    64
  3
 . .  . .  . .  . .  . .  . . 
 72
    65
 73
     5
 40
0.000242
 49
-0.000110
 49
0.000000
 49
-0.000110
 49
0.000000
 49
-0.000110
  0
ENDTAB
  0
TABLE
  2
STYLE
 70
     2
  0
STYLE
 70
     0
  2
SN0
 40
0.000000
 41
0.000440
 50
0.000000
 71
     0
 42
0.000000
  3
ROMAND
  0
STYLE
 70
    68
  2
SV0
 40
0.000000
 41
0.000440
 50
0.000000
 71
     0
 42
0.000000
  3
ROMAND
  0
ENDTAB
  0
TABLE
  2
LAYER
 70
     3
  0
LAYER
  2
FOREGROUND
 70
    64
 62
     7
  6
CONTINUOUS
  0
LAYER
  2
BACKGROUND
 70
    65
 62
    -7
  6
CONTINUOUS
  0
LAYER
  2
0
 70
    64
 62
     7
  6
CONTINUOUS
  0
ENDTAB
  0
ENDSEC
  0
SECTION
  2
ENTITIES
  0
POLYLINE
  8
FOREGROUND
  6
CONTINUOUS
 66
     1
 40
0.000000
 41
0.000000
  0
VERTEX
  8
FOREGROUND
  6
CONTINUOUS
 10
0.000000
 20
2.679160
  0
VERTEX
  8
FOREGROUND
  6
CONTINUOUS
 10
8.499920
 20
2.679160
  0
VERTEX
  8
FOREGROUND
  6
CONTINUOUS
 10
8.499920
 20
-8.320840
  0
VERTEX
  8
FOREGROUND
  6
CONTINUOUS
 10
0.000000
 20
-8.320840
  0
VERTEX
  8
FOREGROUND
  6
CONTINUOUS
 10
0.000000
 20
2.679160
  0
SEQEND
  8
0
  0
POLYLINE
  8
FOREGROUND
  6
CONTINUOUS
 66
     1
 40
0.000000
 41
0.000000
  0
VERTEX
  8
FOREGROUND
  6
CONTINUOUS
 10
0.000000
 20
2.679160
  0
VERTEX
  8
FOREGROUND
  6
CONTINUOUS
 10
8.499920
 20
2.679160
  0
VERTEX
  8
FOREGROUND
  6
CONTINUOUS
 10
8.499920
 20
-8.320840
  0
VERTEX
  8
FOREGROUND
  6
CONTINUOUS
 10
0.000000
 20
-8.320840
  0
VERTEX
  8
FOREGROUND
  6
CONTINUOUS
 10
0.000000
 20
2.679160
  0
SEQEND
  8
0
  0
POLYLINE
  8
0
  6
CONTINUOUS
 66
     1
 40
0.000000
 41
0.000000
  0
VERTEX
  8
0
  6
CONTINUOUS
 10
1.157640
 20
0.887920
  0
VERTEX
  8
0
  6
CONTINUOUS
 10
2.407680
 20
0.887920
  0
VERTEX
  8
0
  6
CONTINUOUS
 10
2.407680
 20
1.387760
  0
VERTEX
  8
0
  6
CONTINUOUS
 10
2.098360
 20
1.387760
  0
VERTEX
  8
0
  6
CONTINUOUS
 10
2.080760
 20
1.335400
  0
VERTEX
  8
0
  6
CONTINUOUS
 10
2.069760
 20
1.312520
  0
VERTEX
  8
0
  6
CONTINUOUS
 10
2.054800
 20
1.290520
  0
VERTEX
  8
0
  6
CONTINUOUS
 10
2.039840
 20
1.276880
  0
VERTEX
  8
0
  6
CONTINUOUS
 10
2.024440
 20
1.270720
  0
VERTEX
  8
0
  6
CONTINUOUS
 10
2.009920
 20
1.270280
  0
VERTEX
  8
0
  6
CONTINUOUS
 10
1.995840
 20
1.273800
  0
VERTEX
  8
0
  6
CONTINUOUS
 10
1.976040
 20
1.283920
  0
VERTEX
  8
0
  6
CONTINUOUS
 10
1.917960
 20
1.325720
  0
VERTEX
  8
0
  6
CONTINUOUS
 10
1.876160
 20
1.348600
  0
VERTEX
  8
0
  6
CONTINUOUS
 10
1.843160
 20
1.360920
  0
VERTEX
  8
0
  6
CONTINUOUS
 10
1.806200
 20
1.369720
  0
VERTEX
  8
0
  6
CONTINUOUS
 10
1.764400
 20
1.372800
  0
VERTEX
  8
0
  6
CONTINUOUS
 10
1.741960
 20
1.370160
  0
VERTEX
  8
0
  6
CONTINUOUS
 10
1.718200
 20
1.362680
  0
VERTEX
  8
0
  6
CONTINUOUS
 10
1.681680
 20
1.344200
  0
VERTEX
  8
0
  6
CONTINUOUS
 10
1.644720
 20
1.318680
  0
VERTEX
  8
0
  6
CONTINUOUS
 10
1.597200
 20
1.277760
  0
VERTEX
  8
0
  6
CONTINUOUS
 10
1.554080
 20
1.233760
  0
VERTEX
  8
0
  6
CONTINUOUS
 10
1.496000
 20
1.167320
  0
VERTEX
  8
0
  6
CONTINUOUS
 10
1.473560
 20
1.138720
  0
VERTEX
  8
0
  6
CONTINUOUS
 10
1.342440
 20
1.138280
  0
VERTEX
  8
0
  6
CONTINUOUS
 10
1.341560
 20
1.118920
  0
VERTEX
  8
0
  6
CONTINUOUS
 10
1.336280
 20
1.084160
  0
VERTEX
  8
0
  6
CONTINUOUS
 10
1.331880
 20
1.068320
  0
VERTEX
  8
0
  6
CONTINUOUS
 10
1.319120
 20
1.041040
  0
VERTEX
  8
0
  6
CONTINUOUS
 10
1.310320
 20
1.029160
  0
VERTEX
  8
0
  6
CONTINUOUS
 10
1.288760
 20
1.008920
  0
VERTEX
  8
0
  6
CONTINUOUS
 10
1.260600
 20
0.993960
  0
VERTEX
  8
0
  6
CONTINUOUS
 10
1.224960
 20
0.984280
  0
VERTEX
  8
0
  6
CONTINUOUS
 10
1.182280
 20
0.979000
  0
VERTEX
  8
0
  6
CONTINUOUS
 10
1.157640
 20
0.978560
  0
VERTEX
  8
0
  6
CONTINUOUS
 10
1.157640
 20
0.887480
  0
VERTEX
  8
0
  6
CONTINUOUS
 10
1.157640
 20
0.887920
  0
SEQEND
  8
0
  0
POLYLINE
  8
0
  6
CONTINUOUS
 66
     1
 40
0.000000
 41
0.000000
  0
VERTEX
  8
0
  6
CONTINUOUS
 10
1.239040
 20
1.620080
  0
VERTEX
  8
0
  6
CONTINUOUS
 10
2.489080
 20
1.620080
  0
VERTEX
  8
0
  6
CONTINUOUS
 10
2.489080
 20
2.119920
  0
VERTEX
  8
0
  6
CONTINUOUS
 10
2.179760
 20
2.119920
  0
VERTEX
  8
0
  6
CONTINUOUS
 10
2.162160
 20
2.067560
  0
VERTEX
  8
0
  6
CONTINUOUS
 10
2.151160
 20
2.044680
  0
VERTEX
  8
0
  6
CONTINUOUS
 10
2.136200
 20
2.022680
  0
VERTEX
  8
0
  6
CONTINUOUS
 10
2.121240
 20
2.009040
  0
VERTEX
  8
0
  6
CONTINUOUS
 10
2.105840
 20
2.002880
  0
VERTEX
  8
0
  6
CONTINUOUS
 10
2.091320
 20
2.002440
  0
VERTEX
  8
0
  6
CONTINUOUS
 10
2.077240
 20
2.005960
  0
VERTEX
  8
0
  6
CONTINUOUS
 10
2.057440
 20
2.016080
  0
VERTEX
  8
0
  6
CONTINUOUS
 10
1.998920
 20
2.057440
  0
VERTEX
  8
0
  6
CONTINUOUS
 10
1.957120
 20
2.080320
  0
VERTEX
  8
0
  6
CONTINUOUS
 10
1.924120
 20
2.092640
  0
VERTEX
  8
0
  6
CONTINUOUS
 10
1.887160
 20
2.101440
  0
VERTEX
  8
0
  6
CONTINUOUS
 10
1.845360
 20
2.104520
  0
VERTEX
  8
0
  6
CONTINUOUS
 10
1.822920
 20
2.101880
  0
VERTEX
  8
0
  6
CONTINUOUS
 10
1.799160
 20
2.094400
  0
VERTEX
  8
0
  6
CONTINUOUS
 10
1.763080
 20
2.075920
  0
VERTEX
  8
0
  6
CONTINUOUS
 10
1.726120
 20
2.050400
  0
VERTEX
  8
0
  6
CONTINUOUS
 10
1.678600
 20
2.009480
  0
VERTEX
  8
0
  6
CONTINUOUS
 10
1.616120
 20
1.944800
  0
VERTEX
  8
0
  6
CONTINUOUS
 10
1.555400
 20
1.871760
  0
VERTEX
  8
0
  6
CONTINUOUS
 10
1.554960
 20
1.870880
  0
VERTEX
  8
0
  6
CONTINUOUS
 10
1.423840
 20
1.870440
  0
VERTEX
  8
0
  6
CONTINUOUS
 10
1.422960
 20
1.851080
  0
VERTEX
  8
0
  6
CONTINUOUS
 10
1.417680
 20
1.816320
  0
VERTEX
  8
0
  6
CONTINUOUS
 10
1.413280
 20
1.800480
  0
VERTEX
  8
0
  6
CONTINUOUS
 10
1.400520
 20
1.773200
  0
VERTEX
  8
0
  6
CONTINUOUS
 10
1.391720
 20
1.761320
  0
VERTEX
  8
0
  6
CONTINUOUS
 10
1.370160
 20
1.741080
  0
VERTEX
  8
0
  6
CONTINUOUS
 10
1.342000
 20
1.726120
  0
VERTEX
  8
0
  6
CONTINUOUS
 10
1.306360
 20
1.716440
  0
VERTEX
  8
0
  6
CONTINUOUS
 10
1.263680
 20
1.711160
  0
VERTEX
  8
0
  6
CONTINUOUS
 10
1.239040
 20
1.710720
  0
VERTEX
  8
0
  6
CONTINUOUS
 10
1.239040
 20
1.619640
  0
VERTEX
  8
0
  6
CONTINUOUS
 10
1.239040
 20
1.620080
  0
SEQEND
  8
0
  0
POLYLINE
  8
0
  6
CONTINUOUS
 66
     1
 40
0.000000
 41
0.000000
  0
VERTEX
  8
0
  6
CONTINUOUS
 10
4.061640
 20
0.915200
  0
VERTEX
  8
0
  6
CONTINUOUS
 10
2.811600
 20
0.915200
  0
VERTEX
  8
0
  6
CONTINUOUS
 10
2.811600
 20
1.415040
  0
VERTEX
  8
0
  6
CONTINUOUS
 10
3.120920
 20
1.415040
  0
VERTEX
  8
0
  6
CONTINUOUS
 10
3.138520
 20
1.362680
  0
VERTEX
  8
0
  6
CONTINUOUS
 10
3.149520
 20
1.339800
  0
VERTEX
  8
0
  6
CONTINUOUS
 10
3.164480
 20
1.317800
  0
VERTEX
  8
0
  6
CONTINUOUS
 10
3.179440
 20
1.304160
  0
VERTEX
  8
0
  6
CONTINUOUS
 10
3.194840
 20
1.298000
  0
VERTEX
  8
0
  6
CONTINUOUS
 10
3.209360
 20
1.297560
  0
VERTEX
  8
0
  6
CONTINUOUS
 10
3.223440
 20
1.301080
  0
VERTEX
  8
0
  6
CONTINUOUS
 10
3.243240
 20
1.311200
  0
VERTEX
  8
0
  6
CONTINUOUS
 10
3.301760
 20
1.352560
  0
VERTEX
  8
0
  6
CONTINUOUS
 10
3.343560
 20
1.375440
  0
VERTEX
  8
0
  6
CONTINUOUS
 10
3.376560
 20
1.387760
  0
VERTEX
  8
0
  6
CONTINUOUS
 10
3.413520
 20
1.396560
  0
VERTEX
  8
0
  6
CONTINUOUS
 10
3.433760
 20
1.398760
  0
VERTEX
  8
0
  6
CONTINUOUS
 10
3.455320
 20
1.399640
  0
VERTEX
  8
0
  6
CONTINUOUS
 10
3.477760
 20
1.397000
  0
VERTEX
  8
0
  6
CONTINUOUS
 10
3.501520
 20
1.389520
  0
VERTEX
  8
0
  6
CONTINUOUS
 10
3.538040
 20
1.371040
  0
VERTEX
  8
0
  6
CONTINUOUS
 10
3.574560
 20
1.345520
  0
VERTEX
  8
0
  6
CONTINUOUS
 10
3.622080
 20
1.304600
  0
VERTEX
  8
0
  6
CONTINUOUS
 10
3.685000
 20
1.239920
  0
VERTEX
  8
0
  6
CONTINUOUS
 10
3.745720
 20
1.166880
  0
VERTEX
  8
0
  6
CONTINUOUS
 10
3.746160
 20
1.166000
  0
VERTEX
  8
0
  6
CONTINUOUS
 10
3.876840
 20
1.165560
  0
VERTEX
  8
0
  6
CONTINUOUS
 10
3.879920
 20
1.128160
  0
VERTEX
  8
0
  6
CONTINUOUS
 10
3.887400
 20
1.095600
  0
VERTEX
  8
0
  6
CONTINUOUS
 10
3.900160
 20
1.068320
  0
VERTEX
  8
0
  6
CONTINUOUS
 10
3.919080
 20
1.045880
  0
VERTEX
  8
0
  6
CONTINUOUS
 10
3.930520
 20
1.036200
  0
VERTEX
  8
0
  6
CONTINUOUS
 10
3.958680
 20
1.021240
  0
VERTEX
  8
0
  6
CONTINUOUS
 10
3.994320
 20
1.011560
  0
VERTEX
  8
0
  6
CONTINUOUS
 10
4.037000
 20
1.006280
  0
VERTEX
  8
0
  6
CONTINUOUS
 10
4.061640
 20
1.005840
  0
VERTEX
  8
0
  6
CONTINUOUS
 10
4.061640
 20
0.914760
  0
VERTEX
  8
0
  6
CONTINUOUS
 10
4.061640
 20
0.915200
  0
SEQEND
  8
0
  0
POLYLINE
  8
0
  6
CONTINUOUS
 66
     1
 40
0.000000
 41
0.000000
  0
VERTEX
  8
0
  6
CONTINUOUS
 10
4.061640
 20
1.620080
  0
VERTEX
  8
0
  6
CONTINUOUS
 10
2.811600
 20
1.620080
  0
VERTEX
  8
0
  6
CONTINUOUS
 10
2.811600
 20
2.119920
  0
VERTEX
  8
0
  6
CONTINUOUS
 10
3.120920
 20
2.119920
  0
VERTEX
  8
0
  6
CONTINUOUS
 10
3.138520
 20
2.067560
  0
VERTEX
  8
0
  6
CONTINUOUS
 10
3.149520
 20
2.044680
  0
VERTEX
  8
0
  6
CONTINUOUS
 10
3.164480
 20
2.022680
  0
VERTEX
  8
0
  6
CONTINUOUS
 10
3.179440
 20
2.009040
  0
VERTEX
  8
0
  6
CONTINUOUS
 10
3.194840
 20
2.002880
  0
VERTEX
  8
0
  6
CONTINUOUS
 10
3.209360
 20
2.002440
  0
VERTEX
  8
0
  6
CONTINUOUS
 10
3.223440
 20
2.005960
  0
VERTEX
  8
0
  6
CONTINUOUS
 10
3.243240
 20
2.016080
  0
VERTEX
  8
0
  6
CONTINUOUS
 10
3.301760
 20
2.057440
  0
VERTEX
  8
0
  6
CONTINUOUS
 10
3.343560
 20
2.080320
  0
VERTEX
  8
0
  6
CONTINUOUS
 10
3.376560
 20
2.092640
  0
VERTEX
  8
0
  6
CONTINUOUS
 10
3.413520
 20
2.101440
  0
VERTEX
  8
0
  6
CONTINUOUS
 10
3.433760
 20
2.103640
  0
VERTEX
  8
0
  6
CONTINUOUS
 10
3.455320
 20
2.104520
  0
VERTEX
  8
0
  6
CONTINUOUS
 10
3.477760
 20
2.101880
  0
VERTEX
  8
0
  6
CONTINUOUS
 10
3.501520
 20
2.094400
  0
VERTEX
  8
0
  6
CONTINUOUS
 10
3.538040
 20
2.075920
  0
VERTEX
  8
0
  6
CONTINUOUS
 10
3.574560
 20
2.050400
  0
VERTEX
  8
0
  6
CONTINUOUS
 10
3.622080
 20
2.009480
  0
VERTEX
  8
0
  6
CONTINUOUS
 10
3.685000
 20
1.944800
  0
VERTEX
  8
0
  6
CONTINUOUS
 10
3.745720
 20
1.871760
  0
VERTEX
  8
0
  6
CONTINUOUS
 10
3.746160
 20
1.870880
  0
VERTEX
  8
0
  6
CONTINUOUS
 10
3.876840
 20
1.870440
  0
VERTEX
  8
0
  6
CONTINUOUS
 10
3.879920
 20
1.833040
  0
VERTEX
  8
0
  6
CONTINUOUS
 10
3.887400
 20
1.800480
  0
VERTEX
  8
0
  6
CONTINUOUS
 10
3.900160
 20
1.773200
  0
VERTEX
  8
0
  6
CONTINUOUS
 10
3.919080
 20
1.750760
  0
VERTEX
  8
0
  6
CONTINUOUS
 10
3.930520
 20
1.741080
  0
VERTEX
  8
0
  6
CONTINUOUS
 10
3.958680
 20
1.726120
  0
VERTEX
  8
0
  6
CONTINUOUS
 10
3.994320
 20
1.716440
  0
VERTEX
  8
0
  6
CONTINUOUS
 10
4.037000
 20
1.711160
  0
VERTEX
  8
0
  6
CONTINUOUS
 10
4.061640
 20
1.710720
  0
VERTEX
  8
0
  6
CONTINUOUS
 10
4.061640
 20
1.619640
  0
VERTEX
  8
0
  6
CONTINUOUS
 10
4.061640
 20
1.620080
  0
SEQEND
  8
0
  0
SOLID
  8
0
 62
    15
 10
5.704160
 20
1.444960
 11
5.704600
 21
2.188120
 12
5.728360
 22
1.433080
 13
5.728800
 23
2.176680
  0
POLYLINE
  8
0
  6
CONTINUOUS
 66
     1
 40
0.000000
 41
0.000000
  0
VERTEX
  8
0
  6
CONTINUOUS
 10
5.704160
 20
1.444960
  0
VERTEX
  8
0
  6
CONTINUOUS
 10
5.704600
 20
2.188120
  0
VERTEX
  8
0
  6
CONTINUOUS
 10
5.728800
 20
2.176680
  0
VERTEX
  8
0
  6
CONTINUOUS
 10
5.728360
 20
1.433080
  0
VERTEX
  8
0
  6
CONTINUOUS
 10
5.704160
 20
1.444960
  0
SEQEND
  8
0
  0
SOLID
  8
0
 62
    15
 10
5.323560
 20
1.470040
 11
5.324000
 21
2.213200
 12
5.330600
 22
1.446720
 13
5.331040
 23
2.190320
  0
POLYLINE
  8
0
  6
CONTINUOUS
 66
     1
 40
0.000000
 41
0.000000
  0
VERTEX
  8
0
  6
CONTINUOUS
 10
5.323560
 20
1.470040
  0
VERTEX
  8
0
  6
CONTINUOUS
 10
5.324000
 20
2.213200
  0
VERTEX
  8
0
  6
CONTINUOUS
 10
5.331040
 20
2.190320
  0
VERTEX
  8
0
  6
CONTINUOUS
 10
5.330600
 20
1.446720
  0
VERTEX
  8
0
  6
CONTINUOUS
 10
5.323560
 20
1.470040
  0
SEQEND
  8
0
  0
SOLID
  8
0
 62
    15
 10
5.330600
 20
1.446720
 11
5.331040
 21
2.190320
 12
5.337640
 22
1.426480
 13
5.338080
 23
2.170080
  0
POLYLINE
  8
0
  6
CONTINUOUS
 66
     1
 40
0.000000
 41
0.000000
  0
VERTEX
  8
0
  6
CONTINUOUS
 10
5.330600
 20
1.446720
  0
VERTEX
  8
0
  6
CONTINUOUS
 10
5.331040
 20
2.190320
  0
VERTEX
  8
0
  6
CONTINUOUS
 10
5.338080
 20
2.170080
  0
VERTEX
  8
0
  6
CONTINUOUS
 10
5.337640
 20
1.426480
  0
VERTEX
  8
0
  6
CONTINUOUS
 10
5.330600
 20
1.446720
  0
SEQEND
  8
0
  0
SOLID
  8
0
 62
    15
 10
5.337640
 20
1.426480
 11
5.338080
 21
2.170080
 12
5.345120
 22
1.409320
 13
5.345120
 23
2.152920
  0
POLYLINE
  8
0
  6
CONTINUOUS
 66
     1
 40
0.000000
 41
0.000000
  0
VERTEX
  8
0
  6
CONTINUOUS
 10
5.337640
 20
1.426480
  0
VERTEX
  8
0
  6
CONTINUOUS
 10
5.338080
 20
2.170080
  0
VERTEX
  8
0
  6
CONTINUOUS
 10
5.345120
 20
2.152920
  0
VERTEX
  8
0
  6
CONTINUOUS
 10
5.345120
 20
1.409320
  0
VERTEX
  8
0
  6
CONTINUOUS
 10
5.337640
 20
1.426480
  0
SEQEND
  8
0
  0
SOLID
  8
0
 62
    15
 10
5.345120
 20
1.409320
 11
5.345120
 21
2.152920
 12
5.352160
 22
1.394800
 13
5.352600
 23
2.137960
  0
POLYLINE
  8
0
  6
CONTINUOUS
 66
     1
 40
0.000000
 41
0.000000
  0
VERTEX
  8
0
  6
CONTINUOUS
 10
5.345120
 20
1.409320
  0
VERTEX
  8
0
  6
CONTINUOUS
 10
5.345120
 20
2.152920
  0
VERTEX
  8
0
  6
CONTINUOUS
 10
5.352600
 20
2.137960
  0
VERTEX
  8
0
  6
CONTINUOUS
 10
5.352160
 20
1.394800
  0
VERTEX
  8
0
  6
CONTINUOUS
 10
5.345120
 20
1.409320
  0
SEQEND
  8
0
  0
SOLID
  8
0
 62
    15
 10
5.352160
 20
1.394800
 11
5.352600
 21
2.137960
 12
5.367560
 22
1.372800
 13
5.367560
 23
2.116400
  0
POLYLINE
  8
0
  6
CONTINUOUS
 66
     1
 40
0.000000
 41
0.000000
  0
VERTEX
  8
0
  6
CONTINUOUS
 10
5.352160
 20
1.394800
  0
VERTEX
  8
0
  6
CONTINUOUS
 10
5.352600
 20
2.137960
  0
VERTEX
  8
0
  6
CONTINUOUS
 10
5.367560
 20
2.116400
  0
VERTEX
  8
0
  6
CONTINUOUS
 10
5.367560
 20
1.372800
  0
VERTEX
  8
0
  6
CONTINUOUS
 10
5.352160
 20
1.394800
  0
SEQEND
  8
0
  0
SOLID
  8
0
 62
    15
 10
5.367560
 20
1.372800
 11
5.367560
 21
2.116400
 12
5.382520
 22
1.359160
 13
5.382520
 23
2.102760
  0
POLYLINE
  8
0
  6
CONTINUOUS
 66
     1
 40
0.000000
 41
0.000000
  0
VERTEX
  8
0
  6
CONTINUOUS
 10
5.367560
 20
1.372800
  0
VERTEX
  8
0
  6
CONTINUOUS
 10
5.367560
 20
2.116400
  0
VERTEX
  8
0
  6
CONTINUOUS
 10
5.382520
 20
2.102760
  0
VERTEX
  8
0
  6
CONTINUOUS
 10
5.382520
 20
1.359160
  0
VERTEX
  8
0
  6
CONTINUOUS
 10
5.367560
 20
1.372800
  0
SEQEND
  8
0
  0
SOLID
  8
0
 62
    15
 10
5.382520
 20
1.359160
 11
5.382520
 21
2.102760
 12
5.397480
 22
1.353000
 13
5.397920
 23
2.096600
  0
POLYLINE
  8
0
  6
CONTINUOUS
 66
     1
 40
0.000000
 41
0.000000
  0
VERTEX
  8
0
  6
CONTINUOUS
 10
5.382520
 20
1.359160
  0
VERTEX
  8
0
  6
CONTINUOUS
 10
5.382520
 20
2.102760
  0
VERTEX
  8
0
  6
CONTINUOUS
 10
5.397920
 20
2.096600
  0
VERTEX
  8
0
  6
CONTINUOUS
 10
5.397480
 20
1.353000
  0
VERTEX
  8
0
  6
CONTINUOUS
 10
5.382520
 20
1.359160
  0
SEQEND
  8
0
  0
SOLID
  8
0
 62
    15
 10
5.397480
 20
1.353000
 11
5.397920
 21
2.096600
 12
5.412440
 22
1.352560
 13
5.412440
 23
2.095720
  0
POLYLINE
  8
0
  6
CONTINUOUS
 66
     1
 40
0.000000
 41
0.000000
  0
VERTEX
  8
0
  6
CONTINUOUS
 10
5.397480
 20
1.353000
  0
VERTEX
  8
0
  6
CONTINUOUS
 10
5.397920
 20
2.096600
  0
VERTEX
  8
0
  6
CONTINUOUS
 10
5.412440
 20
2.095720
  0
VERTEX
  8
0
  6
CONTINUOUS
 10
5.412440
 20
1.352560
  0
VERTEX
  8
0
  6
CONTINUOUS
 10
5.397480
 20
1.353000
  0
SEQEND
  8
0
  0
SOLID
  8
0
 62
    15
 10
5.412440
 20
1.352560
 11
5.412440
 21
2.095720
 12
5.426520
 22
1.356080
 13
5.426520
 23
2.099240
  0
POLYLINE
  8
0
  6
CONTINUOUS
 66
     1
 40
0.000000
 41
0.000000
  0
VERTEX
  8
0
  6
CONTINUOUS
 10
5.412440
 20
1.352560
  0
VERTEX
  8
0
  6
CONTINUOUS
 10
5.412440
 20
2.095720
  0
VERTEX
  8
0
  6
CONTINUOUS
 10
5.426520
 20
2.099240
  0
VERTEX
  8
0
  6
CONTINUOUS
 10
5.426520
 20
1.356080
  0
VERTEX
  8
0
  6
CONTINUOUS
 10
5.412440
 20
1.352560
  0
SEQEND
  8
0
  0
SOLID
  8
0
 62
    15
 10
5.426520
 20
1.356080
 11
5.426520
 21
2.099240
 12
5.439720
 22
1.362240
 13
5.439720
 23
2.105400
  0
POLYLINE
  8
0
  6
CONTINUOUS
 66
     1
 40
0.000000
 41
0.000000
  0
VERTEX
  8
0
  6
CONTINUOUS
 10
5.426520
 20
1.356080
  0
VERTEX
  8
0
  6
CONTINUOUS
 10
5.426520
 20
2.099240
  0
VERTEX
  8
0
  6
CONTINUOUS
 10
5.439720
 20
2.105400
  0
VERTEX
  8
0
  6
CONTINUOUS
 10
5.439720
 20
1.362240
  0
VERTEX
  8
0
  6
CONTINUOUS
 10
5.426520
 20
1.356080
  0
SEQEND
  8
0
  0
SOLID
  8
0
 62
    15
 10
5.439720
 20
1.362240
 11
5.439720
 21
2.105400
 12
5.453800
 22
1.371480
 13
5.453800
 23
2.115080
  0
POLYLINE
  8
0
  6
CONTINUOUS
 66
     1
 40
0.000000
 41
0.000000
  0
VERTEX
  8
0
  6
CONTINUOUS
 10
5.439720
 20
1.362240
  0
VERTEX
  8
0
  6
CONTINUOUS
 10
5.439720
 20
2.105400
  0
VERTEX
  8
0
  6
CONTINUOUS
 10
5.453800
 20
2.115080
  0
VERTEX
  8
0
  6
CONTINUOUS
 10
5.453800
 20
1.371480
  0
VERTEX
  8
0
  6
CONTINUOUS
 10
5.439720
 20
1.362240
  0
SEQEND
  8
0
  0
SOLID
  8
0
 62
    15
 10
5.453800
 20
1.371480
 11
5.453800
 21
2.115080
 12
5.464360
 22
1.379400
 13
5.464800
 23
2.123000
  0
POLYLINE
  8
0
  6
CONTINUOUS
 66
     1
 40
0.000000
 41
0.000000
  0
VERTEX
  8
0
  6
CONTINUOUS
 10
5.453800
 20
1.371480
  0
VERTEX
  8
0
  6
CONTINUOUS
 10
5.453800
 20
2.115080
  0
VERTEX
  8
0
  6
CONTINUOUS
 10
5.464800
 20
2.123000
  0
VERTEX
  8
0
  6
CONTINUOUS
 10
5.464360
 20
1.379400
  0
VERTEX
  8
0
  6
CONTINUOUS
 10
5.453800
 20
1.371480
  0
SEQEND
  8
0
  0
SOLID
  8
0
 62
    15
 10
5.464360
 20
1.379400
 11
5.464800
 21
2.123000
 12
5.471400
 22
1.384680
 13
5.471400
 23
2.128280
  0
POLYLINE
  8
0
  6
CONTINUOUS
 66
     1
 40
0.000000
 41
0.000000
  0
VERTEX
  8
0
  6
CONTINUOUS
 10
5.464360
 20
1.379400
  0
VERTEX
  8
0
  6
CONTINUOUS
 10
5.464800
 20
2.123000
  0
VERTEX
  8
0
  6
CONTINUOUS
 10
5.471400
 20
2.128280
  0
VERTEX
  8
0
  6
CONTINUOUS
 10
5.471400
 20
1.384680
  0
VERTEX
  8
0
  6
CONTINUOUS
 10
5.464360
 20
1.379400
  0
SEQEND
  8
0
  0
SOLID
  8
0
 62
    15
 10
5.471400
 20
1.384680
 11
5.471400
 21
2.128280
 12
5.492520
 22
1.400080
 13
5.492960
 23
2.143240
  0
POLYLINE
  8
0
  6
CONTINUOUS
 66
     1
 40
0.000000
 41
0.000000
  0
VERTEX
  8
0
  6
CONTINUOUS
 10
5.471400
 20
1.384680
  0
VERTEX
  8
0
  6
CONTINUOUS
 10
5.471400
 20
2.128280
  0
VERTEX
  8
0
  6
CONTINUOUS
 10
5.492960
 20
2.143240
  0
VERTEX
  8
0
  6
CONTINUOUS
 10
5.492520
 20
1.400080
  0
VERTEX
  8
0
  6
CONTINUOUS
 10
5.471400
 20
1.384680
  0
SEQEND
  8
0
  0
SOLID
  8
0
 62
    15
 10
5.492520
 20
1.400080
 11
5.492960
 21
2.143240
 12
5.517600
 22
1.415480
 13
5.517600
 23
2.159080
  0
POLYLINE
  8
0
  6
CONTINUOUS
 66
     1
 40
0.000000
 41
0.000000
  0
VERTEX
  8
0
  6
CONTINUOUS
 10
5.492520
 20
1.400080
  0
VERTEX
  8
0
  6
CONTINUOUS
 10
5.492960
 20
2.143240
  0
VERTEX
  8
0
  6
CONTINUOUS
 10
5.517600
 20
2.159080
  0
VERTEX
  8
0
  6
CONTINUOUS
 10
5.517600
 20
1.415480
  0
VERTEX
  8
0
  6
CONTINUOUS
 10
5.492520
 20
1.400080
  0
SEQEND
  8
0
  0
SOLID
  8
0
 62
    15
 10
5.517600
 20
1.415480
 11
5.517600
 21
2.159080
 12
5.546200
 22
1.430440
 13
5.546640
 23
2.174040
  0
POLYLINE
  8
0
  6
CONTINUOUS
 66
     1
 40
0.000000
 41
0.000000
  0
VERTEX
  8
0
  6
CONTINUOUS
 10
5.517600
 20
1.415480
  0
VERTEX
  8
0
  6
CONTINUOUS
 10
5.517600
 20
2.159080
  0
VERTEX
  8
0
  6
CONTINUOUS
 10
5.546640
 20
2.174040
  0
VERTEX
  8
0
  6
CONTINUOUS
 10
5.546200
 20
1.430440
  0
VERTEX
  8
0
  6
CONTINUOUS
 10
5.517600
 20
1.415480
  0
SEQEND
  8
0
  0
SOLID
  8
0
 62
    15
 10
5.546200
 20
1.430440
 11
5.546640
 21
2.174040
 12
5.579200
 22
1.443200
 13
5.579200
 23
2.186360
  0
POLYLINE
  8
0
  6
CONTINUOUS
 66
     1
 40
0.000000
 41
0.000000
  0
VERTEX
  8
0
  6
CONTINUOUS
 10
5.546200
 20
1.430440
  0
VERTEX
  8
0
  6
CONTINUOUS
 10
5.546640
 20
2.174040
  0
VERTEX
  8
0
  6
CONTINUOUS
 10
5.579200
 20
2.186360
  0
VERTEX
  8
0
  6
CONTINUOUS
 10
5.579200
 20
1.443200
  0
VERTEX
  8
0
  6
CONTINUOUS
 10
5.546200
 20
1.430440
  0
SEQEND
  8
0
  0
SOLID
  8
0
 62
    15
 10
5.579200
 20
1.443200
 11
5.579200
 21
2.186360
 12
5.616600
 22
1.451560
 13
5.616600
 23
2.195160
  0
POLYLINE
  8
0
  6
CONTINUOUS
 66
     1
 40
0.000000
 41
0.000000
  0
VERTEX
  8
0
  6
CONTINUOUS
 10
5.579200
 20
1.443200
  0
VERTEX
  8
0
  6
CONTINUOUS
 10
5.579200
 20
2.186360
  0
VERTEX
  8
0
  6
CONTINUOUS
 10
5.616600
 20
2.195160
  0
VERTEX
  8
0
  6
CONTINUOUS
 10
5.616600
 20
1.451560
  0
VERTEX
  8
0
  6
CONTINUOUS
 10
5.579200
 20
1.443200
  0
SEQEND
  8
0
  0
SOLID
  8
0
 62
    15
 10
5.616600
 20
1.451560
 11
5.616600
 21
2.195160
 12
5.657960
 22
1.454640
 13
5.658400
 23
2.198240
  0
POLYLINE
  8
0
  6
CONTINUOUS
 66
     1
 40
0.000000
 41
0.000000
  0
VERTEX
  8
0
  6
CONTINUOUS
 10
5.616600
 20
1.451560
  0
VERTEX
  8
0
  6
CONTINUOUS
 10
5.616600
 20
2.195160
  0
VERTEX
  8
0
  6
CONTINUOUS
 10
5.658400
 20
2.198240
  0
VERTEX
  8
0
  6
CONTINUOUS
 10
5.657960
 20
1.454640
  0
VERTEX
  8
0
  6
CONTINUOUS
 10
5.616600
 20
1.451560
  0
SEQEND
  8
0
  0
SOLID
  8
0
 62
    15
 10
5.657960
 20
1.454640
 11
5.658400
 21
2.198240
 12
5.680840
 22
1.452000
 13
5.680840
 23
2.195600
  0
POLYLINE
  8
0
  6
CONTINUOUS
 66
     1
 40
0.000000
 41
0.000000
  0
VERTEX
  8
0
  6
CONTINUOUS
 10
5.657960
 20
1.454640
  0
VERTEX
  8
0
  6
CONTINUOUS
 10
5.658400
 20
2.198240
  0
VERTEX
  8
0
  6
CONTINUOUS
 10
5.680840
 20
2.195600
  0
VERTEX
  8
0
  6
CONTINUOUS
 10
5.680840
 20
1.452000
  0
VERTEX
  8
0
  6
CONTINUOUS
 10
5.657960
 20
1.454640
  0
SEQEND
  8
0
  0
SOLID
  8
0
 62
    15
 10
5.680840
 20
1.452000
 11
5.680840
 21
2.195600
 12
5.704160
 22
1.444960
 13
5.704600
 23
2.188120
  0
POLYLINE
  8
0
  6
CONTINUOUS
 66
     1
 40
0.000000
 41
0.000000
  0
VERTEX
  8
0
  6
CONTINUOUS
 10
5.680840
 20
1.452000
  0
VERTEX
  8
0
  6
CONTINUOUS
 10
5.680840
 20
2.195600
  0
VERTEX
  8
0
  6
CONTINUOUS
 10
5.704600
 20
2.188120
  0
VERTEX
  8
0
  6
CONTINUOUS
 10
5.704160
 20
1.444960
  0
VERTEX
  8
0
  6
CONTINUOUS
 10
5.680840
 20
1.452000
  0
SEQEND
  8
0
  0
SOLID
  8
0
 62
    15
 10
5.014680
 20
1.470040
 11
5.014680
 21
2.213200
 12
5.323560
 22
1.470040
 13
5.324000
 23
2.213200
  0
POLYLINE
  8
0
  6
CONTINUOUS
 66
     1
 40
0.000000
 41
0.000000
  0
VERTEX
  8
0
  6
CONTINUOUS
 10
5.014680
 20
1.470040
  0
VERTEX
  8
0
  6
CONTINUOUS
 10
5.014680
 20
2.213200
  0
VERTEX
  8
0
  6
CONTINUOUS
 10
5.324000
 20
2.213200
  0
VERTEX
  8
0
  6
CONTINUOUS
 10
5.323560
 20
1.470040
  0
VERTEX
  8
0
  6
CONTINUOUS
 10
5.014680
 20
1.470040
  0
SEQEND
  8
0
  0
SOLID
  8
0
 62
    15
 10
5.728360
 20
1.433080
 11
5.728800
 21
2.176680
 12
5.753000
 22
1.418120
 13
5.753000
 23
2.161720
  0
POLYLINE
  8
0
  6
CONTINUOUS
 66
     1
 40
0.000000
 41
0.000000
  0
VERTEX
  8
0
  6
CONTINUOUS
 10
5.728360
 20
1.433080
  0
VERTEX
  8
0
  6
CONTINUOUS
 10
5.728800
 20
2.176680
  0
VERTEX
  8
0
  6
CONTINUOUS
 10
5.753000
 20
2.161720
  0
VERTEX
  8
0
  6
CONTINUOUS
 10
5.753000
 20
1.418120
  0
VERTEX
  8
0
  6
CONTINUOUS
 10
5.728360
 20
1.433080
  0
SEQEND
  8
0
  0
SOLID
  8
0
 62
    15
 10
5.753000
 20
1.418120
 11
5.753000
 21
2.161720
 12
5.801400
 22
1.380720
 13
5.801840
 23
2.124320
  0
POLYLINE
  8
0
  6
CONTINUOUS
 66
     1
 40
0.000000
 41
0.000000
  0
VERTEX
  8
0
  6
CONTINUOUS
 10
5.753000
 20
1.418120
  0
VERTEX
  8
0
  6
CONTINUOUS
 10
5.753000
 20
2.161720
  0
VERTEX
  8
0
  6
CONTINUOUS
 10
5.801840
 20
2.124320
  0
VERTEX
  8
0
  6
CONTINUOUS
 10
5.801400
 20
1.380720
  0
VERTEX
  8
0
  6
CONTINUOUS
 10
5.753000
 20
1.418120
  0
SEQEND
  8
0
  0
SOLID
  8
0
 62
    15
 10
5.801400
 20
1.380720
 11
5.801840
 21
2.124320
 12
5.847600
 22
1.338040
 13
5.847600
 23
2.081200
  0
POLYLINE
  8
0
  6
CONTINUOUS
 66
     1
 40
0.000000
 41
0.000000
  0
VERTEX
  8
0
  6
CONTINUOUS
 10
5.801400
 20
1.380720
  0
VERTEX
  8
0
  6
CONTINUOUS
 10
5.801840
 20
2.124320
  0
VERTEX
  8
0
  6
CONTINUOUS
 10
5.847600
 20
2.081200
  0
VERTEX
  8
0
  6
CONTINUOUS
 10
5.847600
 20
1.338040
  0
VERTEX
  8
0
  6
CONTINUOUS
 10
5.801400
 20
1.380720
  0
SEQEND
  8
0
  0
SOLID
  8
0
 62
    15
 10
5.847600
 20
1.338040
 11
5.847600
 21
2.081200
 12
5.887640
 22
1.294920
 13
5.888080
 23
2.038520
  0
POLYLINE
  8
0
  6
CONTINUOUS
 66
     1
 40
0.000000
 41
0.000000
  0
VERTEX
  8
0
  6
CONTINUOUS
 10
5.847600
 20
1.338040
  0
VERTEX
  8
0
  6
CONTINUOUS
 10
5.847600
 20
2.081200
  0
VERTEX
  8
0
  6
CONTINUOUS
 10
5.888080
 20
2.038520
  0
VERTEX
  8
0
  6
CONTINUOUS
 10
5.887640
 20
1.294920
  0
VERTEX
  8
0
  6
CONTINUOUS
 10
5.847600
 20
1.338040
  0
SEQEND
  8
0
  0
SOLID
  8
0
 62
    15
 10
5.887640
 20
1.294920
 11
5.888080
 21
2.038520
 12
5.905240
 22
1.275120
 13
5.905240
 23
2.018720
  0
POLYLINE
  8
0
  6
CONTINUOUS
 66
     1
 40
0.000000
 41
0.000000
  0
VERTEX
  8
0
  6
CONTINUOUS
 10
5.887640
 20
1.294920
  0
VERTEX
  8
0
  6
CONTINUOUS
 10
5.888080
 20
2.038520
  0
VERTEX
  8
0
  6
CONTINUOUS
 10
5.905240
 20
2.018720
  0
VERTEX
  8
0
  6
CONTINUOUS
 10
5.905240
 20
1.275120
  0
VERTEX
  8
0
  6
CONTINUOUS
 10
5.887640
 20
1.294920
  0
SEQEND
  8
0
  0
SOLID
  8
0
 62
    15
 10
5.905240
 20
1.275120
 11
5.905240
 21
2.018720
 12
5.919760
 22
1.257520
 13
5.920200
 23
2.001120
  0
POLYLINE
  8
0
  6
CONTINUOUS
 66
     1
 40
0.000000
 41
0.000000
  0
VERTEX
  8
0
  6
CONTINUOUS
 10
5.905240
 20
1.275120
  0
VERTEX
  8
0
  6
CONTINUOUS
 10
5.905240
 20
2.018720
  0
VERTEX
  8
0
  6
CONTINUOUS
 10
5.920200
 20
2.001120
  0
VERTEX
  8
0
  6
CONTINUOUS
 10
5.919760
 20
1.257520
  0
VERTEX
  8
0
  6
CONTINUOUS
 10
5.905240
 20
1.275120
  0
SEQEND
  8
0
  0
SOLID
  8
0
 62
    15
 10
5.919760
 20
1.257520
 11
5.920200
 21
2.001120
 12
5.932080
 22
1.242560
 13
5.932080
 23
1.986160
  0
POLYLINE
  8
0
  6
CONTINUOUS
 66
     1
 40
0.000000
 41
0.000000
  0
VERTEX
  8
0
  6
CONTINUOUS
 10
5.919760
 20
1.257520
  0
VERTEX
  8
0
  6
CONTINUOUS
 10
5.920200
 20
2.001120
  0
VERTEX
  8
0
  6
CONTINUOUS
 10
5.932080
 20
1.986160
  0
VERTEX
  8
0
  6
CONTINUOUS
 10
5.932080
 20
1.242560
  0
VERTEX
  8
0
  6
CONTINUOUS
 10
5.919760
 20
1.257520
  0
SEQEND
  8
0
  0
SOLID
  8
0
 62
    15
 10
5.932080
 20
1.242560
 11
5.932080
 21
1.986160
 12
5.941320
 22
1.231120
 13
5.941320
 23
1.974280
  0
POLYLINE
  8
0
  6
CONTINUOUS
 66
     1
 40
0.000000
 41
0.000000
  0
VERTEX
  8
0
  6
CONTINUOUS
 10
5.932080
 20
1.242560
  0
VERTEX
  8
0
  6
CONTINUOUS
 10
5.932080
 20
1.986160
  0
VERTEX
  8
0
  6
CONTINUOUS
 10
5.941320
 20
1.974280
  0
VERTEX
  8
0
  6
CONTINUOUS
 10
5.941320
 20
1.231120
  0
VERTEX
  8
0
  6
CONTINUOUS
 10
5.932080
 20
1.242560
  0
SEQEND
  8
0
  0
SOLID
  8
0
 62
    15
 10
5.941320
 20
1.231120
 11
5.941320
 21
1.974280
 12
5.947040
 22
1.223640
 13
5.947040
 23
1.967240
  0
POLYLINE
  8
0
  6
CONTINUOUS
 66
     1
 40
0.000000
 41
0.000000
  0
VERTEX
  8
0
  6
CONTINUOUS
 10
5.941320
 20
1.231120
  0
VERTEX
  8
0
  6
CONTINUOUS
 10
5.941320
 20
1.974280
  0
VERTEX
  8
0
  6
CONTINUOUS
 10
5.947040
 20
1.967240
  0
VERTEX
  8
0
  6
CONTINUOUS
 10
5.947040
 20
1.223640
  0
VERTEX
  8
0
  6
CONTINUOUS
 10
5.941320
 20
1.231120
  0
SEQEND
  8
0
  0
SOLID
  8
0
 62
    15
 10
5.947040
 20
1.223640
 11
5.947040
 21
1.967240
 12
5.948800
 22
1.221000
 13
5.948800
 23
1.964600
  0
POLYLINE
  8
0
  6
CONTINUOUS
 66
     1
 40
0.000000
 41
0.000000
  0
VERTEX
  8
0
  6
CONTINUOUS
 10
5.947040
 20
1.223640
  0
VERTEX
  8
0
  6
CONTINUOUS
 10
5.947040
 20
1.967240
  0
VERTEX
  8
0
  6
CONTINUOUS
 10
5.948800
 20
1.964600
  0
VERTEX
  8
0
  6
CONTINUOUS
 10
5.948800
 20
1.221000
  0
VERTEX
  8
0
  6
CONTINUOUS
 10
5.947040
 20
1.223640
  0
SEQEND
  8
0
  0
SOLID
  8
0
 62
    15
 10
5.948800
 20
1.221000
 11
5.948800
 21
1.964600
 12
6.079920
 22
1.220560
 13
6.079920
 23
1.964160
  0
POLYLINE
  8
0
  6
CONTINUOUS
 66
     1
 40
0.000000
 41
0.000000
  0
VERTEX
  8
0
  6
CONTINUOUS
 10
5.948800
 20
1.221000
  0
VERTEX
  8
0
  6
CONTINUOUS
 10
5.948800
 20
1.964600
  0
VERTEX
  8
0
  6
CONTINUOUS
 10
6.079920
 20
1.964160
  0
VERTEX
  8
0
  6
CONTINUOUS
 10
6.079920
 20
1.220560
  0
VERTEX
  8
0
  6
CONTINUOUS
 10
5.948800
 20
1.221000
  0
SEQEND
  8
0
  0
SOLID
  8
0
 62
    15
 10
6.079920
 20
1.220560
 11
6.079920
 21
1.964160
 12
6.082560
 22
1.183160
 13
6.083000
 23
1.926760
  0
POLYLINE
  8
0
  6
CONTINUOUS
 66
     1
 40
0.000000
 41
0.000000
  0
VERTEX
  8
0
  6
CONTINUOUS
 10
6.079920
 20
1.220560
  0
VERTEX
  8
0
  6
CONTINUOUS
 10
6.079920
 20
1.964160
  0
VERTEX
  8
0
  6
CONTINUOUS
 10
6.083000
 20
1.926760
  0
VERTEX
  8
0
  6
CONTINUOUS
 10
6.082560
 20
1.183160
  0
VERTEX
  8
0
  6
CONTINUOUS
 10
6.079920
 20
1.220560
  0
SEQEND
  8
0
  0
SOLID
  8
0
 62
    15
 10
6.082560
 20
1.183160
 11
6.083000
 21
1.926760
 12
6.090480
 22
1.150600
 13
6.090480
 23
1.894200
  0
POLYLINE
  8
0
  6
CONTINUOUS
 66
     1
 40
0.000000
 41
0.000000
  0
VERTEX
  8
0
  6
CONTINUOUS
 10
6.082560
 20
1.183160
  0
VERTEX
  8
0
  6
CONTINUOUS
 10
6.083000
 20
1.926760
  0
VERTEX
  8
0
  6
CONTINUOUS
 10
6.090480
 20
1.894200
  0
VERTEX
  8
0
  6
CONTINUOUS
 10
6.090480
 20
1.150600
  0
VERTEX
  8
0
  6
CONTINUOUS
 10
6.082560
 20
1.183160
  0
SEQEND
  8
0
  0
SOLID
  8
0
 62
    15
 10
6.090480
 20
1.150600
 11
6.090480
 21
1.894200
 12
6.103240
 22
1.123320
 13
6.103240
 23
1.866480
  0
POLYLINE
  8
0
  6
CONTINUOUS
 66
     1
 40
0.000000
 41
0.000000
  0
VERTEX
  8
0
  6
CONTINUOUS
 10
6.090480
 20
1.150600
  0
VERTEX
  8
0
  6
CONTINUOUS
 10
6.090480
 20
1.894200
  0
VERTEX
  8
0
  6
CONTINUOUS
 10
6.103240
 20
1.866480
  0
VERTEX
  8
0
  6
CONTINUOUS
 10
6.103240
 20
1.123320
  0
VERTEX
  8
0
  6
CONTINUOUS
 10
6.090480
 20
1.150600
  0
SEQEND
  8
0
  0
SOLID
  8
0
 62
    15
 10
6.103240
 20
1.123320
 11
6.103240
 21
1.866480
 12
6.121720
 22
1.100880
 13
6.122160
 23
1.844040
  0
POLYLINE
  8
0
  6
CONTINUOUS
 66
     1
 40
0.000000
 41
0.000000
  0
VERTEX
  8
0
  6
CONTINUOUS
 10
6.103240
 20
1.123320
  0
VERTEX
  8
0
  6
CONTINUOUS
 10
6.103240
 20
1.866480
  0
VERTEX
  8
0
  6
CONTINUOUS
 10
6.122160
 20
1.844040
  0
VERTEX
  8
0
  6
CONTINUOUS
 10
6.121720
 20
1.100880
  0
VERTEX
  8
0
  6
CONTINUOUS
 10
6.103240
 20
1.123320
  0
SEQEND
  8
0
  0
SOLID
  8
0
 62
    15
 10
6.121720
 20
1.100880
 11
6.122160
 21
1.844040
 12
6.146800
 22
1.083280
 13
6.146800
 23
1.826880
  0
POLYLINE
  8
0
  6
CONTINUOUS
 66
     1
 40
0.000000
 41
0.000000
  0
VERTEX
  8
0
  6
CONTINUOUS
 10
6.121720
 20
1.100880
  0
VERTEX
  8
0
  6
CONTINUOUS
 10
6.122160
 20
1.844040
  0
VERTEX
  8
0
  6
CONTINUOUS
 10
6.146800
 20
1.826880
  0
VERTEX
  8
0
  6
CONTINUOUS
 10
6.146800
 20
1.083280
  0
VERTEX
  8
0
  6
CONTINUOUS
 10
6.121720
 20
1.100880
  0
SEQEND
  8
0
  0
SOLID
  8
0
 62
    15
 10
6.146800
 20
1.083280
 11
6.146800
 21
1.826880
 12
6.178480
 22
1.070960
 13
6.178920
 23
1.814120
  0
POLYLINE
  8
0
  6
CONTINUOUS
 66
     1
 40
0.000000
 41
0.000000
  0
VERTEX
  8
0
  6
CONTINUOUS
 10
6.146800
 20
1.083280
  0
VERTEX
  8
0
  6
CONTINUOUS
 10
6.146800
 20
1.826880
  0
VERTEX
  8
0
  6
CONTINUOUS
 10
6.178920
 20
1.814120
  0
VERTEX
  8
0
  6
CONTINUOUS
 10
6.178480
 20
1.070960
  0
VERTEX
  8
0
  6
CONTINUOUS
 10
6.146800
 20
1.083280
  0
SEQEND
  8
0
  0
SOLID
  8
0
 62
    15
 10
6.178480
 20
1.070960
 11
6.178920
 21
1.814120
 12
6.217640
 22
1.063480
 13
6.217640
 23
1.806640
  0
POLYLINE
  8
0
  6
CONTINUOUS
 66
     1
 40
0.000000
 41
0.000000
  0
VERTEX
  8
0
  6
CONTINUOUS
 10
6.178480
 20
1.070960
  0
VERTEX
  8
0
  6
CONTINUOUS
 10
6.178920
 20
1.814120
  0
VERTEX
  8
0
  6
CONTINUOUS
 10
6.217640
 20
1.806640
  0
VERTEX
  8
0
  6
CONTINUOUS
 10
6.217640
 20
1.063480
  0
VERTEX
  8
0
  6
CONTINUOUS
 10
6.178480
 20
1.070960
  0
SEQEND
  8
0
  0
SOLID
  8
0
 62
     7
 10
6.217640
 20
1.063480
 11
6.217640
 21
1.806640
 12
6.240080
 22
1.061280
 13
6.240080
 23
1.804880
  0
POLYLINE
  8
0
  6
CONTINUOUS
 66
     1
 40
0.000000
 41
0.000000
  0
VERTEX
  8
0
  6
CONTINUOUS
 10
6.217640
 20
1.063480
  0
VERTEX
  8
0
  6
CONTINUOUS
 10
6.217640
 20
1.806640
  0
VERTEX
  8
0
  6
CONTINUOUS
 10
6.240080
 20
1.804880
  0
VERTEX
  8
0
  6
CONTINUOUS
 10
6.240080
 20
1.061280
  0
VERTEX
  8
0
  6
CONTINUOUS
 10
6.217640
 20
1.063480
  0
SEQEND
  8
0
  0
SOLID
  8
0
 62
    15
 10
6.264720
 20
1.060840
 11
6.264720
 21
1.804440
 12
6.264720
 22
0.969760
 13
6.264720
 23
1.713360
  0
POLYLINE
  8
0
  6
CONTINUOUS
 66
     1
 40
0.000000
 41
0.000000
  0
VERTEX
  8
0
  6
CONTINUOUS
 10
6.264720
 20
1.060840
  0
VERTEX
  8
0
  6
CONTINUOUS
 10
6.264720
 20
1.804440
  0
VERTEX
  8
0
  6
CONTINUOUS
 10
6.264720
 20
1.713360
  0
VERTEX
  8
0
  6
CONTINUOUS
 10
6.264720
 20
0.969760
  0
VERTEX
  8
0
  6
CONTINUOUS
 10
6.264720
 20
1.060840
  0
SEQEND
  8
0
  0
SOLID
  8
0
 62
     7
 10
6.240080
 20
1.061280
 11
6.240080
 21
1.804880
 12
6.264720
 22
1.060840
 13
6.264720
 23
1.804440
  0
POLYLINE
  8
0
  6
CONTINUOUS
 66
     1
 40
0.000000
 41
0.000000
  0
VERTEX
  8
0
  6
CONTINUOUS
 10
6.240080
 20
1.061280
  0
VERTEX
  8
0
  6
CONTINUOUS
 10
6.240080
 20
1.804880
  0
VERTEX
  8
0
  6
CONTINUOUS
 10
6.264720
 20
1.804440
  0
VERTEX
  8
0
  6
CONTINUOUS
 10
6.264720
 20
1.060840
  0
VERTEX
  8
0
  6
CONTINUOUS
 10
6.240080
 20
1.061280
  0
SEQEND
  8
0
  0
POLYLINE
  8
0
  6
CONTINUOUS
 66
     1
 40
0.000000
 41
0.000000
  0
VERTEX
  8
0
  6
CONTINUOUS
 10
6.264720
 20
0.970200
  0
VERTEX
  8
0
  6
CONTINUOUS
 10
5.014680
 20
0.970200
  0
VERTEX
  8
0
  6
CONTINUOUS
 10
5.014680
 20
1.470040
  0
VERTEX
  8
0
  6
CONTINUOUS
 10
5.323560
 20
1.470040
  0
VERTEX
  8
0
  6
CONTINUOUS
 10
5.330600
 20
1.446720
  0
VERTEX
  8
0
  6
CONTINUOUS
 10
5.337640
 20
1.426480
  0
VERTEX
  8
0
  6
CONTINUOUS
 10
5.345120
 20
1.409320
  0
VERTEX
  8
0
  6
CONTINUOUS
 10
5.352160
 20
1.394800
  0
VERTEX
  8
0
  6
CONTINUOUS
 10
5.367560
 20
1.372800
  0
VERTEX
  8
0
  6
CONTINUOUS
 10
5.382520
 20
1.359160
  0
VERTEX
  8
0
  6
CONTINUOUS
 10
5.397480
 20
1.353000
  0
VERTEX
  8
0
  6
CONTINUOUS
 10
5.412440
 20
1.352560
  0
VERTEX
  8
0
  6
CONTINUOUS
 10
5.426520
 20
1.356080
  0
VERTEX
  8
0
  6
CONTINUOUS
 10
5.439720
 20
1.362240
  0
VERTEX
  8
0
  6
CONTINUOUS
 10
5.453800
 20
1.371480
  0
VERTEX
  8
0
  6
CONTINUOUS
 10
5.464360
 20
1.379400
  0
VERTEX
  8
0
  6
CONTINUOUS
 10
5.471400
 20
1.384680
  0
VERTEX
  8
0
  6
CONTINUOUS
 10
5.492520
 20
1.400080
  0
VERTEX
  8
0
  6
CONTINUOUS
 10
5.517600
 20
1.415480
  0
VERTEX
  8
0
  6
CONTINUOUS
 10
5.546200
 20
1.430440
  0
VERTEX
  8
0
  6
CONTINUOUS
 10
5.579200
 20
1.443200
  0
VERTEX
  8
0
  6
CONTINUOUS
 10
5.616600
 20
1.451560
  0
VERTEX
  8
0
  6
CONTINUOUS
 10
5.657960
 20
1.454640
  0
VERTEX
  8
0
  6
CONTINUOUS
 10
5.680840
 20
1.452000
  0
VERTEX
  8
0
  6
CONTINUOUS
 10
5.704160
 20
1.444960
  0
VERTEX
  8
0
  6
CONTINUOUS
 10
5.728360
 20
1.433080
  0
VERTEX
  8
0
  6
CONTINUOUS
 10
5.753000
 20
1.418120
  0
VERTEX
  8
0
  6
CONTINUOUS
 10
5.801400
 20
1.380720
  0
VERTEX
  8
0
  6
CONTINUOUS
 10
5.847600
 20
1.338040
  0
VERTEX
  8
0
  6
CONTINUOUS
 10
5.887640
 20
1.294920
  0
VERTEX
  8
0
  6
CONTINUOUS
 10
5.905240
 20
1.275120
  0
VERTEX
  8
0
  6
CONTINUOUS
 10
5.919760
 20
1.257520
  0
VERTEX
  8
0
  6
CONTINUOUS
 10
5.932080
 20
1.242560
  0
VERTEX
  8
0
  6
CONTINUOUS
 10
5.941320
 20
1.231120
  0
VERTEX
  8
0
  6
CONTINUOUS
 10
5.947040
 20
1.223640
  0
VERTEX
  8
0
  6
CONTINUOUS
 10
5.948800
 20
1.221000
  0
VERTEX
  8
0
  6
CONTINUOUS
 10
6.079920
 20
1.220560
  0
VERTEX
  8
0
  6
CONTINUOUS
 10
6.082560
 20
1.183160
  0
VERTEX
  8
0
  6
CONTINUOUS
 10
6.090480
 20
1.150600
  0
VERTEX
  8
0
  6
CONTINUOUS
 10
6.103240
 20
1.123320
  0
VERTEX
  8
0
  6
CONTINUOUS
 10
6.121720
 20
1.100880
  0
VERTEX
  8
0
  6
CONTINUOUS
 10
6.146800
 20
1.083280
  0
VERTEX
  8
0
  6
CONTINUOUS
 10
6.178480
 20
1.070960
  0
VERTEX
  8
0
  6
CONTINUOUS
 10
6.217640
 20
1.063480
  0
VERTEX
  8
0
  6
CONTINUOUS
 10
6.240080
 20
1.061280
  0
VERTEX
  8
0
  6
CONTINUOUS
 10
6.264720
 20
1.060840
  0
VERTEX
  8
0
  6
CONTINUOUS
 10
6.264720
 20
0.969760
  0
VERTEX
  8
0
  6
CONTINUOUS
 10
6.264720
 20
0.970200
  0
SEQEND
  8
0
  0
TEXT
  8
0
 10
5.296720
 20
0.700040
 40
0.138087
  1
BA  1090
 41
1.000000
  7
SN0
 71
     0
 72
     5
 11
5.977983
 21
0.700040
  0
TEXT
  8
0
 10
5.187160
 20
0.508640
 40
0.138087
  1
1/2" x 1-1/4"
 41
1.000000
  7
SN0
 71
     0
 72
     5
 11
6.086877
 21
0.508640
  0
POLYLINE
  8
0
  6
CONTINUOUS
 66
     1
 40
0.014080
 41
0.014080
  0
VERTEX
  8
0
  6
CONTINUOUS
 10
7.966200
 20
1.596760
  0
VERTEX
  8
0
  6
CONTINUOUS
 10
6.716160
 20
1.596760
  0
VERTEX
  8
0
  6
CONTINUOUS
 10
6.716160
 20
2.096160
  0
VERTEX
  8
0
  6
CONTINUOUS
 10
7.025480
 20
2.096160
  0
VERTEX
  8
0
  6
CONTINUOUS
 10
7.043080
 20
2.043800
  0
VERTEX
  8
0
  6
CONTINUOUS
 10
7.054080
 20
2.020920
  0
VERTEX
  8
0
  6
CONTINUOUS
 10
7.069040
 20
1.998920
  0
VERTEX
  8
0
  6
CONTINUOUS
 10
7.084000
 20
1.985720
  0
VERTEX
  8
0
  6
CONTINUOUS
 10
7.099400
 20
1.979560
  0
VERTEX
  8
0
  6
CONTINUOUS
 10
7.113920
 20
1.978680
  0
VERTEX
  8
0
  6
CONTINUOUS
 10
7.128000
 20
1.982640
  0
VERTEX
  8
0
  6
CONTINUOUS
 10
7.147800
 20
1.992760
  0
VERTEX
  8
0
  6
CONTINUOUS
 10
7.206320
 20
2.034120
  0
VERTEX
  8
0
  6
CONTINUOUS
 10
7.248120
 20
2.057000
  0
VERTEX
  8
0
  6
CONTINUOUS
 10
7.281120
 20
2.069320
  0
VERTEX
  8
0
  6
CONTINUOUS
 10
7.318080
 20
2.078120
  0
VERTEX
  8
0
  6
CONTINUOUS
 10
7.338320
 20
2.080320
  0
VERTEX
  8
0
  6
CONTINUOUS
 10
7.359880
 20
2.081200
  0
VERTEX
  8
0
  6
CONTINUOUS
 10
7.382320
 20
2.078560
  0
VERTEX
  8
0
  6
CONTINUOUS
 10
7.406080
 20
2.071080
  0
VERTEX
  8
0
  6
CONTINUOUS
 10
7.442600
 20
2.052600
  0
VERTEX
  8
0
  6
CONTINUOUS
 10
7.479120
 20
2.027080
  0
VERTEX
  8
0
  6
CONTINUOUS
 10
7.526640
 20
1.986160
  0
VERTEX
  8
0
  6
CONTINUOUS
 10
7.589560
 20
1.921480
  0
VERTEX
  8
0
  6
CONTINUOUS
 10
7.650280
 20
1.848440
  0
VERTEX
  8
0
  6
CONTINUOUS
 10
7.650720
 20
1.847560
  0
VERTEX
  8
0
  6
CONTINUOUS
 10
7.781400
 20
1.847120
  0
VERTEX
  8
0
  6
CONTINUOUS
 10
7.784480
 20
1.809720
  0
VERTEX
  8
0
  6
CONTINUOUS
 10
7.791960
 20
1.777160
  0
VERTEX
  8
0
  6
CONTINUOUS
 10
7.804720
 20
1.749880
  0
VERTEX
  8
0
  6
CONTINUOUS
 10
7.823640
 20
1.727440
  0
VERTEX
  8
0
  6
CONTINUOUS
 10
7.835080
 20
1.717760
  0
VERTEX
  8
0
  6
CONTINUOUS
 10
7.863240
 20
1.702800
  0
VERTEX
  8
0
  6
CONTINUOUS
 10
7.898880
 20
1.693120
  0
VERTEX
  8
0
  6
CONTINUOUS
 10
7.941560
 20
1.687840
  0
VERTEX
  8
0
  6
CONTINUOUS
 10
7.966200
 20
1.687400
  0
VERTEX
  8
0
  6
CONTINUOUS
 10
7.966200
 20
1.596320
  0
VERTEX
  8
0
  6
CONTINUOUS
 10
7.966200
 20
1.596760
  0
SEQEND
  8
0
  0
TEXT
  8
0
 10
6.986320
 20
1.355640
 40
0.138087
  1
BA  1090
 41
1.000000
  7
SN0
 71
     0
 72
     5
 11
7.667583
 21
1.355640
  0
TEXT
  8
0
 10
6.876760
 20
1.164240
 40
0.138087
  1
1/2" x 1-1/4"
 41
1.000000
  7
SN0
 71
     0
 72
     5
 11
7.776477
 21
1.164240
  0
ENDSEC
  0
EOF
