  0
SECTION
  2
HEADER
  9
$ACADVER
  1
AC1006
  9
$EXTMIN
 10
5.005000
 20
0.417560
  9
$EXTMAX
 10
7.954760
 20
2.185920
  9
$LTSCALE
 40
0.044000
  9
$PDMODE
 70
    35
  9
$PDSIZE
 40
0.035200
  0
ENDSEC
  0
SECTION
  2
TABLES
  0
TABLE
  2
LTYPE
 70
     9
  0
LTYPE
  2
CONTINUOUS
 70
    64
  3
Solid line
 72
    65
 73
     0
 40
0.000000
  0
LTYPE
  2
DASHED
 70
    64
  3
__ __ __ __ __ __ __ __ __ __ __ __ __ __ __
 72
    65
 73
     2
 40
0.000330
 49
0.000220
 49
-0.000110
  0
LTYPE
  2
HIDDEN
 70
    64
  3
 _ _ _ _ _ _ _ _ _ _ _ _ _ _ _ _ _ _ _ _ _ _
 72
    65
 73
     2
 40
0.000165
 49
0.000110
 49
-0.000055
  0
LTYPE
  2
CENTER
 70
    64
  3
____ _ ____ _ ____ _ ____ _ ____ _ ____ _ ____
 72
    65
 73
     4
 40
0.000880
 49
0.000550
 49
-0.000110
 49
0.000110
 49
-0.000110
  0
LTYPE
  2
PHANTOM
 70
    64
  3
_____ _ _ _____ _ _ _____ _ _ _____ _ _ ____
 72
    65
 73
     6
 40
0.001100
 49
0.000550
 49
-0.000110
 49
0.000110
 49
-0.000110
 49
0.000110
 49
-0.000110
  0
LTYPE
  2
DOT
 70
    64
  3
...............................................
 72
    65
 73
     2
 40
0.000110
 49
0.000000
 49
-0.000110
  0
LTYPE
  2
DASHDOT
 70
    64
  3
__ . __ . __ . __ . __ . __ . __ . __ . __ . __
 72
    65
 73
     4
 40
0.000440
 49
0.000220
 49
-0.000110
 49
0.000000
 49
-0.000110
  0
LTYPE
  2
BORDER
 70
    64
  3
__ __ . __ __ . __ __ . __ __ . __ __ . __ __
 72
    65
 73
     6
 40
0.000770
 49
0.000220
 49
-0.000110
 49
0.000220
 49
-0.000110
 49
0.000000
 49
-0.000110
  0
LTYPE
  2
DIVIDE
 70
    64
  3
__ . . __ . . __ . . __ . . __ . . __ . . __
 72
    65
 73
     6
 40
0.000550
 49
0.000220
 49
-0.000110
 49
0.000000
 49
-0.000110
 49
0.000000
 49
-0.000110
  0
LTYPE
  2
DOTDOT
 70
    64
  3
 . .  . .  . .  . .  . .  . . 
 72
    65
 73
     5
 40
0.000242
 49
-0.000110
 49
0.000000
 49
-0.000110
 49
0.000000
 49
-0.000110
  0
ENDTAB
  0
TABLE
  2
STYLE
 70
     2
  0
STYLE
 70
     0
  2
SN0
 40
0.000000
 41
0.000440
 50
0.000000
 71
     0
 42
0.000000
  3
ROMAND
  0
STYLE
 70
    68
  2
SV0
 40
0.000000
 41
0.000440
 50
0.000000
 71
     0
 42
0.000000
  3
ROMAND
  0
ENDTAB
  0
TABLE
  2
LAYER
 70
     3
  0
LAYER
  2
FOREGROUND
 70
    64
 62
     7
  6
CONTINUOUS
  0
LAYER
  2
BACKGROUND
 70
    65
 62
    -7
  6
CONTINUOUS
  0
LAYER
  2
0
 70
    64
 62
     7
  6
CONTINUOUS
  0
ENDTAB
  0
ENDSEC
  0
SECTION
  2
ENTITIES
  0
POLYLINE
  8
FOREGROUND
  6
CONTINUOUS
 66
     1
 40
0.000000
 41
0.000000
  0
VERTEX
  8
FOREGROUND
  6
CONTINUOUS
 10
0.000000
 20
2.603480
  0
VERTEX
  8
FOREGROUND
  6
CONTINUOUS
 10
8.499920
 20
2.603480
  0
VERTEX
  8
FOREGROUND
  6
CONTINUOUS
 10
8.499920
 20
-8.396520
  0
VERTEX
  8
FOREGROUND
  6
CONTINUOUS
 10
0.000000
 20
-8.396520
  0
VERTEX
  8
FOREGROUND
  6
CONTINUOUS
 10
0.000000
 20
2.603480
  0
SEQEND
  8
0
  0
POLYLINE
  8
FOREGROUND
  6
CONTINUOUS
 66
     1
 40
0.000000
 41
0.000000
  0
VERTEX
  8
FOREGROUND
  6
CONTINUOUS
 10
0.000000
 20
2.603480
  0
VERTEX
  8
FOREGROUND
  6
CONTINUOUS
 10
8.499920
 20
2.603480
  0
VERTEX
  8
FOREGROUND
  6
CONTINUOUS
 10
8.499920
 20
-8.396520
  0
VERTEX
  8
FOREGROUND
  6
CONTINUOUS
 10
0.000000
 20
-8.396520
  0
VERTEX
  8
FOREGROUND
  6
CONTINUOUS
 10
0.000000
 20
2.603480
  0
SEQEND
  8
0
  0
SOLID
  8
0
 62
    15
 10
5.712520
 20
1.444960
 11
5.722200
 21
2.185040
 12
5.781600
 22
1.322200
 13
5.791280
 23
2.062280
  0
POLYLINE
  8
0
  6
CONTINUOUS
 66
     1
 40
0.000000
 41
0.000000
  0
VERTEX
  8
0
  6
CONTINUOUS
 10
5.712520
 20
1.444960
  0
VERTEX
  8
0
  6
CONTINUOUS
 10
5.722200
 20
2.185040
  0
VERTEX
  8
0
  6
CONTINUOUS
 10
5.791280
 20
2.062280
  0
VERTEX
  8
0
  6
CONTINUOUS
 10
5.781600
 20
1.322200
  0
VERTEX
  8
0
  6
CONTINUOUS
 10
5.712520
 20
1.444960
  0
SEQEND
  8
0
  0
SOLID
  8
0
 62
    15
 10
5.148440
 20
1.138720
 11
5.158120
 21
1.878800
 12
5.266360
 22
1.138720
 13
5.276040
 23
1.878800
  0
POLYLINE
  8
0
  6
CONTINUOUS
 66
     1
 40
0.000000
 41
0.000000
  0
VERTEX
  8
0
  6
CONTINUOUS
 10
5.148440
 20
1.138720
  0
VERTEX
  8
0
  6
CONTINUOUS
 10
5.158120
 20
1.878800
  0
VERTEX
  8
0
  6
CONTINUOUS
 10
5.276040
 20
1.878800
  0
VERTEX
  8
0
  6
CONTINUOUS
 10
5.266360
 20
1.138720
  0
VERTEX
  8
0
  6
CONTINUOUS
 10
5.148440
 20
1.138720
  0
SEQEND
  8
0
  0
SOLID
  8
0
 62
    15
 10
5.266360
 20
1.138720
 11
5.276040
 21
1.878800
 12
5.287040
 22
1.157200
 13
5.296720
 23
1.897280
  0
POLYLINE
  8
0
  6
CONTINUOUS
 66
     1
 40
0.000000
 41
0.000000
  0
VERTEX
  8
0
  6
CONTINUOUS
 10
5.266360
 20
1.138720
  0
VERTEX
  8
0
  6
CONTINUOUS
 10
5.276040
 20
1.878800
  0
VERTEX
  8
0
  6
CONTINUOUS
 10
5.296720
 20
1.897280
  0
VERTEX
  8
0
  6
CONTINUOUS
 10
5.287040
 20
1.157200
  0
VERTEX
  8
0
  6
CONTINUOUS
 10
5.266360
 20
1.138720
  0
SEQEND
  8
0
  0
SOLID
  8
0
 62
    15
 10
5.287040
 20
1.157200
 11
5.296720
 21
1.897280
 12
5.308600
 22
1.184920
 13
5.318280
 23
1.925440
  0
POLYLINE
  8
0
  6
CONTINUOUS
 66
     1
 40
0.000000
 41
0.000000
  0
VERTEX
  8
0
  6
CONTINUOUS
 10
5.287040
 20
1.157200
  0
VERTEX
  8
0
  6
CONTINUOUS
 10
5.296720
 20
1.897280
  0
VERTEX
  8
0
  6
CONTINUOUS
 10
5.318280
 20
1.925440
  0
VERTEX
  8
0
  6
CONTINUOUS
 10
5.308600
 20
1.184920
  0
VERTEX
  8
0
  6
CONTINUOUS
 10
5.287040
 20
1.157200
  0
SEQEND
  8
0
  0
SOLID
  8
0
 62
    15
 10
5.308600
 20
1.184920
 11
5.318280
 21
1.925440
 12
5.329720
 22
1.221000
 13
5.339400
 23
1.961080
  0
POLYLINE
  8
0
  6
CONTINUOUS
 66
     1
 40
0.000000
 41
0.000000
  0
VERTEX
  8
0
  6
CONTINUOUS
 10
5.308600
 20
1.184920
  0
VERTEX
  8
0
  6
CONTINUOUS
 10
5.318280
 20
1.925440
  0
VERTEX
  8
0
  6
CONTINUOUS
 10
5.339400
 20
1.961080
  0
VERTEX
  8
0
  6
CONTINUOUS
 10
5.329720
 20
1.221000
  0
VERTEX
  8
0
  6
CONTINUOUS
 10
5.308600
 20
1.184920
  0
SEQEND
  8
0
  0
SOLID
  8
0
 62
    15
 10
5.329720
 20
1.221000
 11
5.339400
 21
1.961080
 12
5.349960
 22
1.262360
 13
5.359640
 23
2.002440
  0
POLYLINE
  8
0
  6
CONTINUOUS
 66
     1
 40
0.000000
 41
0.000000
  0
VERTEX
  8
0
  6
CONTINUOUS
 10
5.329720
 20
1.221000
  0
VERTEX
  8
0
  6
CONTINUOUS
 10
5.339400
 20
1.961080
  0
VERTEX
  8
0
  6
CONTINUOUS
 10
5.359640
 20
2.002440
  0
VERTEX
  8
0
  6
CONTINUOUS
 10
5.349960
 20
1.262360
  0
VERTEX
  8
0
  6
CONTINUOUS
 10
5.329720
 20
1.221000
  0
SEQEND
  8
0
  0
SOLID
  8
0
 62
    15
 10
5.349960
 20
1.262360
 11
5.359640
 21
2.002440
 12
5.368440
 22
1.307240
 13
5.378120
 23
2.047320
  0
POLYLINE
  8
0
  6
CONTINUOUS
 66
     1
 40
0.000000
 41
0.000000
  0
VERTEX
  8
0
  6
CONTINUOUS
 10
5.349960
 20
1.262360
  0
VERTEX
  8
0
  6
CONTINUOUS
 10
5.359640
 20
2.002440
  0
VERTEX
  8
0
  6
CONTINUOUS
 10
5.378120
 20
2.047320
  0
VERTEX
  8
0
  6
CONTINUOUS
 10
5.368440
 20
1.307240
  0
VERTEX
  8
0
  6
CONTINUOUS
 10
5.349960
 20
1.262360
  0
SEQEND
  8
0
  0
SOLID
  8
0
 62
    15
 10
5.368440
 20
1.307240
 11
5.378120
 21
2.047320
 12
5.384280
 22
1.353880
 13
5.393960
 23
2.094400
  0
POLYLINE
  8
0
  6
CONTINUOUS
 66
     1
 40
0.000000
 41
0.000000
  0
VERTEX
  8
0
  6
CONTINUOUS
 10
5.368440
 20
1.307240
  0
VERTEX
  8
0
  6
CONTINUOUS
 10
5.378120
 20
2.047320
  0
VERTEX
  8
0
  6
CONTINUOUS
 10
5.393960
 20
2.094400
  0
VERTEX
  8
0
  6
CONTINUOUS
 10
5.384280
 20
1.353880
  0
VERTEX
  8
0
  6
CONTINUOUS
 10
5.368440
 20
1.307240
  0
SEQEND
  8
0
  0
SOLID
  8
0
 62
    15
 10
5.384280
 20
1.353880
 11
5.393960
 21
2.094400
 12
5.396600
 22
1.400520
 13
5.406280
 23
2.140600
  0
POLYLINE
  8
0
  6
CONTINUOUS
 66
     1
 40
0.000000
 41
0.000000
  0
VERTEX
  8
0
  6
CONTINUOUS
 10
5.384280
 20
1.353880
  0
VERTEX
  8
0
  6
CONTINUOUS
 10
5.393960
 20
2.094400
  0
VERTEX
  8
0
  6
CONTINUOUS
 10
5.406280
 20
2.140600
  0
VERTEX
  8
0
  6
CONTINUOUS
 10
5.396600
 20
1.400520
  0
VERTEX
  8
0
  6
CONTINUOUS
 10
5.384280
 20
1.353880
  0
SEQEND
  8
0
  0
SOLID
  8
0
 62
    15
 10
5.396600
 20
1.400520
 11
5.406280
 21
2.140600
 12
5.404960
 22
1.444960
 13
5.414640
 23
2.185040
  0
POLYLINE
  8
0
  6
CONTINUOUS
 66
     1
 40
0.000000
 41
0.000000
  0
VERTEX
  8
0
  6
CONTINUOUS
 10
5.396600
 20
1.400520
  0
VERTEX
  8
0
  6
CONTINUOUS
 10
5.406280
 20
2.140600
  0
VERTEX
  8
0
  6
CONTINUOUS
 10
5.414640
 20
2.185040
  0
VERTEX
  8
0
  6
CONTINUOUS
 10
5.404960
 20
1.444960
  0
VERTEX
  8
0
  6
CONTINUOUS
 10
5.396600
 20
1.400520
  0
SEQEND
  8
0
  0
SOLID
  8
0
 62
    15
 10
5.404960
 20
1.444960
 11
5.414640
 21
2.185040
 12
5.712520
 22
1.444960
 13
5.722200
 23
2.185040
  0
POLYLINE
  8
0
  6
CONTINUOUS
 66
     1
 40
0.000000
 41
0.000000
  0
VERTEX
  8
0
  6
CONTINUOUS
 10
5.404960
 20
1.444960
  0
VERTEX
  8
0
  6
CONTINUOUS
 10
5.414640
 20
2.185040
  0
VERTEX
  8
0
  6
CONTINUOUS
 10
5.722200
 20
2.185040
  0
VERTEX
  8
0
  6
CONTINUOUS
 10
5.712520
 20
1.444960
  0
VERTEX
  8
0
  6
CONTINUOUS
 10
5.404960
 20
1.444960
  0
SEQEND
  8
0
  0
SOLID
  8
0
 62
    15
 10
5.098280
 20
0.888800
 11
5.107960
 21
1.628880
 12
5.148440
 22
1.138720
 13
5.158120
 23
1.878800
  0
POLYLINE
  8
0
  6
CONTINUOUS
 66
     1
 40
0.000000
 41
0.000000
  0
VERTEX
  8
0
  6
CONTINUOUS
 10
5.098280
 20
0.888800
  0
VERTEX
  8
0
  6
CONTINUOUS
 10
5.107960
 20
1.628880
  0
VERTEX
  8
0
  6
CONTINUOUS
 10
5.158120
 20
1.878800
  0
VERTEX
  8
0
  6
CONTINUOUS
 10
5.148440
 20
1.138720
  0
VERTEX
  8
0
  6
CONTINUOUS
 10
5.098280
 20
0.888800
  0
SEQEND
  8
0
  0
SOLID
  8
0
 62
    15
 10
5.781600
 20
1.322200
 11
5.791280
 21
2.062280
 12
5.819000
 22
1.312080
 13
5.828680
 23
2.052160
  0
POLYLINE
  8
0
  6
CONTINUOUS
 66
     1
 40
0.000000
 41
0.000000
  0
VERTEX
  8
0
  6
CONTINUOUS
 10
5.781600
 20
1.322200
  0
VERTEX
  8
0
  6
CONTINUOUS
 10
5.791280
 20
2.062280
  0
VERTEX
  8
0
  6
CONTINUOUS
 10
5.828680
 20
2.052160
  0
VERTEX
  8
0
  6
CONTINUOUS
 10
5.819000
 20
1.312080
  0
VERTEX
  8
0
  6
CONTINUOUS
 10
5.781600
 20
1.322200
  0
SEQEND
  8
0
  0
SOLID
  8
0
 62
    15
 10
5.819000
 20
1.312080
 11
5.828680
 21
2.052160
 12
5.855520
 22
1.297560
 13
5.865200
 23
2.037640
  0
POLYLINE
  8
0
  6
CONTINUOUS
 66
     1
 40
0.000000
 41
0.000000
  0
VERTEX
  8
0
  6
CONTINUOUS
 10
5.819000
 20
1.312080
  0
VERTEX
  8
0
  6
CONTINUOUS
 10
5.828680
 20
2.052160
  0
VERTEX
  8
0
  6
CONTINUOUS
 10
5.865200
 20
2.037640
  0
VERTEX
  8
0
  6
CONTINUOUS
 10
5.855520
 20
1.297560
  0
VERTEX
  8
0
  6
CONTINUOUS
 10
5.819000
 20
1.312080
  0
SEQEND
  8
0
  0
SOLID
  8
0
 62
    15
 10
5.855520
 20
1.297560
 11
5.865200
 21
2.037640
 12
5.890720
 22
1.278200
 13
5.900400
 23
2.018720
  0
POLYLINE
  8
0
  6
CONTINUOUS
 66
     1
 40
0.000000
 41
0.000000
  0
VERTEX
  8
0
  6
CONTINUOUS
 10
5.855520
 20
1.297560
  0
VERTEX
  8
0
  6
CONTINUOUS
 10
5.865200
 20
2.037640
  0
VERTEX
  8
0
  6
CONTINUOUS
 10
5.900400
 20
2.018720
  0
VERTEX
  8
0
  6
CONTINUOUS
 10
5.890720
 20
1.278200
  0
VERTEX
  8
0
  6
CONTINUOUS
 10
5.855520
 20
1.297560
  0
SEQEND
  8
0
  0
SOLID
  8
0
 62
    15
 10
5.890720
 20
1.278200
 11
5.900400
 21
2.018720
 12
5.924600
 22
1.253560
 13
5.934280
 23
1.993640
  0
POLYLINE
  8
0
  6
CONTINUOUS
 66
     1
 40
0.000000
 41
0.000000
  0
VERTEX
  8
0
  6
CONTINUOUS
 10
5.890720
 20
1.278200
  0
VERTEX
  8
0
  6
CONTINUOUS
 10
5.900400
 20
2.018720
  0
VERTEX
  8
0
  6
CONTINUOUS
 10
5.934280
 20
1.993640
  0
VERTEX
  8
0
  6
CONTINUOUS
 10
5.924600
 20
1.253560
  0
VERTEX
  8
0
  6
CONTINUOUS
 10
5.890720
 20
1.278200
  0
SEQEND
  8
0
  0
SOLID
  8
0
 62
    15
 10
5.924600
 20
1.253560
 11
5.934280
 21
1.993640
 12
5.955840
 22
1.221880
 13
5.965520
 23
1.961960
  0
POLYLINE
  8
0
  6
CONTINUOUS
 66
     1
 40
0.000000
 41
0.000000
  0
VERTEX
  8
0
  6
CONTINUOUS
 10
5.924600
 20
1.253560
  0
VERTEX
  8
0
  6
CONTINUOUS
 10
5.934280
 20
1.993640
  0
VERTEX
  8
0
  6
CONTINUOUS
 10
5.965520
 20
1.961960
  0
VERTEX
  8
0
  6
CONTINUOUS
 10
5.955840
 20
1.221880
  0
VERTEX
  8
0
  6
CONTINUOUS
 10
5.924600
 20
1.253560
  0
SEQEND
  8
0
  0
SOLID
  8
0
 62
    15
 10
5.955840
 20
1.221880
 11
5.965520
 21
1.961960
 12
5.983560
 22
1.182720
 13
5.993240
 23
1.923240
  0
POLYLINE
  8
0
  6
CONTINUOUS
 66
     1
 40
0.000000
 41
0.000000
  0
VERTEX
  8
0
  6
CONTINUOUS
 10
5.955840
 20
1.221880
  0
VERTEX
  8
0
  6
CONTINUOUS
 10
5.965520
 20
1.961960
  0
VERTEX
  8
0
  6
CONTINUOUS
 10
5.993240
 20
1.923240
  0
VERTEX
  8
0
  6
CONTINUOUS
 10
5.983560
 20
1.182720
  0
VERTEX
  8
0
  6
CONTINUOUS
 10
5.955840
 20
1.221880
  0
SEQEND
  8
0
  0
SOLID
  8
0
 62
    15
 10
5.983560
 20
1.182720
 11
5.993240
 21
1.923240
 12
6.007760
 22
1.135640
 13
6.017440
 23
1.876160
  0
POLYLINE
  8
0
  6
CONTINUOUS
 66
     1
 40
0.000000
 41
0.000000
  0
VERTEX
  8
0
  6
CONTINUOUS
 10
5.983560
 20
1.182720
  0
VERTEX
  8
0
  6
CONTINUOUS
 10
5.993240
 20
1.923240
  0
VERTEX
  8
0
  6
CONTINUOUS
 10
6.017440
 20
1.876160
  0
VERTEX
  8
0
  6
CONTINUOUS
 10
6.007760
 20
1.135640
  0
VERTEX
  8
0
  6
CONTINUOUS
 10
5.983560
 20
1.182720
  0
SEQEND
  8
0
  0
SOLID
  8
0
 62
    15
 10
6.007760
 20
1.135640
 11
6.017440
 21
1.876160
 12
6.018320
 22
1.108800
 13
6.027560
 23
1.849320
  0
POLYLINE
  8
0
  6
CONTINUOUS
 66
     1
 40
0.000000
 41
0.000000
  0
VERTEX
  8
0
  6
CONTINUOUS
 10
6.007760
 20
1.135640
  0
VERTEX
  8
0
  6
CONTINUOUS
 10
6.017440
 20
1.876160
  0
VERTEX
  8
0
  6
CONTINUOUS
 10
6.027560
 20
1.849320
  0
VERTEX
  8
0
  6
CONTINUOUS
 10
6.018320
 20
1.108800
  0
VERTEX
  8
0
  6
CONTINUOUS
 10
6.007760
 20
1.135640
  0
SEQEND
  8
0
  0
SOLID
  8
0
 62
    15
 10
6.018320
 20
1.108800
 11
6.027560
 21
1.849320
 12
6.027120
 22
1.079760
 13
6.036800
 23
1.819840
  0
POLYLINE
  8
0
  6
CONTINUOUS
 66
     1
 40
0.000000
 41
0.000000
  0
VERTEX
  8
0
  6
CONTINUOUS
 10
6.018320
 20
1.108800
  0
VERTEX
  8
0
  6
CONTINUOUS
 10
6.027560
 20
1.849320
  0
VERTEX
  8
0
  6
CONTINUOUS
 10
6.036800
 20
1.819840
  0
VERTEX
  8
0
  6
CONTINUOUS
 10
6.027120
 20
1.079760
  0
VERTEX
  8
0
  6
CONTINUOUS
 10
6.018320
 20
1.108800
  0
SEQEND
  8
0
  0
SOLID
  8
0
 62
    15
 10
6.027120
 20
1.079760
 11
6.036800
 21
1.819840
 12
6.152960
 22
1.079760
 13
6.162640
 23
1.819840
  0
POLYLINE
  8
0
  6
CONTINUOUS
 66
     1
 40
0.000000
 41
0.000000
  0
VERTEX
  8
0
  6
CONTINUOUS
 10
6.027120
 20
1.079760
  0
VERTEX
  8
0
  6
CONTINUOUS
 10
6.036800
 20
1.819840
  0
VERTEX
  8
0
  6
CONTINUOUS
 10
6.162640
 20
1.819840
  0
VERTEX
  8
0
  6
CONTINUOUS
 10
6.152960
 20
1.079760
  0
VERTEX
  8
0
  6
CONTINUOUS
 10
6.027120
 20
1.079760
  0
SEQEND
  8
0
  0
SOLID
  8
0
 62
    15
 10
6.152960
 20
1.079760
 11
6.162640
 21
1.819840
 12
6.220280
 22
0.890120
 13
6.229960
 23
1.630200
  0
POLYLINE
  8
0
  6
CONTINUOUS
 66
     1
 40
0.000000
 41
0.000000
  0
VERTEX
  8
0
  6
CONTINUOUS
 10
6.152960
 20
1.079760
  0
VERTEX
  8
0
  6
CONTINUOUS
 10
6.162640
 20
1.819840
  0
VERTEX
  8
0
  6
CONTINUOUS
 10
6.229960
 20
1.630200
  0
VERTEX
  8
0
  6
CONTINUOUS
 10
6.220280
 20
0.890120
  0
VERTEX
  8
0
  6
CONTINUOUS
 10
6.152960
 20
1.079760
  0
SEQEND
  8
0
  0
POLYLINE
  8
0
  6
CONTINUOUS
 66
     1
 40
0.000000
 41
0.000000
  0
VERTEX
  8
0
  6
CONTINUOUS
 10
6.220280
 20
0.889680
  0
VERTEX
  8
0
  6
CONTINUOUS
 10
5.098280
 20
0.888800
  0
VERTEX
  8
0
  6
CONTINUOUS
 10
5.148440
 20
1.138720
  0
VERTEX
  8
0
  6
CONTINUOUS
 10
5.266360
 20
1.138720
  0
VERTEX
  8
0
  6
CONTINUOUS
 10
5.287040
 20
1.157200
  0
VERTEX
  8
0
  6
CONTINUOUS
 10
5.308600
 20
1.184920
  0
VERTEX
  8
0
  6
CONTINUOUS
 10
5.329720
 20
1.221000
  0
VERTEX
  8
0
  6
CONTINUOUS
 10
5.349960
 20
1.262360
  0
VERTEX
  8
0
  6
CONTINUOUS
 10
5.368440
 20
1.307240
  0
VERTEX
  8
0
  6
CONTINUOUS
 10
5.384280
 20
1.353880
  0
VERTEX
  8
0
  6
CONTINUOUS
 10
5.396600
 20
1.400520
  0
VERTEX
  8
0
  6
CONTINUOUS
 10
5.404960
 20
1.444960
  0
VERTEX
  8
0
  6
CONTINUOUS
 10
5.712520
 20
1.444960
  0
VERTEX
  8
0
  6
CONTINUOUS
 10
5.781600
 20
1.322200
  0
VERTEX
  8
0
  6
CONTINUOUS
 10
5.819000
 20
1.312080
  0
VERTEX
  8
0
  6
CONTINUOUS
 10
5.855520
 20
1.297560
  0
VERTEX
  8
0
  6
CONTINUOUS
 10
5.890720
 20
1.278200
  0
VERTEX
  8
0
  6
CONTINUOUS
 10
5.924600
 20
1.253560
  0
VERTEX
  8
0
  6
CONTINUOUS
 10
5.955840
 20
1.221880
  0
VERTEX
  8
0
  6
CONTINUOUS
 10
5.983560
 20
1.182720
  0
VERTEX
  8
0
  6
CONTINUOUS
 10
6.007760
 20
1.135640
  0
VERTEX
  8
0
  6
CONTINUOUS
 10
6.018320
 20
1.108800
  0
VERTEX
  8
0
  6
CONTINUOUS
 10
6.027120
 20
1.079760
  0
VERTEX
  8
0
  6
CONTINUOUS
 10
6.152960
 20
1.079760
  0
VERTEX
  8
0
  6
CONTINUOUS
 10
6.220280
 20
0.890120
  0
VERTEX
  8
0
  6
CONTINUOUS
 10
6.220280
 20
0.889680
  0
SEQEND
  8
0
  0
TEXT
  8
0
 10
5.269880
 20
0.652080
 40
0.138041
  1
BA  1089
 41
1.000000
  7
SN0
 71
     0
 72
     5
 11
5.951865
 21
0.652080
  0
TEXT
  8
0
 10
5.114120
 20
0.460240
 40
0.138041
  1
9/16" x 1-1/8"  
 41
1.000000
  7
SN0
 71
     0
 72
     5
 11
6.198157
 21
0.460240
  0
POLYLINE
  8
0
  6
CONTINUOUS
 66
     1
 40
0.014080
 41
0.014080
  0
VERTEX
  8
0
  6
CONTINUOUS
 10
7.842560
 20
1.394360
  0
VERTEX
  8
0
  6
CONTINUOUS
 10
6.721000
 20
1.393480
  0
VERTEX
  8
0
  6
CONTINUOUS
 10
6.770720
 20
1.642960
  0
VERTEX
  8
0
  6
CONTINUOUS
 10
6.889080
 20
1.642960
  0
VERTEX
  8
0
  6
CONTINUOUS
 10
6.894360
 20
1.646480
  0
VERTEX
  8
0
  6
CONTINUOUS
 10
6.899200
 20
1.650880
  0
VERTEX
  8
0
  6
CONTINUOUS
 10
6.909760
 20
1.661440
  0
VERTEX
  8
0
  6
CONTINUOUS
 10
6.920320
 20
1.674640
  0
VERTEX
  8
0
  6
CONTINUOUS
 10
6.931320
 20
1.689600
  0
VERTEX
  8
0
  6
CONTINUOUS
 10
6.941880
 20
1.706760
  0
VERTEX
  8
0
  6
CONTINUOUS
 10
6.952440
 20
1.725240
  0
VERTEX
  8
0
  6
CONTINUOUS
 10
6.962560
 20
1.745480
  0
VERTEX
  8
0
  6
CONTINUOUS
 10
6.972680
 20
1.766600
  0
VERTEX
  8
0
  6
CONTINUOUS
 10
6.982360
 20
1.789040
  0
VERTEX
  8
0
  6
CONTINUOUS
 10
6.991160
 20
1.811920
  0
VERTEX
  8
0
  6
CONTINUOUS
 10
6.999520
 20
1.835240
  0
VERTEX
  8
0
  6
CONTINUOUS
 10
7.007000
 20
1.858560
  0
VERTEX
  8
0
  6
CONTINUOUS
 10
7.013600
 20
1.882320
  0
VERTEX
  8
0
  6
CONTINUOUS
 10
7.019320
 20
1.905200
  0
VERTEX
  8
0
  6
CONTINUOUS
 10
7.024160
 20
1.928080
  0
VERTEX
  8
0
  6
CONTINUOUS
 10
7.027680
 20
1.949640
  0
VERTEX
  8
0
  6
CONTINUOUS
 10
7.335240
 20
1.949640
  0
VERTEX
  8
0
  6
CONTINUOUS
 10
7.404320
 20
1.826880
  0
VERTEX
  8
0
  6
CONTINUOUS
 10
7.422800
 20
1.822040
  0
VERTEX
  8
0
  6
CONTINUOUS
 10
7.441280
 20
1.816760
  0
VERTEX
  8
0
  6
CONTINUOUS
 10
7.459760
 20
1.809720
  0
VERTEX
  8
0
  6
CONTINUOUS
 10
7.478240
 20
1.802240
  0
VERTEX
  8
0
  6
CONTINUOUS
 10
7.495840
 20
1.793000
  0
VERTEX
  8
0
  6
CONTINUOUS
 10
7.513440
 20
1.782880
  0
VERTEX
  8
0
  6
CONTINUOUS
 10
7.530600
 20
1.771000
  0
VERTEX
  8
0
  6
CONTINUOUS
 10
7.547320
 20
1.757800
  0
VERTEX
  8
0
  6
CONTINUOUS
 10
7.563160
 20
1.742840
  0
VERTEX
  8
0
  6
CONTINUOUS
 10
7.578560
 20
1.726560
  0
VERTEX
  8
0
  6
CONTINUOUS
 10
7.592640
 20
1.708080
  0
VERTEX
  8
0
  6
CONTINUOUS
 10
7.606280
 20
1.687400
  0
VERTEX
  8
0
  6
CONTINUOUS
 10
7.619040
 20
1.664960
  0
VERTEX
  8
0
  6
CONTINUOUS
 10
7.630480
 20
1.640320
  0
VERTEX
  8
0
  6
CONTINUOUS
 10
7.635760
 20
1.627120
  0
VERTEX
  8
0
  6
CONTINUOUS
 10
7.640600
 20
1.613480
  0
VERTEX
  8
0
  6
CONTINUOUS
 10
7.645440
 20
1.598960
  0
VERTEX
  8
0
  6
CONTINUOUS
 10
7.649840
 20
1.584000
  0
VERTEX
  8
0
  6
CONTINUOUS
 10
7.775680
 20
1.584000
  0
VERTEX
  8
0
  6
CONTINUOUS
 10
7.843000
 20
1.394800
  0
VERTEX
  8
0
  6
CONTINUOUS
 10
7.842560
 20
1.394360
  0
SEQEND
  8
0
  0
TEXT
  8
0
 10
6.901840
 20
1.162920
 40
0.138041
  1
BA  1089
 41
1.000000
  7
SN0
 71
     0
 72
     5
 11
7.583825
 21
1.162920
  0
TEXT
  8
0
 10
6.746080
 20
0.971080
 40
0.138041
  1
9/16" x 1-1/8"  
 41
1.000000
  7
SN0
 71
     0
 72
     5
 11
7.830117
 21
0.971080
  0
ENDSEC
  0
EOF
