  0
SECTION
  2
HEADER
  9
$ACADVER
  1
AC1006
  9
$EXTMIN
 10
3.544200
 20
0.356400
  9
$EXTMAX
 10
8.193680
 20
4.894120
  9
$LTSCALE
 40
0.044000
  9
$PDMODE
 70
    35
  9
$PDSIZE
 40
0.035200
  0
ENDSEC
  0
SECTION
  2
TABLES
  0
TABLE
  2
LTYPE
 70
     9
  0
LTYPE
  2
CONTINUOUS
 70
    64
  3
Solid line
 72
    65
 73
     0
 40
0.000000
  0
LTYPE
  2
DASHED
 70
    64
  3
__ __ __ __ __ __ __ __ __ __ __ __ __ __ __
 72
    65
 73
     2
 40
0.000330
 49
0.000220
 49
-0.000110
  0
LTYPE
  2
HIDDEN
 70
    64
  3
 _ _ _ _ _ _ _ _ _ _ _ _ _ _ _ _ _ _ _ _ _ _
 72
    65
 73
     2
 40
0.000165
 49
0.000110
 49
-0.000055
  0
LTYPE
  2
CENTER
 70
    64
  3
____ _ ____ _ ____ _ ____ _ ____ _ ____ _ ____
 72
    65
 73
     4
 40
0.000880
 49
0.000550
 49
-0.000110
 49
0.000110
 49
-0.000110
  0
LTYPE
  2
PHANTOM
 70
    64
  3
_____ _ _ _____ _ _ _____ _ _ _____ _ _ ____
 72
    65
 73
     6
 40
0.001100
 49
0.000550
 49
-0.000110
 49
0.000110
 49
-0.000110
 49
0.000110
 49
-0.000110
  0
LTYPE
  2
DOT
 70
    64
  3
...............................................
 72
    65
 73
     2
 40
0.000110
 49
0.000000
 49
-0.000110
  0
LTYPE
  2
DASHDOT
 70
    64
  3
__ . __ . __ . __ . __ . __ . __ . __ . __ . __
 72
    65
 73
     4
 40
0.000440
 49
0.000220
 49
-0.000110
 49
0.000000
 49
-0.000110
  0
LTYPE
  2
BORDER
 70
    64
  3
__ __ . __ __ . __ __ . __ __ . __ __ . __ __
 72
    65
 73
     6
 40
0.000770
 49
0.000220
 49
-0.000110
 49
0.000220
 49
-0.000110
 49
0.000000
 49
-0.000110
  0
LTYPE
  2
DIVIDE
 70
    64
  3
__ . . __ . . __ . . __ . . __ . . __ . . __
 72
    65
 73
     6
 40
0.000550
 49
0.000220
 49
-0.000110
 49
0.000000
 49
-0.000110
 49
0.000000
 49
-0.000110
  0
LTYPE
  2
DOTDOT
 70
    64
  3
 . .  . .  . .  . .  . .  . . 
 72
    65
 73
     5
 40
0.000242
 49
-0.000110
 49
0.000000
 49
-0.000110
 49
0.000000
 49
-0.000110
  0
ENDTAB
  0
TABLE
  2
STYLE
 70
     2
  0
STYLE
 70
     0
  2
SN0
 40
0.000000
 41
0.000440
 50
0.000000
 71
     0
 42
0.000000
  3
ROMAND
  0
STYLE
 70
    68
  2
SV0
 40
0.000000
 41
0.000440
 50
0.000000
 71
     0
 42
0.000000
  3
ROMAND
  0
ENDTAB
  0
TABLE
  2
LAYER
 70
     3
  0
LAYER
  2
FOREGROUND
 70
    64
 62
     7
  6
CONTINUOUS
  0
LAYER
  2
BACKGROUND
 70
    65
 62
    -7
  6
CONTINUOUS
  0
LAYER
  2
0
 70
    64
 62
     7
  6
CONTINUOUS
  0
ENDTAB
  0
ENDSEC
  0
SECTION
  2
ENTITIES
  0
POLYLINE
  8
FOREGROUND
  6
CONTINUOUS
 66
     1
 40
0.000000
 41
0.000000
  0
VERTEX
  8
FOREGROUND
  6
CONTINUOUS
 10
0.000000
 20
5.250520
  0
VERTEX
  8
FOREGROUND
  6
CONTINUOUS
 10
8.499920
 20
5.250520
  0
VERTEX
  8
FOREGROUND
  6
CONTINUOUS
 10
8.499920
 20
-5.749480
  0
VERTEX
  8
FOREGROUND
  6
CONTINUOUS
 10
0.000000
 20
-5.749480
  0
VERTEX
  8
FOREGROUND
  6
CONTINUOUS
 10
0.000000
 20
5.250520
  0
SEQEND
  8
0
  0
POLYLINE
  8
FOREGROUND
  6
CONTINUOUS
 66
     1
 40
0.000000
 41
0.000000
  0
VERTEX
  8
FOREGROUND
  6
CONTINUOUS
 10
0.000000
 20
5.250520
  0
VERTEX
  8
FOREGROUND
  6
CONTINUOUS
 10
8.499920
 20
5.250520
  0
VERTEX
  8
FOREGROUND
  6
CONTINUOUS
 10
8.499920
 20
-5.749480
  0
VERTEX
  8
FOREGROUND
  6
CONTINUOUS
 10
0.000000
 20
-5.749480
  0
VERTEX
  8
FOREGROUND
  6
CONTINUOUS
 10
0.000000
 20
5.250520
  0
SEQEND
  8
0
  0
SOLID
  8
0
 62
    15
 10
7.318960
 20
2.296360
 11
7.955200
 21
2.658920
 12
7.378800
 22
2.209680
 13
8.015480
 23
2.572240
  0
POLYLINE
  8
0
  6
CONTINUOUS
 66
     1
 40
0.000000
 41
0.000000
  0
VERTEX
  8
0
  6
CONTINUOUS
 10
7.318960
 20
2.296360
  0
VERTEX
  8
0
  6
CONTINUOUS
 10
7.955200
 20
2.658920
  0
VERTEX
  8
0
  6
CONTINUOUS
 10
8.015480
 20
2.572240
  0
VERTEX
  8
0
  6
CONTINUOUS
 10
7.378800
 20
2.209680
  0
VERTEX
  8
0
  6
CONTINUOUS
 10
7.318960
 20
2.296360
  0
SEQEND
  8
0
  0
SOLID
  8
0
 62
    15
 10
3.580280
 20
2.111120
 11
4.216520
 21
2.473680
 12
3.612840
 22
2.124760
 13
4.249080
 23
2.486880
  0
POLYLINE
  8
0
  6
CONTINUOUS
 66
     1
 40
0.000000
 41
0.000000
  0
VERTEX
  8
0
  6
CONTINUOUS
 10
3.580280
 20
2.111120
  0
VERTEX
  8
0
  6
CONTINUOUS
 10
4.216520
 20
2.473680
  0
VERTEX
  8
0
  6
CONTINUOUS
 10
4.249080
 20
2.486880
  0
VERTEX
  8
0
  6
CONTINUOUS
 10
3.612840
 20
2.124760
  0
VERTEX
  8
0
  6
CONTINUOUS
 10
3.580280
 20
2.111120
  0
SEQEND
  8
0
  0
SOLID
  8
0
 62
    15
 10
3.824920
 20
2.432760
 11
4.461160
 21
2.794880
 12
3.870240
 22
2.439360
 13
4.506480
 23
2.801920
  0
POLYLINE
  8
0
  6
CONTINUOUS
 66
     1
 40
0.000000
 41
0.000000
  0
VERTEX
  8
0
  6
CONTINUOUS
 10
3.824920
 20
2.432760
  0
VERTEX
  8
0
  6
CONTINUOUS
 10
4.461160
 20
2.794880
  0
VERTEX
  8
0
  6
CONTINUOUS
 10
4.506480
 20
2.801920
  0
VERTEX
  8
0
  6
CONTINUOUS
 10
3.870240
 20
2.439360
  0
VERTEX
  8
0
  6
CONTINUOUS
 10
3.824920
 20
2.432760
  0
SEQEND
  8
0
  0
SOLID
  8
0
 62
    15
 10
3.560920
 20
2.102320
 11
4.197160
 21
2.464880
 12
3.580280
 22
2.111120
 13
4.216520
 23
2.473680
  0
POLYLINE
  8
0
  6
CONTINUOUS
 66
     1
 40
0.000000
 41
0.000000
  0
VERTEX
  8
0
  6
CONTINUOUS
 10
3.560920
 20
2.102320
  0
VERTEX
  8
0
  6
CONTINUOUS
 10
4.197160
 20
2.464880
  0
VERTEX
  8
0
  6
CONTINUOUS
 10
4.216520
 20
2.473680
  0
VERTEX
  8
0
  6
CONTINUOUS
 10
3.580280
 20
2.111120
  0
VERTEX
  8
0
  6
CONTINUOUS
 10
3.560920
 20
2.102320
  0
SEQEND
  8
0
  0
SOLID
  8
0
 62
    15
 10
5.066600
 20
2.539240
 11
5.702840
 21
2.901800
 12
5.550160
 22
2.539240
 13
6.186400
 23
2.901800
  0
POLYLINE
  8
0
  6
CONTINUOUS
 66
     1
 40
0.000000
 41
0.000000
  0
VERTEX
  8
0
  6
CONTINUOUS
 10
5.066600
 20
2.539240
  0
VERTEX
  8
0
  6
CONTINUOUS
 10
5.702840
 20
2.901800
  0
VERTEX
  8
0
  6
CONTINUOUS
 10
6.186400
 20
2.901800
  0
VERTEX
  8
0
  6
CONTINUOUS
 10
5.550160
 20
2.539240
  0
VERTEX
  8
0
  6
CONTINUOUS
 10
5.066600
 20
2.539240
  0
SEQEND
  8
0
  0
SOLID
  8
0
 62
    15
 10
5.550160
 20
2.539240
 11
6.186400
 21
2.901800
 12
5.551920
 22
2.538800
 13
6.188160
 23
2.901360
  0
POLYLINE
  8
0
  6
CONTINUOUS
 66
     1
 40
0.000000
 41
0.000000
  0
VERTEX
  8
0
  6
CONTINUOUS
 10
5.550160
 20
2.539240
  0
VERTEX
  8
0
  6
CONTINUOUS
 10
6.186400
 20
2.901800
  0
VERTEX
  8
0
  6
CONTINUOUS
 10
6.188160
 20
2.901360
  0
VERTEX
  8
0
  6
CONTINUOUS
 10
5.551920
 20
2.538800
  0
VERTEX
  8
0
  6
CONTINUOUS
 10
5.550160
 20
2.539240
  0
SEQEND
  8
0
  0
SOLID
  8
0
 62
    15
 10
5.551920
 20
2.538800
 11
6.188160
 21
2.901360
 12
6.035480
 22
2.538800
 13
6.671720
 23
2.901360
  0
POLYLINE
  8
0
  6
CONTINUOUS
 66
     1
 40
0.000000
 41
0.000000
  0
VERTEX
  8
0
  6
CONTINUOUS
 10
5.551920
 20
2.538800
  0
VERTEX
  8
0
  6
CONTINUOUS
 10
6.188160
 20
2.901360
  0
VERTEX
  8
0
  6
CONTINUOUS
 10
6.671720
 20
2.901360
  0
VERTEX
  8
0
  6
CONTINUOUS
 10
6.035480
 20
2.538800
  0
VERTEX
  8
0
  6
CONTINUOUS
 10
5.551920
 20
2.538800
  0
SEQEND
  8
0
  0
SOLID
  8
0
 62
    15
 10
6.035480
 20
2.538800
 11
6.671720
 21
2.901360
 12
7.231840
 22
2.438920
 13
7.868080
 23
2.801480
  0
POLYLINE
  8
0
  6
CONTINUOUS
 66
     1
 40
0.000000
 41
0.000000
  0
VERTEX
  8
0
  6
CONTINUOUS
 10
6.035480
 20
2.538800
  0
VERTEX
  8
0
  6
CONTINUOUS
 10
6.671720
 20
2.901360
  0
VERTEX
  8
0
  6
CONTINUOUS
 10
7.868080
 20
2.801480
  0
VERTEX
  8
0
  6
CONTINUOUS
 10
7.231840
 20
2.438920
  0
VERTEX
  8
0
  6
CONTINUOUS
 10
6.035480
 20
2.538800
  0
SEQEND
  8
0
  0
SOLID
  8
0
 62
    15
 10
7.231840
 20
2.438920
 11
7.868080
 21
2.801480
 12
7.277160
 22
2.432320
 13
7.913400
 23
2.794880
  0
POLYLINE
  8
0
  6
CONTINUOUS
 66
     1
 40
0.000000
 41
0.000000
  0
VERTEX
  8
0
  6
CONTINUOUS
 10
7.231840
 20
2.438920
  0
VERTEX
  8
0
  6
CONTINUOUS
 10
7.868080
 20
2.801480
  0
VERTEX
  8
0
  6
CONTINUOUS
 10
7.913400
 20
2.794880
  0
VERTEX
  8
0
  6
CONTINUOUS
 10
7.277160
 20
2.432320
  0
VERTEX
  8
0
  6
CONTINUOUS
 10
7.231840
 20
2.438920
  0
SEQEND
  8
0
  0
SOLID
  8
0
 62
    15
 10
7.277160
 20
2.432320
 11
7.913400
 21
2.794880
 12
7.288160
 22
2.422200
 13
7.924400
 23
2.784760
  0
POLYLINE
  8
0
  6
CONTINUOUS
 66
     1
 40
0.000000
 41
0.000000
  0
VERTEX
  8
0
  6
CONTINUOUS
 10
7.277160
 20
2.432320
  0
VERTEX
  8
0
  6
CONTINUOUS
 10
7.913400
 20
2.794880
  0
VERTEX
  8
0
  6
CONTINUOUS
 10
7.924400
 20
2.784760
  0
VERTEX
  8
0
  6
CONTINUOUS
 10
7.288160
 20
2.422200
  0
VERTEX
  8
0
  6
CONTINUOUS
 10
7.277160
 20
2.432320
  0
SEQEND
  8
0
  0
SOLID
  8
0
 62
    15
 10
7.288160
 20
2.422200
 11
7.924400
 21
2.784760
 12
7.291680
 22
2.400640
 13
7.927920
 23
2.763200
  0
POLYLINE
  8
0
  6
CONTINUOUS
 66
     1
 40
0.000000
 41
0.000000
  0
VERTEX
  8
0
  6
CONTINUOUS
 10
7.288160
 20
2.422200
  0
VERTEX
  8
0
  6
CONTINUOUS
 10
7.924400
 20
2.784760
  0
VERTEX
  8
0
  6
CONTINUOUS
 10
7.927920
 20
2.763200
  0
VERTEX
  8
0
  6
CONTINUOUS
 10
7.291680
 20
2.400640
  0
VERTEX
  8
0
  6
CONTINUOUS
 10
7.288160
 20
2.422200
  0
SEQEND
  8
0
  0
SOLID
  8
0
 62
    15
 10
7.291680
 20
2.400640
 11
7.927920
 21
2.763200
 12
7.300040
 22
2.346960
 13
7.936280
 23
2.709520
  0
POLYLINE
  8
0
  6
CONTINUOUS
 66
     1
 40
0.000000
 41
0.000000
  0
VERTEX
  8
0
  6
CONTINUOUS
 10
7.291680
 20
2.400640
  0
VERTEX
  8
0
  6
CONTINUOUS
 10
7.927920
 20
2.763200
  0
VERTEX
  8
0
  6
CONTINUOUS
 10
7.936280
 20
2.709520
  0
VERTEX
  8
0
  6
CONTINUOUS
 10
7.300040
 20
2.346960
  0
VERTEX
  8
0
  6
CONTINUOUS
 10
7.291680
 20
2.400640
  0
SEQEND
  8
0
  0
SOLID
  8
0
 62
    15
 10
7.300040
 20
2.346960
 11
7.936280
 21
2.709520
 12
7.318960
 22
2.296360
 13
7.955200
 23
2.658920
  0
POLYLINE
  8
0
  6
CONTINUOUS
 66
     1
 40
0.000000
 41
0.000000
  0
VERTEX
  8
0
  6
CONTINUOUS
 10
7.300040
 20
2.346960
  0
VERTEX
  8
0
  6
CONTINUOUS
 10
7.936280
 20
2.709520
  0
VERTEX
  8
0
  6
CONTINUOUS
 10
7.955200
 20
2.658920
  0
VERTEX
  8
0
  6
CONTINUOUS
 10
7.318960
 20
2.296360
  0
VERTEX
  8
0
  6
CONTINUOUS
 10
7.300040
 20
2.346960
  0
SEQEND
  8
0
  0
SOLID
  8
0
 62
    15
 10
3.870240
 20
2.439360
 11
4.506480
 21
2.801920
 12
5.066600
 22
2.539240
 13
5.702840
 23
2.901800
  0
POLYLINE
  8
0
  6
CONTINUOUS
 66
     1
 40
0.000000
 41
0.000000
  0
VERTEX
  8
0
  6
CONTINUOUS
 10
3.870240
 20
2.439360
  0
VERTEX
  8
0
  6
CONTINUOUS
 10
4.506480
 20
2.801920
  0
VERTEX
  8
0
  6
CONTINUOUS
 10
5.702840
 20
2.901800
  0
VERTEX
  8
0
  6
CONTINUOUS
 10
5.066600
 20
2.539240
  0
VERTEX
  8
0
  6
CONTINUOUS
 10
3.870240
 20
2.439360
  0
SEQEND
  8
0
  0
SOLID
  8
0
 62
    15
 10
7.378800
 20
2.209680
 11
8.015480
 21
2.572240
 12
7.453160
 22
2.145440
 13
8.089400
 23
2.508000
  0
POLYLINE
  8
0
  6
CONTINUOUS
 66
     1
 40
0.000000
 41
0.000000
  0
VERTEX
  8
0
  6
CONTINUOUS
 10
7.378800
 20
2.209680
  0
VERTEX
  8
0
  6
CONTINUOUS
 10
8.015480
 20
2.572240
  0
VERTEX
  8
0
  6
CONTINUOUS
 10
8.089400
 20
2.508000
  0
VERTEX
  8
0
  6
CONTINUOUS
 10
7.453160
 20
2.145440
  0
VERTEX
  8
0
  6
CONTINUOUS
 10
7.378800
 20
2.209680
  0
SEQEND
  8
0
  0
SOLID
  8
0
 62
    15
 10
7.453160
 20
2.145440
 11
8.089400
 21
2.508000
 12
7.489240
 22
2.124320
 13
8.125480
 23
2.486880
  0
POLYLINE
  8
0
  6
CONTINUOUS
 66
     1
 40
0.000000
 41
0.000000
  0
VERTEX
  8
0
  6
CONTINUOUS
 10
7.453160
 20
2.145440
  0
VERTEX
  8
0
  6
CONTINUOUS
 10
8.089400
 20
2.508000
  0
VERTEX
  8
0
  6
CONTINUOUS
 10
8.125480
 20
2.486880
  0
VERTEX
  8
0
  6
CONTINUOUS
 10
7.489240
 20
2.124320
  0
VERTEX
  8
0
  6
CONTINUOUS
 10
7.453160
 20
2.145440
  0
SEQEND
  8
0
  0
SOLID
  8
0
 62
    15
 10
7.489240
 20
2.124320
 11
8.125480
 21
2.486880
 12
7.521800
 22
2.110680
 13
8.158040
 23
2.473240
  0
POLYLINE
  8
0
  6
CONTINUOUS
 66
     1
 40
0.000000
 41
0.000000
  0
VERTEX
  8
0
  6
CONTINUOUS
 10
7.489240
 20
2.124320
  0
VERTEX
  8
0
  6
CONTINUOUS
 10
8.125480
 20
2.486880
  0
VERTEX
  8
0
  6
CONTINUOUS
 10
8.158040
 20
2.473240
  0
VERTEX
  8
0
  6
CONTINUOUS
 10
7.521800
 20
2.110680
  0
VERTEX
  8
0
  6
CONTINUOUS
 10
7.489240
 20
2.124320
  0
SEQEND
  8
0
  0
SOLID
  8
0
 62
    15
 10
7.521800
 20
2.110680
 11
8.158040
 21
2.473240
 12
7.541160
 22
2.101880
 13
8.177400
 23
2.464440
  0
POLYLINE
  8
0
  6
CONTINUOUS
 66
     1
 40
0.000000
 41
0.000000
  0
VERTEX
  8
0
  6
CONTINUOUS
 10
7.521800
 20
2.110680
  0
VERTEX
  8
0
  6
CONTINUOUS
 10
8.158040
 20
2.473240
  0
VERTEX
  8
0
  6
CONTINUOUS
 10
8.177400
 20
2.464440
  0
VERTEX
  8
0
  6
CONTINUOUS
 10
7.541160
 20
2.101880
  0
VERTEX
  8
0
  6
CONTINUOUS
 10
7.521800
 20
2.110680
  0
SEQEND
  8
0
  0
SOLID
  8
0
 62
    15
 10
7.541160
 20
2.101880
 11
8.177400
 21
2.464440
 12
7.551720
 22
2.086040
 13
8.187960
 23
2.448600
  0
POLYLINE
  8
0
  6
CONTINUOUS
 66
     1
 40
0.000000
 41
0.000000
  0
VERTEX
  8
0
  6
CONTINUOUS
 10
7.541160
 20
2.101880
  0
VERTEX
  8
0
  6
CONTINUOUS
 10
8.177400
 20
2.464440
  0
VERTEX
  8
0
  6
CONTINUOUS
 10
8.187960
 20
2.448600
  0
VERTEX
  8
0
  6
CONTINUOUS
 10
7.551720
 20
2.086040
  0
VERTEX
  8
0
  6
CONTINUOUS
 10
7.541160
 20
2.101880
  0
SEQEND
  8
0
  0
SOLID
  8
0
 62
    15
 10
7.551720
 20
2.086040
 11
8.187960
 21
2.448600
 12
7.557440
 22
2.045120
 13
8.193680
 23
2.407680
  0
POLYLINE
  8
0
  6
CONTINUOUS
 66
     1
 40
0.000000
 41
0.000000
  0
VERTEX
  8
0
  6
CONTINUOUS
 10
7.551720
 20
2.086040
  0
VERTEX
  8
0
  6
CONTINUOUS
 10
8.187960
 20
2.448600
  0
VERTEX
  8
0
  6
CONTINUOUS
 10
8.193680
 20
2.407680
  0
VERTEX
  8
0
  6
CONTINUOUS
 10
7.557440
 20
2.045120
  0
VERTEX
  8
0
  6
CONTINUOUS
 10
7.551720
 20
2.086040
  0
SEQEND
  8
0
  0
SOLID
  8
0
 62
    15
 10
7.557440
 20
2.045120
 11
8.193680
 21
2.407680
 12
7.557440
 22
1.091200
 13
8.193680
 23
1.453760
  0
POLYLINE
  8
0
  6
CONTINUOUS
 66
     1
 40
0.000000
 41
0.000000
  0
VERTEX
  8
0
  6
CONTINUOUS
 10
7.557440
 20
2.045120
  0
VERTEX
  8
0
  6
CONTINUOUS
 10
8.193680
 20
2.407680
  0
VERTEX
  8
0
  6
CONTINUOUS
 10
8.193680
 20
1.453760
  0
VERTEX
  8
0
  6
CONTINUOUS
 10
7.557440
 20
1.091200
  0
VERTEX
  8
0
  6
CONTINUOUS
 10
7.557440
 20
2.045120
  0
SEQEND
  8
0
  0
SOLID
  8
0
 62
    15
 10
7.557440
 20
1.091200
 11
8.193680
 21
1.453760
 12
7.557000
 22
1.087680
 13
8.193240
 23
1.450240
  0
POLYLINE
  8
0
  6
CONTINUOUS
 66
     1
 40
0.000000
 41
0.000000
  0
VERTEX
  8
0
  6
CONTINUOUS
 10
7.557440
 20
1.091200
  0
VERTEX
  8
0
  6
CONTINUOUS
 10
8.193680
 20
1.453760
  0
VERTEX
  8
0
  6
CONTINUOUS
 10
8.193240
 20
1.450240
  0
VERTEX
  8
0
  6
CONTINUOUS
 10
7.557000
 20
1.087680
  0
VERTEX
  8
0
  6
CONTINUOUS
 10
7.557440
 20
1.091200
  0
SEQEND
  8
0
  0
SOLID
  8
0
 62
    15
 10
7.557000
 20
1.087680
 11
8.193240
 21
1.450240
 12
7.552160
 22
1.038840
 13
8.188400
 23
1.401400
  0
POLYLINE
  8
0
  6
CONTINUOUS
 66
     1
 40
0.000000
 41
0.000000
  0
VERTEX
  8
0
  6
CONTINUOUS
 10
7.557000
 20
1.087680
  0
VERTEX
  8
0
  6
CONTINUOUS
 10
8.193240
 20
1.450240
  0
VERTEX
  8
0
  6
CONTINUOUS
 10
8.188400
 20
1.401400
  0
VERTEX
  8
0
  6
CONTINUOUS
 10
7.552160
 20
1.038840
  0
VERTEX
  8
0
  6
CONTINUOUS
 10
7.557000
 20
1.087680
  0
SEQEND
  8
0
  0
SOLID
  8
0
 62
    15
 10
7.552160
 20
1.038840
 11
8.188400
 21
1.401400
 12
7.538080
 22
0.993520
 13
8.174320
 23
1.356080
  0
POLYLINE
  8
0
  6
CONTINUOUS
 66
     1
 40
0.000000
 41
0.000000
  0
VERTEX
  8
0
  6
CONTINUOUS
 10
7.552160
 20
1.038840
  0
VERTEX
  8
0
  6
CONTINUOUS
 10
8.188400
 20
1.401400
  0
VERTEX
  8
0
  6
CONTINUOUS
 10
8.174320
 20
1.356080
  0
VERTEX
  8
0
  6
CONTINUOUS
 10
7.538080
 20
0.993520
  0
VERTEX
  8
0
  6
CONTINUOUS
 10
7.552160
 20
1.038840
  0
SEQEND
  8
0
  0
SOLID
  8
0
 62
    15
 10
7.538080
 20
0.993520
 11
8.174320
 21
1.356080
 12
7.515640
 22
0.952600
 13
8.151880
 23
1.314720
  0
POLYLINE
  8
0
  6
CONTINUOUS
 66
     1
 40
0.000000
 41
0.000000
  0
VERTEX
  8
0
  6
CONTINUOUS
 10
7.538080
 20
0.993520
  0
VERTEX
  8
0
  6
CONTINUOUS
 10
8.174320
 20
1.356080
  0
VERTEX
  8
0
  6
CONTINUOUS
 10
8.151880
 20
1.314720
  0
VERTEX
  8
0
  6
CONTINUOUS
 10
7.515640
 20
0.952600
  0
VERTEX
  8
0
  6
CONTINUOUS
 10
7.538080
 20
0.993520
  0
SEQEND
  8
0
  0
SOLID
  8
0
 62
    15
 10
7.486160
 20
0.916520
 11
8.122400
 21
1.279080
 12
7.450080
 22
0.887040
 13
8.086320
 23
1.249600
  0
POLYLINE
  8
0
  6
CONTINUOUS
 66
     1
 40
0.000000
 41
0.000000
  0
VERTEX
  8
0
  6
CONTINUOUS
 10
7.486160
 20
0.916520
  0
VERTEX
  8
0
  6
CONTINUOUS
 10
8.122400
 20
1.279080
  0
VERTEX
  8
0
  6
CONTINUOUS
 10
8.086320
 20
1.249600
  0
VERTEX
  8
0
  6
CONTINUOUS
 10
7.450080
 20
0.887040
  0
VERTEX
  8
0
  6
CONTINUOUS
 10
7.486160
 20
0.916520
  0
SEQEND
  8
0
  0
SOLID
  8
0
 62
    15
 10
7.515640
 20
0.952600
 11
8.151880
 21
1.314720
 12
7.486160
 22
0.916520
 13
8.122400
 23
1.279080
  0
POLYLINE
  8
0
  6
CONTINUOUS
 66
     1
 40
0.000000
 41
0.000000
  0
VERTEX
  8
0
  6
CONTINUOUS
 10
7.515640
 20
0.952600
  0
VERTEX
  8
0
  6
CONTINUOUS
 10
8.151880
 20
1.314720
  0
VERTEX
  8
0
  6
CONTINUOUS
 10
8.122400
 20
1.279080
  0
VERTEX
  8
0
  6
CONTINUOUS
 10
7.486160
 20
0.916520
  0
VERTEX
  8
0
  6
CONTINUOUS
 10
7.515640
 20
0.952600
  0
SEQEND
  8
0
  0
POLYLINE
  8
0
  6
CONTINUOUS
 66
     1
 40
0.000000
 41
0.000000
  0
VERTEX
  8
0
  6
CONTINUOUS
 10
3.787080
 20
0.846120
  0
VERTEX
  8
0
  6
CONTINUOUS
 10
3.738240
 20
0.850960
  0
VERTEX
  8
0
  6
CONTINUOUS
 10
3.692920
 20
0.865040
  0
VERTEX
  8
0
  6
CONTINUOUS
 10
3.651560
 20
0.887480
  0
VERTEX
  8
0
  6
CONTINUOUS
 10
3.615920
 20
0.916960
  0
VERTEX
  8
0
  6
CONTINUOUS
 10
3.586440
 20
0.952600
  0
VERTEX
  8
0
  6
CONTINUOUS
 10
3.564000
 20
0.993960
  0
VERTEX
  8
0
  6
CONTINUOUS
 10
3.549920
 20
1.039280
  0
VERTEX
  8
0
  6
CONTINUOUS
 10
3.544640
 20
1.091640
  0
VERTEX
  8
0
  6
CONTINUOUS
 10
3.544640
 20
2.045560
  0
VERTEX
  8
0
  6
CONTINUOUS
 10
3.550360
 20
2.086480
  0
VERTEX
  8
0
  6
CONTINUOUS
 10
3.560920
 20
2.102320
  0
VERTEX
  8
0
  6
CONTINUOUS
 10
3.612840
 20
2.124760
  0
VERTEX
  8
0
  6
CONTINUOUS
 10
3.648920
 20
2.145880
  0
VERTEX
  8
0
  6
CONTINUOUS
 10
3.722840
 20
2.210120
  0
VERTEX
  8
0
  6
CONTINUOUS
 10
3.783120
 20
2.296800
  0
VERTEX
  8
0
  6
CONTINUOUS
 10
3.802040
 20
2.347400
  0
VERTEX
  8
0
  6
CONTINUOUS
 10
3.813920
 20
2.422640
  0
VERTEX
  8
0
  6
CONTINUOUS
 10
3.824920
 20
2.432760
  0
VERTEX
  8
0
  6
CONTINUOUS
 10
3.870240
 20
2.439360
  0
VERTEX
  8
0
  6
CONTINUOUS
 10
5.066600
 20
2.539240
  0
VERTEX
  8
0
  6
CONTINUOUS
 10
6.035480
 20
2.538800
  0
VERTEX
  8
0
  6
CONTINUOUS
 10
7.231840
 20
2.438920
  0
VERTEX
  8
0
  6
CONTINUOUS
 10
7.277160
 20
2.432320
  0
VERTEX
  8
0
  6
CONTINUOUS
 10
7.288160
 20
2.422200
  0
VERTEX
  8
0
  6
CONTINUOUS
 10
7.300040
 20
2.346960
  0
VERTEX
  8
0
  6
CONTINUOUS
 10
7.318960
 20
2.296360
  0
VERTEX
  8
0
  6
CONTINUOUS
 10
7.378800
 20
2.209680
  0
VERTEX
  8
0
  6
CONTINUOUS
 10
7.453160
 20
2.145440
  0
VERTEX
  8
0
  6
CONTINUOUS
 10
7.489240
 20
2.124320
  0
VERTEX
  8
0
  6
CONTINUOUS
 10
7.541160
 20
2.101880
  0
VERTEX
  8
0
  6
CONTINUOUS
 10
7.551720
 20
2.086040
  0
VERTEX
  8
0
  6
CONTINUOUS
 10
7.557440
 20
2.045120
  0
VERTEX
  8
0
  6
CONTINUOUS
 10
7.557000
 20
1.087680
  0
VERTEX
  8
0
  6
CONTINUOUS
 10
7.552160
 20
1.038840
  0
VERTEX
  8
0
  6
CONTINUOUS
 10
7.538080
 20
0.993520
  0
VERTEX
  8
0
  6
CONTINUOUS
 10
7.515640
 20
0.952600
  0
VERTEX
  8
0
  6
CONTINUOUS
 10
7.486160
 20
0.916520
  0
VERTEX
  8
0
  6
CONTINUOUS
 10
7.450080
 20
0.887040
  0
VERTEX
  8
0
  6
CONTINUOUS
 10
7.409160
 20
0.864600
  0
VERTEX
  8
0
  6
CONTINUOUS
 10
7.363840
 20
0.850520
  0
VERTEX
  8
0
  6
CONTINUOUS
 10
7.315000
 20
0.845680
  0
VERTEX
  8
0
  6
CONTINUOUS
 10
3.787080
 20
0.846120
  0
SEQEND
  8
0
  0
TEXT
  8
0
 10
4.908640
 20
0.590920
 40
0.138095
  1
BA  1088 1-11/16" x 4"
 41
1.000000
  7
SN0
 71
     0
 72
     5
 11
6.585475
 21
0.590920
  0
TEXT
  8
0
 10
4.908640
 20
0.399520
 40
0.138095
  1
BA  562 Top
 41
1.000000
  7
SN0
 71
     0
 72
     5
 11
5.831562
 21
0.399520
  0
POLYLINE
  8
0
  6
CONTINUOUS
 66
     1
 40
0.014080
 41
0.014080
  0
VERTEX
  8
0
  6
CONTINUOUS
 10
4.198040
 20
3.193520
  0
VERTEX
  8
0
  6
CONTINUOUS
 10
4.161080
 20
3.196160
  0
VERTEX
  8
0
  6
CONTINUOUS
 10
4.126320
 20
3.204520
  0
VERTEX
  8
0
  6
CONTINUOUS
 10
4.103880
 20
3.212440
  0
VERTEX
  8
0
  6
CONTINUOUS
 10
4.082760
 20
3.222560
  0
VERTEX
  8
0
  6
CONTINUOUS
 10
4.044040
 20
3.248520
  0
VERTEX
  8
0
  6
CONTINUOUS
 10
4.026880
 20
3.264360
  0
VERTEX
  8
0
  6
CONTINUOUS
 10
4.011480
 20
3.281520
  0
VERTEX
  8
0
  6
CONTINUOUS
 10
3.997400
 20
3.300000
  0
VERTEX
  8
0
  6
CONTINUOUS
 10
3.985520
 20
3.319800
  0
VERTEX
  8
0
  6
CONTINUOUS
 10
3.974960
 20
3.340920
  0
VERTEX
  8
0
  6
CONTINUOUS
 10
3.967040
 20
3.363360
  0
VERTEX
  8
0
  6
CONTINUOUS
 10
3.958680
 20
3.398120
  0
VERTEX
  8
0
  6
CONTINUOUS
 10
3.956040
 20
3.439040
  0
VERTEX
  8
0
  6
CONTINUOUS
 10
3.956040
 20
4.392520
  0
VERTEX
  8
0
  6
CONTINUOUS
 10
3.956920
 20
4.413640
  0
VERTEX
  8
0
  6
CONTINUOUS
 10
3.961320
 20
4.433440
  0
VERTEX
  8
0
  6
CONTINUOUS
 10
3.968800
 20
4.446200
  0
VERTEX
  8
0
  6
CONTINUOUS
 10
3.980680
 20
4.455000
  0
VERTEX
  8
0
  6
CONTINUOUS
 10
4.007080
 20
4.464240
  0
VERTEX
  8
0
  6
CONTINUOUS
 10
4.024240
 20
4.471720
  0
VERTEX
  8
0
  6
CONTINUOUS
 10
4.060320
 20
4.493280
  0
VERTEX
  8
0
  6
CONTINUOUS
 10
4.097720
 20
4.521880
  0
VERTEX
  8
0
  6
CONTINUOUS
 10
4.134240
 20
4.557080
  0
VERTEX
  8
0
  6
CONTINUOUS
 10
4.167240
 20
4.598000
  0
VERTEX
  8
0
  6
CONTINUOUS
 10
4.181760
 20
4.620440
  0
VERTEX
  8
0
  6
CONTINUOUS
 10
4.194520
 20
4.644200
  0
VERTEX
  8
0
  6
CONTINUOUS
 10
4.209480
 20
4.681600
  0
VERTEX
  8
0
  6
CONTINUOUS
 10
4.216520
 20
4.707560
  0
VERTEX
  8
0
  6
CONTINUOUS
 10
4.223560
 20
4.765640
  0
VERTEX
  8
0
  6
CONTINUOUS
 10
4.227080
 20
4.773120
  0
VERTEX
  8
0
  6
CONTINUOUS
 10
4.235880
 20
4.779720
  0
VERTEX
  8
0
  6
CONTINUOUS
 10
4.244240
 20
4.782360
  0
VERTEX
  8
0
  6
CONTINUOUS
 10
4.281640
 20
4.786760
  0
VERTEX
  8
0
  6
CONTINUOUS
 10
5.477560
 20
4.886200
  0
VERTEX
  8
0
  6
CONTINUOUS
 10
6.446880
 20
4.886200
  0
VERTEX
  8
0
  6
CONTINUOUS
 10
7.657320
 20
4.784560
  0
VERTEX
  8
0
  6
CONTINUOUS
 10
7.679760
 20
4.781920
  0
VERTEX
  8
0
  6
CONTINUOUS
 10
7.691640
 20
4.777520
  0
VERTEX
  8
0
  6
CONTINUOUS
 10
7.699560
 20
4.769160
  0
VERTEX
  8
0
  6
CONTINUOUS
 10
7.702640
 20
4.754640
  0
VERTEX
  8
0
  6
CONTINUOUS
 10
7.705720
 20
4.720760
  0
VERTEX
  8
0
  6
CONTINUOUS
 10
7.711000
 20
4.694360
  0
VERTEX
  8
0
  6
CONTINUOUS
 10
7.719360
 20
4.668400
  0
VERTEX
  8
0
  6
CONTINUOUS
 10
7.729920
 20
4.643760
  0
VERTEX
  8
0
  6
CONTINUOUS
 10
7.742680
 20
4.620440
  0
VERTEX
  8
0
  6
CONTINUOUS
 10
7.773040
 20
4.576880
  0
VERTEX
  8
0
  6
CONTINUOUS
 10
7.790200
 20
4.556640
  0
VERTEX
  8
0
  6
CONTINUOUS
 10
7.826720
 20
4.521880
  0
VERTEX
  8
0
  6
CONTINUOUS
 10
7.864120
 20
4.492840
  0
VERTEX
  8
0
  6
CONTINUOUS
 10
7.900200
 20
4.471720
  0
VERTEX
  8
0
  6
CONTINUOUS
 10
7.932760
 20
4.458080
  0
VERTEX
  8
0
  6
CONTINUOUS
 10
7.948160
 20
4.452360
  0
VERTEX
  8
0
  6
CONTINUOUS
 10
7.958720
 20
4.441800
  0
VERTEX
  8
0
  6
CONTINUOUS
 10
7.963120
 20
4.433440
  0
VERTEX
  8
0
  6
CONTINUOUS
 10
7.967520
 20
4.413200
  0
VERTEX
  8
0
  6
CONTINUOUS
 10
7.968400
 20
4.392080
  0
VERTEX
  8
0
  6
CONTINUOUS
 10
7.967960
 20
3.434640
  0
VERTEX
  8
0
  6
CONTINUOUS
 10
7.965320
 20
3.397680
  0
VERTEX
  8
0
  6
CONTINUOUS
 10
7.956960
 20
3.362920
  0
VERTEX
  8
0
  6
CONTINUOUS
 10
7.949040
 20
3.340480
  0
VERTEX
  8
0
  6
CONTINUOUS
 10
7.938920
 20
3.319360
  0
VERTEX
  8
0
  6
CONTINUOUS
 10
7.926600
 20
3.299560
  0
VERTEX
  8
0
  6
CONTINUOUS
 10
7.912960
 20
3.281080
  0
VERTEX
  8
0
  6
CONTINUOUS
 10
7.897120
 20
3.263920
  0
VERTEX
  8
0
  6
CONTINUOUS
 10
7.879960
 20
3.248080
  0
VERTEX
  8
0
  6
CONTINUOUS
 10
7.861480
 20
3.234440
  0
VERTEX
  8
0
  6
CONTINUOUS
 10
7.841680
 20
3.222120
  0
VERTEX
  8
0
  6
CONTINUOUS
 10
7.820560
 20
3.212000
  0
VERTEX
  8
0
  6
CONTINUOUS
 10
7.798120
 20
3.204080
  0
VERTEX
  8
0
  6
CONTINUOUS
 10
7.763360
 20
3.195720
  0
VERTEX
  8
0
  6
CONTINUOUS
 10
7.726400
 20
3.193080
  0
VERTEX
  8
0
  6
CONTINUOUS
 10
4.198040
 20
3.193520
  0
SEQEND
  8
0
  0
TEXT
  8
0
 10
5.154160
 20
3.693800
 40
0.138095
  1
BA  1088 1-11/16" x 4"
 41
1.000000
  7
SN0
 71
     0
 72
     5
 11
6.830995
 21
3.693800
  0
TEXT
  8
0
 10
5.531680
 20
3.501960
 40
0.138095
  1
BA  562 Top
 41
1.000000
  7
SN0
 71
     0
 72
     5
 11
6.454602
 21
3.501960
  0
ENDSEC
  0
EOF
