  0
SECTION
  2
HEADER
  9
$ACADVER
  1
AC1006
  9
$EXTMIN
 10
0.440000
 20
0.468160
  9
$EXTMAX
 10
7.918680
 20
7.387160
  9
$LTSCALE
 40
0.044000
  9
$PDMODE
 70
    35
  9
$PDSIZE
 40
0.035200
  0
ENDSEC
  0
SECTION
  2
TABLES
  0
TABLE
  2
LTYPE
 70
     9
  0
LTYPE
  2
CONTINUOUS
 70
    64
  3
Solid line
 72
    65
 73
     0
 40
0.000000
  0
LTYPE
  2
DASHED
 70
    64
  3
__ __ __ __ __ __ __ __ __ __ __ __ __ __ __
 72
    65
 73
     2
 40
0.000330
 49
0.000220
 49
-0.000110
  0
LTYPE
  2
HIDDEN
 70
    64
  3
 _ _ _ _ _ _ _ _ _ _ _ _ _ _ _ _ _ _ _ _ _ _
 72
    65
 73
     2
 40
0.000165
 49
0.000110
 49
-0.000055
  0
LTYPE
  2
CENTER
 70
    64
  3
____ _ ____ _ ____ _ ____ _ ____ _ ____ _ ____
 72
    65
 73
     4
 40
0.000880
 49
0.000550
 49
-0.000110
 49
0.000110
 49
-0.000110
  0
LTYPE
  2
PHANTOM
 70
    64
  3
_____ _ _ _____ _ _ _____ _ _ _____ _ _ ____
 72
    65
 73
     6
 40
0.001100
 49
0.000550
 49
-0.000110
 49
0.000110
 49
-0.000110
 49
0.000110
 49
-0.000110
  0
LTYPE
  2
DOT
 70
    64
  3
...............................................
 72
    65
 73
     2
 40
0.000110
 49
0.000000
 49
-0.000110
  0
LTYPE
  2
DASHDOT
 70
    64
  3
__ . __ . __ . __ . __ . __ . __ . __ . __ . __
 72
    65
 73
     4
 40
0.000440
 49
0.000220
 49
-0.000110
 49
0.000000
 49
-0.000110
  0
LTYPE
  2
BORDER
 70
    64
  3
__ __ . __ __ . __ __ . __ __ . __ __ . __ __
 72
    65
 73
     6
 40
0.000770
 49
0.000220
 49
-0.000110
 49
0.000220
 49
-0.000110
 49
0.000000
 49
-0.000110
  0
LTYPE
  2
DIVIDE
 70
    64
  3
__ . . __ . . __ . . __ . . __ . . __ . . __
 72
    65
 73
     6
 40
0.000550
 49
0.000220
 49
-0.000110
 49
0.000000
 49
-0.000110
 49
0.000000
 49
-0.000110
  0
LTYPE
  2
DOTDOT
 70
    64
  3
 . .  . .  . .  . .  . .  . . 
 72
    65
 73
     5
 40
0.000242
 49
-0.000110
 49
0.000000
 49
-0.000110
 49
0.000000
 49
-0.000110
  0
ENDTAB
  0
TABLE
  2
STYLE
 70
     2
  0
STYLE
 70
     0
  2
SN0
 40
0.000000
 41
0.000440
 50
0.000000
 71
     0
 42
0.000000
  3
ROMAND
  0
STYLE
 70
    68
  2
SV0
 40
0.000000
 41
0.000440
 50
0.000000
 71
     0
 42
0.000000
  3
ROMAND
  0
ENDTAB
  0
TABLE
  2
LAYER
 70
     3
  0
LAYER
  2
FOREGROUND
 70
    64
 62
     7
  6
CONTINUOUS
  0
LAYER
  2
BACKGROUND
 70
    65
 62
    -7
  6
CONTINUOUS
  0
LAYER
  2
0
 70
    64
 62
     7
  6
CONTINUOUS
  0
ENDTAB
  0
ENDSEC
  0
SECTION
  2
ENTITIES
  0
POLYLINE
  8
FOREGROUND
  6
CONTINUOUS
 66
     1
 40
0.000000
 41
0.000000
  0
VERTEX
  8
FOREGROUND
  6
CONTINUOUS
 10
0.000000
 20
7.855320
  0
VERTEX
  8
FOREGROUND
  6
CONTINUOUS
 10
8.499920
 20
7.855320
  0
VERTEX
  8
FOREGROUND
  6
CONTINUOUS
 10
8.499920
 20
-3.144680
  0
VERTEX
  8
FOREGROUND
  6
CONTINUOUS
 10
0.000000
 20
-3.144680
  0
VERTEX
  8
FOREGROUND
  6
CONTINUOUS
 10
0.000000
 20
7.855320
  0
SEQEND
  8
0
  0
POLYLINE
  8
FOREGROUND
  6
CONTINUOUS
 66
     1
 40
0.000000
 41
0.000000
  0
VERTEX
  8
FOREGROUND
  6
CONTINUOUS
 10
0.000000
 20
7.855320
  0
VERTEX
  8
FOREGROUND
  6
CONTINUOUS
 10
8.499920
 20
7.855320
  0
VERTEX
  8
FOREGROUND
  6
CONTINUOUS
 10
8.499920
 20
-3.144680
  0
VERTEX
  8
FOREGROUND
  6
CONTINUOUS
 10
0.000000
 20
-3.144680
  0
VERTEX
  8
FOREGROUND
  6
CONTINUOUS
 10
0.000000
 20
7.855320
  0
SEQEND
  8
0
  0
SOLID
  8
0
 62
    15
 10
0.795520
 20
6.995560
 11
1.442320
 21
7.362080
 12
0.798600
 22
6.979720
 13
1.445400
 23
7.346680
  0
POLYLINE
  8
0
  6
CONTINUOUS
 66
     1
 40
0.000000
 41
0.000000
  0
VERTEX
  8
0
  6
CONTINUOUS
 10
0.795520
 20
6.995560
  0
VERTEX
  8
0
  6
CONTINUOUS
 10
1.442320
 20
7.362080
  0
VERTEX
  8
0
  6
CONTINUOUS
 10
1.445400
 20
7.346680
  0
VERTEX
  8
0
  6
CONTINUOUS
 10
0.798600
 20
6.979720
  0
VERTEX
  8
0
  6
CONTINUOUS
 10
0.795520
 20
6.995560
  0
SEQEND
  8
0
  0
SOLID
  8
0
 62
    15
 10
0.922680
 20
6.425760
 11
1.569480
 21
6.792720
 12
0.922680
 22
6.021840
 13
1.569480
 23
6.388800
  0
POLYLINE
  8
0
  6
CONTINUOUS
 66
     1
 40
0.000000
 41
0.000000
  0
VERTEX
  8
0
  6
CONTINUOUS
 10
0.922680
 20
6.425760
  0
VERTEX
  8
0
  6
CONTINUOUS
 10
1.569480
 20
6.792720
  0
VERTEX
  8
0
  6
CONTINUOUS
 10
1.569480
 20
6.388800
  0
VERTEX
  8
0
  6
CONTINUOUS
 10
0.922680
 20
6.021840
  0
VERTEX
  8
0
  6
CONTINUOUS
 10
0.922680
 20
6.425760
  0
SEQEND
  8
0
  0
SOLID
  8
0
 62
    15
 10
0.922680
 20
6.021840
 11
1.569480
 21
6.388800
 12
1.017280
 22
6.021840
 13
1.664080
 23
6.388800
  0
POLYLINE
  8
0
  6
CONTINUOUS
 66
     1
 40
0.000000
 41
0.000000
  0
VERTEX
  8
0
  6
CONTINUOUS
 10
0.922680
 20
6.021840
  0
VERTEX
  8
0
  6
CONTINUOUS
 10
1.569480
 20
6.388800
  0
VERTEX
  8
0
  6
CONTINUOUS
 10
1.664080
 20
6.388800
  0
VERTEX
  8
0
  6
CONTINUOUS
 10
1.017280
 20
6.021840
  0
VERTEX
  8
0
  6
CONTINUOUS
 10
0.922680
 20
6.021840
  0
SEQEND
  8
0
  0
SOLID
  8
0
 62
    15
 10
1.032680
 20
6.018760
 11
1.679480
 21
6.385720
 12
1.045440
 22
6.010400
 13
1.692240
 23
6.376920
  0
POLYLINE
  8
0
  6
CONTINUOUS
 66
     1
 40
0.000000
 41
0.000000
  0
VERTEX
  8
0
  6
CONTINUOUS
 10
1.032680
 20
6.018760
  0
VERTEX
  8
0
  6
CONTINUOUS
 10
1.679480
 20
6.385720
  0
VERTEX
  8
0
  6
CONTINUOUS
 10
1.692240
 20
6.376920
  0
VERTEX
  8
0
  6
CONTINUOUS
 10
1.045440
 20
6.010400
  0
VERTEX
  8
0
  6
CONTINUOUS
 10
1.032680
 20
6.018760
  0
SEQEND
  8
0
  0
SOLID
  8
0
 62
    15
 10
1.045440
 20
6.010400
 11
1.692240
 21
6.376920
 12
1.053800
 22
5.997640
 13
1.700600
 23
6.364160
  0
POLYLINE
  8
0
  6
CONTINUOUS
 66
     1
 40
0.000000
 41
0.000000
  0
VERTEX
  8
0
  6
CONTINUOUS
 10
1.045440
 20
6.010400
  0
VERTEX
  8
0
  6
CONTINUOUS
 10
1.692240
 20
6.376920
  0
VERTEX
  8
0
  6
CONTINUOUS
 10
1.700600
 20
6.364160
  0
VERTEX
  8
0
  6
CONTINUOUS
 10
1.053800
 20
5.997640
  0
VERTEX
  8
0
  6
CONTINUOUS
 10
1.045440
 20
6.010400
  0
SEQEND
  8
0
  0
SOLID
  8
0
 62
    15
 10
1.053800
 20
5.997640
 11
1.700600
 21
6.364160
 12
1.056880
 22
5.981800
 13
1.704120
 23
6.348760
  0
POLYLINE
  8
0
  6
CONTINUOUS
 66
     1
 40
0.000000
 41
0.000000
  0
VERTEX
  8
0
  6
CONTINUOUS
 10
1.053800
 20
5.997640
  0
VERTEX
  8
0
  6
CONTINUOUS
 10
1.700600
 20
6.364160
  0
VERTEX
  8
0
  6
CONTINUOUS
 10
1.704120
 20
6.348760
  0
VERTEX
  8
0
  6
CONTINUOUS
 10
1.056880
 20
5.981800
  0
VERTEX
  8
0
  6
CONTINUOUS
 10
1.053800
 20
5.997640
  0
SEQEND
  8
0
  0
SOLID
  8
0
 62
    15
 10
1.056880
 20
5.981800
 11
1.704120
 21
6.348760
 12
1.056880
 22
1.015520
 13
1.704120
 23
1.382480
  0
POLYLINE
  8
0
  6
CONTINUOUS
 66
     1
 40
0.000000
 41
0.000000
  0
VERTEX
  8
0
  6
CONTINUOUS
 10
1.056880
 20
5.981800
  0
VERTEX
  8
0
  6
CONTINUOUS
 10
1.704120
 20
6.348760
  0
VERTEX
  8
0
  6
CONTINUOUS
 10
1.704120
 20
1.382480
  0
VERTEX
  8
0
  6
CONTINUOUS
 10
1.056880
 20
1.015520
  0
VERTEX
  8
0
  6
CONTINUOUS
 10
1.056880
 20
5.981800
  0
SEQEND
  8
0
  0
SOLID
  8
0
 62
    15
 10
0.440880
 20
7.019760
 11
1.088120
 21
7.386720
 12
0.758560
 22
7.019760
 13
1.405360
 23
7.386720
  0
POLYLINE
  8
0
  6
CONTINUOUS
 66
     1
 40
0.000000
 41
0.000000
  0
VERTEX
  8
0
  6
CONTINUOUS
 10
0.440880
 20
7.019760
  0
VERTEX
  8
0
  6
CONTINUOUS
 10
1.088120
 20
7.386720
  0
VERTEX
  8
0
  6
CONTINUOUS
 10
1.405360
 20
7.386720
  0
VERTEX
  8
0
  6
CONTINUOUS
 10
0.758560
 20
7.019760
  0
VERTEX
  8
0
  6
CONTINUOUS
 10
0.440880
 20
7.019760
  0
SEQEND
  8
0
  0
SOLID
  8
0
 62
    15
 10
0.758560
 20
7.019760
 11
1.405360
 21
7.386720
 12
0.773960
 22
7.016680
 13
1.421200
 23
7.383640
  0
POLYLINE
  8
0
  6
CONTINUOUS
 66
     1
 40
0.000000
 41
0.000000
  0
VERTEX
  8
0
  6
CONTINUOUS
 10
0.758560
 20
7.019760
  0
VERTEX
  8
0
  6
CONTINUOUS
 10
1.405360
 20
7.386720
  0
VERTEX
  8
0
  6
CONTINUOUS
 10
1.421200
 20
7.383640
  0
VERTEX
  8
0
  6
CONTINUOUS
 10
0.773960
 20
7.016680
  0
VERTEX
  8
0
  6
CONTINUOUS
 10
0.758560
 20
7.019760
  0
SEQEND
  8
0
  0
SOLID
  8
0
 62
    15
 10
0.773960
 20
7.016680
 11
1.421200
 21
7.383640
 12
0.786720
 22
7.008320
 13
1.433960
 23
7.374840
  0
POLYLINE
  8
0
  6
CONTINUOUS
 66
     1
 40
0.000000
 41
0.000000
  0
VERTEX
  8
0
  6
CONTINUOUS
 10
0.773960
 20
7.016680
  0
VERTEX
  8
0
  6
CONTINUOUS
 10
1.421200
 20
7.383640
  0
VERTEX
  8
0
  6
CONTINUOUS
 10
1.433960
 20
7.374840
  0
VERTEX
  8
0
  6
CONTINUOUS
 10
0.786720
 20
7.008320
  0
VERTEX
  8
0
  6
CONTINUOUS
 10
0.773960
 20
7.016680
  0
SEQEND
  8
0
  0
SOLID
  8
0
 62
    15
 10
0.786720
 20
7.008320
 11
1.433960
 21
7.374840
 12
0.795520
 22
6.995560
 13
1.442320
 23
7.362080
  0
POLYLINE
  8
0
  6
CONTINUOUS
 66
     1
 40
0.000000
 41
0.000000
  0
VERTEX
  8
0
  6
CONTINUOUS
 10
0.786720
 20
7.008320
  0
VERTEX
  8
0
  6
CONTINUOUS
 10
1.433960
 20
7.374840
  0
VERTEX
  8
0
  6
CONTINUOUS
 10
1.442320
 20
7.362080
  0
VERTEX
  8
0
  6
CONTINUOUS
 10
0.795520
 20
6.995560
  0
VERTEX
  8
0
  6
CONTINUOUS
 10
0.786720
 20
7.008320
  0
SEQEND
  8
0
  0
SOLID
  8
0
 62
    15
 10
1.017280
 20
6.021840
 11
1.664080
 21
6.388800
 12
1.032680
 22
6.018760
 13
1.679480
 23
6.385720
  0
POLYLINE
  8
0
  6
CONTINUOUS
 66
     1
 40
0.000000
 41
0.000000
  0
VERTEX
  8
0
  6
CONTINUOUS
 10
1.017280
 20
6.021840
  0
VERTEX
  8
0
  6
CONTINUOUS
 10
1.664080
 20
6.388800
  0
VERTEX
  8
0
  6
CONTINUOUS
 10
1.679480
 20
6.385720
  0
VERTEX
  8
0
  6
CONTINUOUS
 10
1.032680
 20
6.018760
  0
VERTEX
  8
0
  6
CONTINUOUS
 10
1.017280
 20
6.021840
  0
SEQEND
  8
0
  0
SOLID
  8
0
 62
    15
 10
0.798600
 20
6.979720
 11
1.445400
 21
7.346680
 12
0.798600
 22
6.852560
 13
1.445400
 23
7.219520
  0
POLYLINE
  8
0
  6
CONTINUOUS
 66
     1
 40
0.000000
 41
0.000000
  0
VERTEX
  8
0
  6
CONTINUOUS
 10
0.798600
 20
6.979720
  0
VERTEX
  8
0
  6
CONTINUOUS
 10
1.445400
 20
7.346680
  0
VERTEX
  8
0
  6
CONTINUOUS
 10
1.445400
 20
7.219520
  0
VERTEX
  8
0
  6
CONTINUOUS
 10
0.798600
 20
6.852560
  0
VERTEX
  8
0
  6
CONTINUOUS
 10
0.798600
 20
6.979720
  0
SEQEND
  8
0
  0
SOLID
  8
0
 62
    15
 10
0.798600
 20
6.852560
 11
1.445400
 21
7.219520
 12
0.799920
 22
6.846400
 13
1.446720
 23
7.213360
  0
POLYLINE
  8
0
  6
CONTINUOUS
 66
     1
 40
0.000000
 41
0.000000
  0
VERTEX
  8
0
  6
CONTINUOUS
 10
0.798600
 20
6.852560
  0
VERTEX
  8
0
  6
CONTINUOUS
 10
1.445400
 20
7.219520
  0
VERTEX
  8
0
  6
CONTINUOUS
 10
1.446720
 20
7.213360
  0
VERTEX
  8
0
  6
CONTINUOUS
 10
0.799920
 20
6.846400
  0
VERTEX
  8
0
  6
CONTINUOUS
 10
0.798600
 20
6.852560
  0
SEQEND
  8
0
  0
SOLID
  8
0
 62
    15
 10
0.799920
 20
6.846400
 11
1.446720
 21
7.213360
 12
0.799920
 22
6.519040
 13
1.446720
 23
6.886000
  0
POLYLINE
  8
0
  6
CONTINUOUS
 66
     1
 40
0.000000
 41
0.000000
  0
VERTEX
  8
0
  6
CONTINUOUS
 10
0.799920
 20
6.846400
  0
VERTEX
  8
0
  6
CONTINUOUS
 10
1.446720
 20
7.213360
  0
VERTEX
  8
0
  6
CONTINUOUS
 10
1.446720
 20
6.886000
  0
VERTEX
  8
0
  6
CONTINUOUS
 10
0.799920
 20
6.519040
  0
VERTEX
  8
0
  6
CONTINUOUS
 10
0.799920
 20
6.846400
  0
SEQEND
  8
0
  0
SOLID
  8
0
 62
    15
 10
0.799920
 20
6.519040
 11
1.446720
 21
6.886000
 12
0.882200
 22
6.519040
 13
1.529000
 23
6.886000
  0
POLYLINE
  8
0
  6
CONTINUOUS
 66
     1
 40
0.000000
 41
0.000000
  0
VERTEX
  8
0
  6
CONTINUOUS
 10
0.799920
 20
6.519040
  0
VERTEX
  8
0
  6
CONTINUOUS
 10
1.446720
 20
6.886000
  0
VERTEX
  8
0
  6
CONTINUOUS
 10
1.529000
 20
6.886000
  0
VERTEX
  8
0
  6
CONTINUOUS
 10
0.882200
 20
6.519040
  0
VERTEX
  8
0
  6
CONTINUOUS
 10
0.799920
 20
6.519040
  0
SEQEND
  8
0
  0
SOLID
  8
0
 62
    15
 10
0.882200
 20
6.519040
 11
1.529000
 21
6.886000
 12
0.897600
 22
6.515960
 13
1.544840
 23
6.882920
  0
POLYLINE
  8
0
  6
CONTINUOUS
 66
     1
 40
0.000000
 41
0.000000
  0
VERTEX
  8
0
  6
CONTINUOUS
 10
0.882200
 20
6.519040
  0
VERTEX
  8
0
  6
CONTINUOUS
 10
1.529000
 20
6.886000
  0
VERTEX
  8
0
  6
CONTINUOUS
 10
1.544840
 20
6.882920
  0
VERTEX
  8
0
  6
CONTINUOUS
 10
0.897600
 20
6.515960
  0
VERTEX
  8
0
  6
CONTINUOUS
 10
0.882200
 20
6.519040
  0
SEQEND
  8
0
  0
SOLID
  8
0
 62
    15
 10
0.897600
 20
6.515960
 11
1.544840
 21
6.882920
 12
0.910360
 22
6.507600
 13
1.557600
 23
6.874120
  0
POLYLINE
  8
0
  6
CONTINUOUS
 66
     1
 40
0.000000
 41
0.000000
  0
VERTEX
  8
0
  6
CONTINUOUS
 10
0.897600
 20
6.515960
  0
VERTEX
  8
0
  6
CONTINUOUS
 10
1.544840
 20
6.882920
  0
VERTEX
  8
0
  6
CONTINUOUS
 10
1.557600
 20
6.874120
  0
VERTEX
  8
0
  6
CONTINUOUS
 10
0.910360
 20
6.507600
  0
VERTEX
  8
0
  6
CONTINUOUS
 10
0.897600
 20
6.515960
  0
SEQEND
  8
0
  0
SOLID
  8
0
 62
    15
 10
0.910360
 20
6.507600
 11
1.557600
 21
6.874120
 12
0.919160
 22
6.494840
 13
1.565960
 23
6.861360
  0
POLYLINE
  8
0
  6
CONTINUOUS
 66
     1
 40
0.000000
 41
0.000000
  0
VERTEX
  8
0
  6
CONTINUOUS
 10
0.910360
 20
6.507600
  0
VERTEX
  8
0
  6
CONTINUOUS
 10
1.557600
 20
6.874120
  0
VERTEX
  8
0
  6
CONTINUOUS
 10
1.565960
 20
6.861360
  0
VERTEX
  8
0
  6
CONTINUOUS
 10
0.919160
 20
6.494840
  0
VERTEX
  8
0
  6
CONTINUOUS
 10
0.910360
 20
6.507600
  0
SEQEND
  8
0
  0
SOLID
  8
0
 62
    15
 10
0.919160
 20
6.494840
 11
1.565960
 21
6.861360
 12
0.922240
 22
6.479000
 13
1.569040
 23
6.845960
  0
POLYLINE
  8
0
  6
CONTINUOUS
 66
     1
 40
0.000000
 41
0.000000
  0
VERTEX
  8
0
  6
CONTINUOUS
 10
0.919160
 20
6.494840
  0
VERTEX
  8
0
  6
CONTINUOUS
 10
1.565960
 20
6.861360
  0
VERTEX
  8
0
  6
CONTINUOUS
 10
1.569040
 20
6.845960
  0
VERTEX
  8
0
  6
CONTINUOUS
 10
0.922240
 20
6.479000
  0
VERTEX
  8
0
  6
CONTINUOUS
 10
0.919160
 20
6.494840
  0
SEQEND
  8
0
  0
SOLID
  8
0
 62
    15
 10
0.922240
 20
6.479000
 11
1.569040
 21
6.845960
 12
0.922240
 22
6.452160
 13
1.569040
 23
6.818680
  0
POLYLINE
  8
0
  6
CONTINUOUS
 66
     1
 40
0.000000
 41
0.000000
  0
VERTEX
  8
0
  6
CONTINUOUS
 10
0.922240
 20
6.479000
  0
VERTEX
  8
0
  6
CONTINUOUS
 10
1.569040
 20
6.845960
  0
VERTEX
  8
0
  6
CONTINUOUS
 10
1.569040
 20
6.818680
  0
VERTEX
  8
0
  6
CONTINUOUS
 10
0.922240
 20
6.452160
  0
VERTEX
  8
0
  6
CONTINUOUS
 10
0.922240
 20
6.479000
  0
SEQEND
  8
0
  0
SOLID
  8
0
 62
    15
 10
0.922240
 20
6.452160
 11
1.569040
 21
6.818680
 12
0.922680
 22
6.425760
 13
1.569480
 23
6.792720
  0
POLYLINE
  8
0
  6
CONTINUOUS
 66
     1
 40
0.000000
 41
0.000000
  0
VERTEX
  8
0
  6
CONTINUOUS
 10
0.922240
 20
6.452160
  0
VERTEX
  8
0
  6
CONTINUOUS
 10
1.569040
 20
6.818680
  0
VERTEX
  8
0
  6
CONTINUOUS
 10
1.569480
 20
6.792720
  0
VERTEX
  8
0
  6
CONTINUOUS
 10
0.922680
 20
6.425760
  0
VERTEX
  8
0
  6
CONTINUOUS
 10
0.922240
 20
6.452160
  0
SEQEND
  8
0
  0
POLYLINE
  8
0
  6
CONTINUOUS
 66
     1
 40
0.000000
 41
0.000000
  0
VERTEX
  8
0
  6
CONTINUOUS
 10
0.922680
 20
6.425760
  0
VERTEX
  8
0
  6
CONTINUOUS
 10
0.922680
 20
6.021840
  0
VERTEX
  8
0
  6
CONTINUOUS
 10
1.017280
 20
6.021840
  0
VERTEX
  8
0
  6
CONTINUOUS
 10
1.032680
 20
6.018760
  0
VERTEX
  8
0
  6
CONTINUOUS
 10
1.045440
 20
6.010400
  0
VERTEX
  8
0
  6
CONTINUOUS
 10
1.053800
 20
5.997640
  0
VERTEX
  8
0
  6
CONTINUOUS
 10
1.056880
 20
5.981800
  0
VERTEX
  8
0
  6
CONTINUOUS
 10
1.056880
 20
1.015520
  0
VERTEX
  8
0
  6
CONTINUOUS
 10
0.440880
 20
1.015520
  0
VERTEX
  8
0
  6
CONTINUOUS
 10
0.440880
 20
7.019320
  0
VERTEX
  8
0
  6
CONTINUOUS
 10
0.440880
 20
7.019760
  0
VERTEX
  8
0
  6
CONTINUOUS
 10
0.758560
 20
7.019760
  0
VERTEX
  8
0
  6
CONTINUOUS
 10
0.773960
 20
7.016680
  0
VERTEX
  8
0
  6
CONTINUOUS
 10
0.786720
 20
7.008320
  0
VERTEX
  8
0
  6
CONTINUOUS
 10
0.795520
 20
6.995560
  0
VERTEX
  8
0
  6
CONTINUOUS
 10
0.798600
 20
6.979720
  0
VERTEX
  8
0
  6
CONTINUOUS
 10
0.798600
 20
6.852560
  0
VERTEX
  8
0
  6
CONTINUOUS
 10
0.799920
 20
6.846400
  0
VERTEX
  8
0
  6
CONTINUOUS
 10
0.799920
 20
6.519040
  0
VERTEX
  8
0
  6
CONTINUOUS
 10
0.882200
 20
6.519040
  0
VERTEX
  8
0
  6
CONTINUOUS
 10
0.897600
 20
6.515960
  0
VERTEX
  8
0
  6
CONTINUOUS
 10
0.910360
 20
6.507600
  0
VERTEX
  8
0
  6
CONTINUOUS
 10
0.919160
 20
6.494840
  0
VERTEX
  8
0
  6
CONTINUOUS
 10
0.922240
 20
6.479000
  0
VERTEX
  8
0
  6
CONTINUOUS
 10
0.922240
 20
6.452160
  0
VERTEX
  8
0
  6
CONTINUOUS
 10
0.922680
 20
6.425760
  0
SEQEND
  8
0
  0
TEXT
  8
0
 10
0.730400
 20
0.703560
 40
0.138142
  1
BA  1087
 41
1.000000
  7
SN0
 71
     0
 72
     5
 11
1.412082
 21
0.703560
  0
TEXT
  8
0
 10
0.763840
 20
0.512160
 40
0.138142
  1
5/8" x 6"
 41
1.000000
  7
SN0
 71
     0
 72
     5
 11
1.378587
 21
0.512160
  0
POLYLINE
  8
0
  6
CONTINUOUS
 66
     1
 40
0.014080
 41
0.014080
  0
VERTEX
  8
0
  6
CONTINUOUS
 10
7.343600
 20
7.215560
  0
VERTEX
  8
0
  6
CONTINUOUS
 10
7.370880
 20
7.215560
  0
VERTEX
  8
0
  6
CONTINUOUS
 10
7.379240
 20
7.214680
  0
VERTEX
  8
0
  6
CONTINUOUS
 10
7.386720
 20
7.212480
  0
VERTEX
  8
0
  6
CONTINUOUS
 10
7.393320
 20
7.208520
  0
VERTEX
  8
0
  6
CONTINUOUS
 10
7.399480
 20
7.203680
  0
VERTEX
  8
0
  6
CONTINUOUS
 10
7.404320
 20
7.197960
  0
VERTEX
  8
0
  6
CONTINUOUS
 10
7.407840
 20
7.190920
  0
VERTEX
  8
0
  6
CONTINUOUS
 10
7.410040
 20
7.183440
  0
VERTEX
  8
0
  6
CONTINUOUS
 10
7.410920
 20
7.175520
  0
VERTEX
  8
0
  6
CONTINUOUS
 10
7.410920
 20
7.093240
  0
VERTEX
  8
0
  6
CONTINUOUS
 10
7.738280
 20
7.093240
  0
VERTEX
  8
0
  6
CONTINUOUS
 10
7.744440
 20
7.091920
  0
VERTEX
  8
0
  6
CONTINUOUS
 10
7.780080
 20
7.091920
  0
VERTEX
  8
0
  6
CONTINUOUS
 10
7.871600
 20
7.091920
  0
VERTEX
  8
0
  6
CONTINUOUS
 10
7.879520
 20
7.091040
  0
VERTEX
  8
0
  6
CONTINUOUS
 10
7.887000
 20
7.088840
  0
VERTEX
  8
0
  6
CONTINUOUS
 10
7.894040
 20
7.084880
  0
VERTEX
  8
0
  6
CONTINUOUS
 10
7.899760
 20
7.080040
  0
VERTEX
  8
0
  6
CONTINUOUS
 10
7.904600
 20
7.074320
  0
VERTEX
  8
0
  6
CONTINUOUS
 10
7.908560
 20
7.067280
  0
VERTEX
  8
0
  6
CONTINUOUS
 10
7.910760
 20
7.059800
  0
VERTEX
  8
0
  6
CONTINUOUS
 10
7.911640
 20
7.051880
  0
VERTEX
  8
0
  6
CONTINUOUS
 10
7.911640
 20
6.734200
  0
VERTEX
  8
0
  6
CONTINUOUS
 10
7.911200
 20
6.733760
  0
VERTEX
  8
0
  6
CONTINUOUS
 10
7.200160
 20
6.733760
  0
VERTEX
  8
0
  6
CONTINUOUS
 10
1.907400
 20
6.733760
  0
VERTEX
  8
0
  6
CONTINUOUS
 10
1.907400
 20
7.350200
  0
VERTEX
  8
0
  6
CONTINUOUS
 10
6.736400
 20
7.350200
  0
VERTEX
  8
0
  6
CONTINUOUS
 10
6.873680
 20
7.350200
  0
VERTEX
  8
0
  6
CONTINUOUS
 10
6.882040
 20
7.349320
  0
VERTEX
  8
0
  6
CONTINUOUS
 10
6.889520
 20
7.347120
  0
VERTEX
  8
0
  6
CONTINUOUS
 10
6.896120
 20
7.343600
  0
VERTEX
  8
0
  6
CONTINUOUS
 10
6.902280
 20
7.338760
  0
VERTEX
  8
0
  6
CONTINUOUS
 10
6.907120
 20
7.332600
  0
VERTEX
  8
0
  6
CONTINUOUS
 10
6.910640
 20
7.326000
  0
VERTEX
  8
0
  6
CONTINUOUS
 10
6.912840
 20
7.318520
  0
VERTEX
  8
0
  6
CONTINUOUS
 10
6.913720
 20
7.310160
  0
VERTEX
  8
0
  6
CONTINUOUS
 10
6.913720
 20
7.216000
  0
VERTEX
  8
0
  6
CONTINUOUS
 10
7.317640
 20
7.216000
  0
VERTEX
  8
0
  6
CONTINUOUS
 10
7.343600
 20
7.215560
  0
SEQEND
  8
0
  0
TEXT
  8
0
 10
4.255680
 20
7.048800
 40
0.138142
  1
BA  1087
 41
1.000000
  7
SN0
 71
     0
 72
     5
 11
4.937362
 21
7.048800
  0
TEXT
  8
0
 10
4.289120
 20
6.857400
 40
0.138142
  1
5/8" x 6"
 41
1.000000
  7
SN0
 71
     0
 72
     5
 11
4.903867
 21
6.857400
  0
ENDSEC
  0
EOF
