  0
SECTION
  2
HEADER
  9
$ACADVER
  1
AC1006
  9
$EXTMIN
 10
3.418360
 20
0.521840
  9
$EXTMAX
 10
8.099520
 20
5.282640
  9
$LTSCALE
 40
0.044000
  9
$PDMODE
 70
    35
  9
$PDSIZE
 40
0.035200
  0
ENDSEC
  0
SECTION
  2
TABLES
  0
TABLE
  2
LTYPE
 70
     9
  0
LTYPE
  2
CONTINUOUS
 70
    64
  3
Solid line
 72
    65
 73
     0
 40
0.000000
  0
LTYPE
  2
DASHED
 70
    64
  3
__ __ __ __ __ __ __ __ __ __ __ __ __ __ __
 72
    65
 73
     2
 40
0.000330
 49
0.000220
 49
-0.000110
  0
LTYPE
  2
HIDDEN
 70
    64
  3
 _ _ _ _ _ _ _ _ _ _ _ _ _ _ _ _ _ _ _ _ _ _
 72
    65
 73
     2
 40
0.000165
 49
0.000110
 49
-0.000055
  0
LTYPE
  2
CENTER
 70
    64
  3
____ _ ____ _ ____ _ ____ _ ____ _ ____ _ ____
 72
    65
 73
     4
 40
0.000880
 49
0.000550
 49
-0.000110
 49
0.000110
 49
-0.000110
  0
LTYPE
  2
PHANTOM
 70
    64
  3
_____ _ _ _____ _ _ _____ _ _ _____ _ _ ____
 72
    65
 73
     6
 40
0.001100
 49
0.000550
 49
-0.000110
 49
0.000110
 49
-0.000110
 49
0.000110
 49
-0.000110
  0
LTYPE
  2
DOT
 70
    64
  3
...............................................
 72
    65
 73
     2
 40
0.000110
 49
0.000000
 49
-0.000110
  0
LTYPE
  2
DASHDOT
 70
    64
  3
__ . __ . __ . __ . __ . __ . __ . __ . __ . __
 72
    65
 73
     4
 40
0.000440
 49
0.000220
 49
-0.000110
 49
0.000000
 49
-0.000110
  0
LTYPE
  2
BORDER
 70
    64
  3
__ __ . __ __ . __ __ . __ __ . __ __ . __ __
 72
    65
 73
     6
 40
0.000770
 49
0.000220
 49
-0.000110
 49
0.000220
 49
-0.000110
 49
0.000000
 49
-0.000110
  0
LTYPE
  2
DIVIDE
 70
    64
  3
__ . . __ . . __ . . __ . . __ . . __ . . __
 72
    65
 73
     6
 40
0.000550
 49
0.000220
 49
-0.000110
 49
0.000000
 49
-0.000110
 49
0.000000
 49
-0.000110
  0
LTYPE
  2
DOTDOT
 70
    64
  3
 . .  . .  . .  . .  . .  . . 
 72
    65
 73
     5
 40
0.000242
 49
-0.000110
 49
0.000000
 49
-0.000110
 49
0.000000
 49
-0.000110
  0
ENDTAB
  0
TABLE
  2
STYLE
 70
     2
  0
STYLE
 70
     0
  2
SN0
 40
0.000000
 41
0.000440
 50
0.000000
 71
     0
 42
0.000000
  3
ROMAND
  0
STYLE
 70
    68
  2
SV0
 40
0.000000
 41
0.000440
 50
0.000000
 71
     0
 42
0.000000
  3
ROMAND
  0
ENDTAB
  0
TABLE
  2
LAYER
 70
     3
  0
LAYER
  2
FOREGROUND
 70
    64
 62
     7
  6
CONTINUOUS
  0
LAYER
  2
BACKGROUND
 70
    65
 62
    -7
  6
CONTINUOUS
  0
LAYER
  2
0
 70
    64
 62
     7
  6
CONTINUOUS
  0
ENDTAB
  0
ENDSEC
  0
SECTION
  2
ENTITIES
  0
POLYLINE
  8
FOREGROUND
  6
CONTINUOUS
 66
     1
 40
0.000000
 41
0.000000
  0
VERTEX
  8
FOREGROUND
  6
CONTINUOUS
 10
0.000000
 20
5.804480
  0
VERTEX
  8
FOREGROUND
  6
CONTINUOUS
 10
8.499920
 20
5.804480
  0
VERTEX
  8
FOREGROUND
  6
CONTINUOUS
 10
8.499920
 20
-5.195520
  0
VERTEX
  8
FOREGROUND
  6
CONTINUOUS
 10
0.000000
 20
-5.195520
  0
VERTEX
  8
FOREGROUND
  6
CONTINUOUS
 10
0.000000
 20
5.804480
  0
SEQEND
  8
0
  0
POLYLINE
  8
FOREGROUND
  6
CONTINUOUS
 66
     1
 40
0.000000
 41
0.000000
  0
VERTEX
  8
FOREGROUND
  6
CONTINUOUS
 10
0.000000
 20
5.804480
  0
VERTEX
  8
FOREGROUND
  6
CONTINUOUS
 10
8.499920
 20
5.804480
  0
VERTEX
  8
FOREGROUND
  6
CONTINUOUS
 10
8.499920
 20
-5.195520
  0
VERTEX
  8
FOREGROUND
  6
CONTINUOUS
 10
0.000000
 20
-5.195520
  0
VERTEX
  8
FOREGROUND
  6
CONTINUOUS
 10
0.000000
 20
5.804480
  0
SEQEND
  8
0
  0
SOLID
  8
0
 62
    15
 10
5.687000
 20
2.262480
 11
6.326760
 21
1.884080
 12
5.390880
 22
2.021800
 13
6.030640
 23
1.643400
  0
POLYLINE
  8
0
  6
CONTINUOUS
 66
     1
 40
0.000000
 41
0.000000
  0
VERTEX
  8
0
  6
CONTINUOUS
 10
5.687000
 20
2.262480
  0
VERTEX
  8
0
  6
CONTINUOUS
 10
6.326760
 20
1.884080
  0
VERTEX
  8
0
  6
CONTINUOUS
 10
6.030640
 20
1.643400
  0
VERTEX
  8
0
  6
CONTINUOUS
 10
5.390880
 20
2.021800
  0
VERTEX
  8
0
  6
CONTINUOUS
 10
5.687000
 20
2.262480
  0
SEQEND
  8
0
  0
SOLID
  8
0
 62
    15
 10
7.153520
 20
4.034800
 11
7.793280
 21
3.656400
 12
7.141200
 22
3.991680
 13
7.780960
 23
3.613280
  0
POLYLINE
  8
0
  6
CONTINUOUS
 66
     1
 40
0.000000
 41
0.000000
  0
VERTEX
  8
0
  6
CONTINUOUS
 10
7.153520
 20
4.034800
  0
VERTEX
  8
0
  6
CONTINUOUS
 10
7.793280
 20
3.656400
  0
VERTEX
  8
0
  6
CONTINUOUS
 10
7.780960
 20
3.613280
  0
VERTEX
  8
0
  6
CONTINUOUS
 10
7.141200
 20
3.991680
  0
VERTEX
  8
0
  6
CONTINUOUS
 10
7.153520
 20
4.034800
  0
SEQEND
  8
0
  0
SOLID
  8
0
 62
    15
 10
7.141200
 20
3.991680
 11
7.780960
 21
3.613280
 12
7.088400
 22
3.888280
 13
7.728160
 23
3.509880
  0
POLYLINE
  8
0
  6
CONTINUOUS
 66
     1
 40
0.000000
 41
0.000000
  0
VERTEX
  8
0
  6
CONTINUOUS
 10
7.141200
 20
3.991680
  0
VERTEX
  8
0
  6
CONTINUOUS
 10
7.780960
 20
3.613280
  0
VERTEX
  8
0
  6
CONTINUOUS
 10
7.728160
 20
3.509880
  0
VERTEX
  8
0
  6
CONTINUOUS
 10
7.088400
 20
3.888280
  0
VERTEX
  8
0
  6
CONTINUOUS
 10
7.141200
 20
3.991680
  0
SEQEND
  8
0
  0
SOLID
  8
0
 62
    15
 10
7.088400
 20
3.888280
 11
7.728160
 21
3.509880
 12
6.991600
 22
3.795440
 13
7.631360
 23
3.417040
  0
POLYLINE
  8
0
  6
CONTINUOUS
 66
     1
 40
0.000000
 41
0.000000
  0
VERTEX
  8
0
  6
CONTINUOUS
 10
7.088400
 20
3.888280
  0
VERTEX
  8
0
  6
CONTINUOUS
 10
7.728160
 20
3.509880
  0
VERTEX
  8
0
  6
CONTINUOUS
 10
7.631360
 20
3.417040
  0
VERTEX
  8
0
  6
CONTINUOUS
 10
6.991600
 20
3.795440
  0
VERTEX
  8
0
  6
CONTINUOUS
 10
7.088400
 20
3.888280
  0
SEQEND
  8
0
  0
SOLID
  8
0
 62
    15
 10
6.991600
 20
3.795440
 11
7.631360
 21
3.417040
 12
6.925160
 22
3.765960
 13
7.564920
 23
3.387560
  0
POLYLINE
  8
0
  6
CONTINUOUS
 66
     1
 40
0.000000
 41
0.000000
  0
VERTEX
  8
0
  6
CONTINUOUS
 10
6.991600
 20
3.795440
  0
VERTEX
  8
0
  6
CONTINUOUS
 10
7.631360
 20
3.417040
  0
VERTEX
  8
0
  6
CONTINUOUS
 10
7.564920
 20
3.387560
  0
VERTEX
  8
0
  6
CONTINUOUS
 10
6.925160
 20
3.765960
  0
VERTEX
  8
0
  6
CONTINUOUS
 10
6.991600
 20
3.795440
  0
SEQEND
  8
0
  0
SOLID
  8
0
 62
    15
 10
6.925160
 20
3.765960
 11
7.564920
 21
3.387560
 12
6.845080
 22
3.754960
 13
7.484840
 23
3.376560
  0
POLYLINE
  8
0
  6
CONTINUOUS
 66
     1
 40
0.000000
 41
0.000000
  0
VERTEX
  8
0
  6
CONTINUOUS
 10
6.925160
 20
3.765960
  0
VERTEX
  8
0
  6
CONTINUOUS
 10
7.564920
 20
3.387560
  0
VERTEX
  8
0
  6
CONTINUOUS
 10
7.484840
 20
3.376560
  0
VERTEX
  8
0
  6
CONTINUOUS
 10
6.845080
 20
3.754960
  0
VERTEX
  8
0
  6
CONTINUOUS
 10
6.925160
 20
3.765960
  0
SEQEND
  8
0
  0
SOLID
  8
0
 62
    15
 10
6.845080
 20
3.754960
 11
7.484840
 21
3.376560
 12
6.850360
 22
3.503280
 13
7.490120
 23
3.124880
  0
POLYLINE
  8
0
  6
CONTINUOUS
 66
     1
 40
0.000000
 41
0.000000
  0
VERTEX
  8
0
  6
CONTINUOUS
 10
6.845080
 20
3.754960
  0
VERTEX
  8
0
  6
CONTINUOUS
 10
7.484840
 20
3.376560
  0
VERTEX
  8
0
  6
CONTINUOUS
 10
7.490120
 20
3.124880
  0
VERTEX
  8
0
  6
CONTINUOUS
 10
6.850360
 20
3.503280
  0
VERTEX
  8
0
  6
CONTINUOUS
 10
6.845080
 20
3.754960
  0
SEQEND
  8
0
  0
SOLID
  8
0
 62
    15
 10
6.850360
 20
3.503280
 11
7.490120
 21
3.124880
 12
6.589880
 22
3.503280
 13
7.229640
 23
3.124880
  0
POLYLINE
  8
0
  6
CONTINUOUS
 66
     1
 40
0.000000
 41
0.000000
  0
VERTEX
  8
0
  6
CONTINUOUS
 10
6.850360
 20
3.503280
  0
VERTEX
  8
0
  6
CONTINUOUS
 10
7.490120
 20
3.124880
  0
VERTEX
  8
0
  6
CONTINUOUS
 10
7.229640
 20
3.124880
  0
VERTEX
  8
0
  6
CONTINUOUS
 10
6.589880
 20
3.503280
  0
VERTEX
  8
0
  6
CONTINUOUS
 10
6.850360
 20
3.503280
  0
SEQEND
  8
0
  0
SOLID
  8
0
 62
    15
 10
6.589880
 20
3.503280
 11
7.229640
 21
3.124880
 12
6.397160
 22
3.150400
 13
7.036920
 23
2.772440
  0
POLYLINE
  8
0
  6
CONTINUOUS
 66
     1
 40
0.000000
 41
0.000000
  0
VERTEX
  8
0
  6
CONTINUOUS
 10
6.589880
 20
3.503280
  0
VERTEX
  8
0
  6
CONTINUOUS
 10
7.229640
 20
3.124880
  0
VERTEX
  8
0
  6
CONTINUOUS
 10
7.036920
 20
2.772440
  0
VERTEX
  8
0
  6
CONTINUOUS
 10
6.397160
 20
3.150400
  0
VERTEX
  8
0
  6
CONTINUOUS
 10
6.589880
 20
3.503280
  0
SEQEND
  8
0
  0
SOLID
  8
0
 62
    15
 10
6.397160
 20
3.150400
 11
7.036920
 21
2.772440
 12
6.185080
 22
2.826560
 13
6.825280
 23
2.448160
  0
POLYLINE
  8
0
  6
CONTINUOUS
 66
     1
 40
0.000000
 41
0.000000
  0
VERTEX
  8
0
  6
CONTINUOUS
 10
6.397160
 20
3.150400
  0
VERTEX
  8
0
  6
CONTINUOUS
 10
7.036920
 20
2.772440
  0
VERTEX
  8
0
  6
CONTINUOUS
 10
6.825280
 20
2.448160
  0
VERTEX
  8
0
  6
CONTINUOUS
 10
6.185080
 20
2.826560
  0
VERTEX
  8
0
  6
CONTINUOUS
 10
6.397160
 20
3.150400
  0
SEQEND
  8
0
  0
SOLID
  8
0
 62
    15
 10
6.185080
 20
2.826560
 11
6.825280
 21
2.448160
 12
5.950120
 22
2.530440
 13
6.589880
 23
2.152480
  0
POLYLINE
  8
0
  6
CONTINUOUS
 66
     1
 40
0.000000
 41
0.000000
  0
VERTEX
  8
0
  6
CONTINUOUS
 10
6.185080
 20
2.826560
  0
VERTEX
  8
0
  6
CONTINUOUS
 10
6.825280
 20
2.448160
  0
VERTEX
  8
0
  6
CONTINUOUS
 10
6.589880
 20
2.152480
  0
VERTEX
  8
0
  6
CONTINUOUS
 10
5.950120
 20
2.530440
  0
VERTEX
  8
0
  6
CONTINUOUS
 10
6.185080
 20
2.826560
  0
SEQEND
  8
0
  0
SOLID
  8
0
 62
    15
 10
5.950120
 20
2.530440
 11
6.589880
 21
2.152480
 12
5.687000
 22
2.262480
 13
6.326760
 23
1.884080
  0
POLYLINE
  8
0
  6
CONTINUOUS
 66
     1
 40
0.000000
 41
0.000000
  0
VERTEX
  8
0
  6
CONTINUOUS
 10
5.950120
 20
2.530440
  0
VERTEX
  8
0
  6
CONTINUOUS
 10
6.589880
 20
2.152480
  0
VERTEX
  8
0
  6
CONTINUOUS
 10
6.326760
 20
1.884080
  0
VERTEX
  8
0
  6
CONTINUOUS
 10
5.687000
 20
2.262480
  0
VERTEX
  8
0
  6
CONTINUOUS
 10
5.950120
 20
2.530440
  0
SEQEND
  8
0
  0
SOLID
  8
0
 62
    15
 10
7.157040
 20
4.064720
 11
7.796800
 21
3.686320
 12
7.153520
 22
4.034800
 13
7.793280
 23
3.656400
  0
POLYLINE
  8
0
  6
CONTINUOUS
 66
     1
 40
0.000000
 41
0.000000
  0
VERTEX
  8
0
  6
CONTINUOUS
 10
7.157040
 20
4.064720
  0
VERTEX
  8
0
  6
CONTINUOUS
 10
7.796800
 20
3.686320
  0
VERTEX
  8
0
  6
CONTINUOUS
 10
7.793280
 20
3.656400
  0
VERTEX
  8
0
  6
CONTINUOUS
 10
7.153520
 20
4.034800
  0
VERTEX
  8
0
  6
CONTINUOUS
 10
7.157040
 20
4.064720
  0
SEQEND
  8
0
  0
SOLID
  8
0
 62
    15
 10
5.390880
 20
2.021800
 11
6.030640
 21
1.643400
 12
5.057360
 22
1.808400
 13
5.697120
 23
1.430000
  0
POLYLINE
  8
0
  6
CONTINUOUS
 66
     1
 40
0.000000
 41
0.000000
  0
VERTEX
  8
0
  6
CONTINUOUS
 10
5.390880
 20
2.021800
  0
VERTEX
  8
0
  6
CONTINUOUS
 10
6.030640
 20
1.643400
  0
VERTEX
  8
0
  6
CONTINUOUS
 10
5.697120
 20
1.430000
  0
VERTEX
  8
0
  6
CONTINUOUS
 10
5.057360
 20
1.808400
  0
VERTEX
  8
0
  6
CONTINUOUS
 10
5.390880
 20
2.021800
  0
SEQEND
  8
0
  0
SOLID
  8
0
 62
    15
 10
5.057360
 20
1.808400
 11
5.697120
 21
1.430000
 12
4.682040
 22
1.621840
 13
5.321800
 23
1.243440
  0
POLYLINE
  8
0
  6
CONTINUOUS
 66
     1
 40
0.000000
 41
0.000000
  0
VERTEX
  8
0
  6
CONTINUOUS
 10
5.057360
 20
1.808400
  0
VERTEX
  8
0
  6
CONTINUOUS
 10
5.697120
 20
1.430000
  0
VERTEX
  8
0
  6
CONTINUOUS
 10
5.321800
 20
1.243440
  0
VERTEX
  8
0
  6
CONTINUOUS
 10
4.682040
 20
1.621840
  0
VERTEX
  8
0
  6
CONTINUOUS
 10
5.057360
 20
1.808400
  0
SEQEND
  8
0
  0
SOLID
  8
0
 62
    15
 10
4.682040
 20
1.621840
 11
5.321800
 21
1.243440
 12
4.259640
 22
1.461680
 13
4.899400
 23
1.083720
  0
POLYLINE
  8
0
  6
CONTINUOUS
 66
     1
 40
0.000000
 41
0.000000
  0
VERTEX
  8
0
  6
CONTINUOUS
 10
4.682040
 20
1.621840
  0
VERTEX
  8
0
  6
CONTINUOUS
 10
5.321800
 20
1.243440
  0
VERTEX
  8
0
  6
CONTINUOUS
 10
4.899400
 20
1.083720
  0
VERTEX
  8
0
  6
CONTINUOUS
 10
4.259640
 20
1.461680
  0
VERTEX
  8
0
  6
CONTINUOUS
 10
4.682040
 20
1.621840
  0
SEQEND
  8
0
  0
SOLID
  8
0
 62
    15
 10
4.259640
 20
1.461680
 11
4.899400
 21
1.083720
 12
4.262280
 22
1.332760
 13
4.902040
 23
0.954800
  0
POLYLINE
  8
0
  6
CONTINUOUS
 66
     1
 40
0.000000
 41
0.000000
  0
VERTEX
  8
0
  6
CONTINUOUS
 10
4.259640
 20
1.461680
  0
VERTEX
  8
0
  6
CONTINUOUS
 10
4.899400
 20
1.083720
  0
VERTEX
  8
0
  6
CONTINUOUS
 10
4.902040
 20
0.954800
  0
VERTEX
  8
0
  6
CONTINUOUS
 10
4.262280
 20
1.332760
  0
VERTEX
  8
0
  6
CONTINUOUS
 10
4.259640
 20
1.461680
  0
SEQEND
  8
0
  0
SOLID
  8
0
 62
    15
 10
4.262280
 20
1.332760
 11
4.902040
 21
0.954800
 12
4.161520
 22
1.308560
 13
4.801720
 23
0.930160
  0
POLYLINE
  8
0
  6
CONTINUOUS
 66
     1
 40
0.000000
 41
0.000000
  0
VERTEX
  8
0
  6
CONTINUOUS
 10
4.262280
 20
1.332760
  0
VERTEX
  8
0
  6
CONTINUOUS
 10
4.902040
 20
0.954800
  0
VERTEX
  8
0
  6
CONTINUOUS
 10
4.801720
 20
0.930160
  0
VERTEX
  8
0
  6
CONTINUOUS
 10
4.161520
 20
1.308560
  0
VERTEX
  8
0
  6
CONTINUOUS
 10
4.262280
 20
1.332760
  0
SEQEND
  8
0
  0
SOLID
  8
0
 62
    15
 10
4.161520
 20
1.308560
 11
4.801720
 21
0.930160
 12
4.081440
 22
1.275560
 13
4.721200
 23
0.897600
  0
POLYLINE
  8
0
  6
CONTINUOUS
 66
     1
 40
0.000000
 41
0.000000
  0
VERTEX
  8
0
  6
CONTINUOUS
 10
4.161520
 20
1.308560
  0
VERTEX
  8
0
  6
CONTINUOUS
 10
4.801720
 20
0.930160
  0
VERTEX
  8
0
  6
CONTINUOUS
 10
4.721200
 20
0.897600
  0
VERTEX
  8
0
  6
CONTINUOUS
 10
4.081440
 20
1.275560
  0
VERTEX
  8
0
  6
CONTINUOUS
 10
4.161520
 20
1.308560
  0
SEQEND
  8
0
  0
SOLID
  8
0
 62
    15
 10
4.081440
 20
1.275560
 11
4.721200
 21
0.897600
 12
4.018520
 22
1.235520
 13
4.658280
 23
0.857120
  0
POLYLINE
  8
0
  6
CONTINUOUS
 66
     1
 40
0.000000
 41
0.000000
  0
VERTEX
  8
0
  6
CONTINUOUS
 10
4.081440
 20
1.275560
  0
VERTEX
  8
0
  6
CONTINUOUS
 10
4.721200
 20
0.897600
  0
VERTEX
  8
0
  6
CONTINUOUS
 10
4.658280
 20
0.857120
  0
VERTEX
  8
0
  6
CONTINUOUS
 10
4.018520
 20
1.235520
  0
VERTEX
  8
0
  6
CONTINUOUS
 10
4.081440
 20
1.275560
  0
SEQEND
  8
0
  0
SOLID
  8
0
 62
    15
 10
4.018520
 20
1.235520
 11
4.658280
 21
0.857120
 12
3.971000
 22
1.188440
 13
4.610760
 23
0.810040
  0
POLYLINE
  8
0
  6
CONTINUOUS
 66
     1
 40
0.000000
 41
0.000000
  0
VERTEX
  8
0
  6
CONTINUOUS
 10
4.018520
 20
1.235520
  0
VERTEX
  8
0
  6
CONTINUOUS
 10
4.658280
 20
0.857120
  0
VERTEX
  8
0
  6
CONTINUOUS
 10
4.610760
 20
0.810040
  0
VERTEX
  8
0
  6
CONTINUOUS
 10
3.971000
 20
1.188440
  0
VERTEX
  8
0
  6
CONTINUOUS
 10
4.018520
 20
1.235520
  0
SEQEND
  8
0
  0
SOLID
  8
0
 62
    15
 10
3.971000
 20
1.188440
 11
4.610760
 21
0.810040
 12
3.911600
 22
1.074920
 13
4.551360
 23
0.696520
  0
POLYLINE
  8
0
  6
CONTINUOUS
 66
     1
 40
0.000000
 41
0.000000
  0
VERTEX
  8
0
  6
CONTINUOUS
 10
3.971000
 20
1.188440
  0
VERTEX
  8
0
  6
CONTINUOUS
 10
4.610760
 20
0.810040
  0
VERTEX
  8
0
  6
CONTINUOUS
 10
4.551360
 20
0.696520
  0
VERTEX
  8
0
  6
CONTINUOUS
 10
3.911600
 20
1.074920
  0
VERTEX
  8
0
  6
CONTINUOUS
 10
3.971000
 20
1.188440
  0
SEQEND
  8
0
  0
SOLID
  8
0
 62
    15
 10
3.911600
 20
1.074920
 11
4.551360
 21
0.696520
 12
3.884760
 22
0.939400
 13
4.524520
 23
0.561000
  0
POLYLINE
  8
0
  6
CONTINUOUS
 66
     1
 40
0.000000
 41
0.000000
  0
VERTEX
  8
0
  6
CONTINUOUS
 10
3.911600
 20
1.074920
  0
VERTEX
  8
0
  6
CONTINUOUS
 10
4.551360
 20
0.696520
  0
VERTEX
  8
0
  6
CONTINUOUS
 10
4.524520
 20
0.561000
  0
VERTEX
  8
0
  6
CONTINUOUS
 10
3.884760
 20
0.939400
  0
VERTEX
  8
0
  6
CONTINUOUS
 10
3.911600
 20
1.074920
  0
SEQEND
  8
0
  0
SOLID
  8
0
 62
    15
 10
3.884760
 20
0.939400
 11
4.524520
 21
0.561000
 12
3.705240
 22
0.938960
 13
4.345000
 23
0.561000
  0
POLYLINE
  8
0
  6
CONTINUOUS
 66
     1
 40
0.000000
 41
0.000000
  0
VERTEX
  8
0
  6
CONTINUOUS
 10
3.884760
 20
0.939400
  0
VERTEX
  8
0
  6
CONTINUOUS
 10
4.524520
 20
0.561000
  0
VERTEX
  8
0
  6
CONTINUOUS
 10
4.345000
 20
0.561000
  0
VERTEX
  8
0
  6
CONTINUOUS
 10
3.705240
 20
0.938960
  0
VERTEX
  8
0
  6
CONTINUOUS
 10
3.884760
 20
0.939400
  0
SEQEND
  8
0
  0
POLYLINE
  8
0
  6
CONTINUOUS
 66
     1
 40
0.000000
 41
0.000000
  0
VERTEX
  8
0
  6
CONTINUOUS
 10
6.395400
 20
4.064280
  0
VERTEX
  8
0
  6
CONTINUOUS
 10
7.157040
 20
4.064720
  0
VERTEX
  8
0
  6
CONTINUOUS
 10
7.153520
 20
4.034800
  0
VERTEX
  8
0
  6
CONTINUOUS
 10
7.141200
 20
3.991680
  0
VERTEX
  8
0
  6
CONTINUOUS
 10
7.088400
 20
3.888280
  0
VERTEX
  8
0
  6
CONTINUOUS
 10
6.991600
 20
3.795440
  0
VERTEX
  8
0
  6
CONTINUOUS
 10
6.925160
 20
3.765960
  0
VERTEX
  8
0
  6
CONTINUOUS
 10
6.845080
 20
3.754960
  0
VERTEX
  8
0
  6
CONTINUOUS
 10
6.850360
 20
3.503280
  0
VERTEX
  8
0
  6
CONTINUOUS
 10
6.589880
 20
3.503280
  0
VERTEX
  8
0
  6
CONTINUOUS
 10
6.397160
 20
3.150400
  0
VERTEX
  8
0
  6
CONTINUOUS
 10
6.185080
 20
2.826560
  0
VERTEX
  8
0
  6
CONTINUOUS
 10
5.950120
 20
2.530440
  0
VERTEX
  8
0
  6
CONTINUOUS
 10
5.687000
 20
2.262480
  0
VERTEX
  8
0
  6
CONTINUOUS
 10
5.390880
 20
2.021800
  0
VERTEX
  8
0
  6
CONTINUOUS
 10
5.057360
 20
1.808400
  0
VERTEX
  8
0
  6
CONTINUOUS
 10
4.682040
 20
1.621840
  0
VERTEX
  8
0
  6
CONTINUOUS
 10
4.259640
 20
1.461680
  0
VERTEX
  8
0
  6
CONTINUOUS
 10
4.262280
 20
1.332760
  0
VERTEX
  8
0
  6
CONTINUOUS
 10
4.161520
 20
1.308560
  0
VERTEX
  8
0
  6
CONTINUOUS
 10
4.081440
 20
1.275560
  0
VERTEX
  8
0
  6
CONTINUOUS
 10
4.018520
 20
1.235520
  0
VERTEX
  8
0
  6
CONTINUOUS
 10
3.971000
 20
1.188440
  0
VERTEX
  8
0
  6
CONTINUOUS
 10
3.911600
 20
1.074920
  0
VERTEX
  8
0
  6
CONTINUOUS
 10
3.884760
 20
0.939400
  0
VERTEX
  8
0
  6
CONTINUOUS
 10
3.705240
 20
0.938960
  0
VERTEX
  8
0
  6
CONTINUOUS
 10
3.690280
 20
1.680360
  0
VERTEX
  8
0
  6
CONTINUOUS
 10
6.395400
 20
4.064280
  0
SEQEND
  8
0
  0
TEXT
  8
0
 10
5.460400
 20
0.757680
 40
0.138128
  1
BA  1085
 41
1.000000
  7
SN0
 71
     0
 72
     5
 11
6.143337
 21
0.757680
  0
TEXT
  8
0
 10
5.258440
 20
0.565840
 40
0.138128
  1
7/8" x 4-11/16"
 41
1.000000
  7
SN0
 71
     0
 72
     5
 11
6.344855
 21
0.565840
  0
POLYLINE
  8
0
  6
CONTINUOUS
 66
     1
 40
0.014080
 41
0.014080
  0
VERTEX
  8
0
  6
CONTINUOUS
 10
7.612000
 20
4.394280
  0
VERTEX
  8
0
  6
CONTINUOUS
 10
8.089840
 20
4.961000
  0
VERTEX
  8
0
  6
CONTINUOUS
 10
7.955200
 20
5.079360
  0
VERTEX
  8
0
  6
CONTINUOUS
 10
7.900640
 20
5.033600
  0
VERTEX
  8
0
  6
CONTINUOUS
 10
7.873360
 20
5.013360
  0
VERTEX
  8
0
  6
CONTINUOUS
 10
7.845200
 20
4.995320
  0
VERTEX
  8
0
  6
CONTINUOUS
 10
7.817040
 20
4.979480
  0
VERTEX
  8
0
  6
CONTINUOUS
 10
7.772600
 20
4.961000
  0
VERTEX
  8
0
  6
CONTINUOUS
 10
7.741800
 20
4.952200
  0
VERTEX
  8
0
  6
CONTINUOUS
 10
7.709680
 20
4.946920
  0
VERTEX
  8
0
  6
CONTINUOUS
 10
7.676240
 20
4.944720
  0
VERTEX
  8
0
  6
CONTINUOUS
 10
7.641040
 20
4.946480
  0
VERTEX
  8
0
  6
CONTINUOUS
 10
7.604080
 20
4.952200
  0
VERTEX
  8
0
  6
CONTINUOUS
 10
7.565360
 20
4.961880
  0
VERTEX
  8
0
  6
CONTINUOUS
 10
7.524440
 20
4.975960
  0
VERTEX
  8
0
  6
CONTINUOUS
 10
7.480880
 20
4.994880
  0
VERTEX
  8
0
  6
CONTINUOUS
 10
7.435120
 20
5.018640
  0
VERTEX
  8
0
  6
CONTINUOUS
 10
7.411360
 20
5.032720
  0
VERTEX
  8
0
  6
CONTINUOUS
 10
7.328640
 20
4.934160
  0
VERTEX
  8
0
  6
CONTINUOUS
 10
7.167600
 20
4.999720
  0
VERTEX
  8
0
  6
CONTINUOUS
 10
7.009640
 20
5.057800
  0
VERTEX
  8
0
  6
CONTINUOUS
 10
6.905800
 20
5.092560
  0
VERTEX
  8
0
  6
CONTINUOUS
 10
6.751800
 20
5.138760
  0
VERTEX
  8
0
  6
CONTINUOUS
 10
6.650600
 20
5.165600
  0
VERTEX
  8
0
  6
CONTINUOUS
 10
6.500560
 20
5.200360
  0
VERTEX
  8
0
  6
CONTINUOUS
 10
6.401560
 20
5.219720
  0
VERTEX
  8
0
  6
CONTINUOUS
 10
6.254600
 20
5.243040
  0
VERTEX
  8
0
  6
CONTINUOUS
 10
6.205760
 20
5.249640
  0
VERTEX
  8
0
  6
CONTINUOUS
 10
6.108960
 20
5.260200
  0
VERTEX
  8
0
  6
CONTINUOUS
 10
5.965080
 20
5.270760
  0
VERTEX
  8
0
  6
CONTINUOUS
 10
5.869600
 20
5.274280
  0
VERTEX
  8
0
  6
CONTINUOUS
 10
5.775000
 20
5.275160
  0
VERTEX
  8
0
  6
CONTINUOUS
 10
5.680840
 20
5.273400
  0
VERTEX
  8
0
  6
CONTINUOUS
 10
5.586680
 20
5.269000
  0
VERTEX
  8
0
  6
CONTINUOUS
 10
5.492960
 20
5.261960
  0
VERTEX
  8
0
  6
CONTINUOUS
 10
5.353040
 20
5.247000
  0
VERTEX
  8
0
  6
CONTINUOUS
 10
5.259760
 20
5.233800
  0
VERTEX
  8
0
  6
CONTINUOUS
 10
5.166920
 20
5.217960
  0
VERTEX
  8
0
  6
CONTINUOUS
 10
5.074080
 20
5.199920
  0
VERTEX
  8
0
  6
CONTINUOUS
 10
4.981240
 20
5.179680
  0
VERTEX
  8
0
  6
CONTINUOUS
 10
4.887960
 20
5.157240
  0
VERTEX
  8
0
  6
CONTINUOUS
 10
4.701840
 20
5.105320
  0
VERTEX
  8
0
  6
CONTINUOUS
 10
4.608120
 20
5.076280
  0
VERTEX
  8
0
  6
CONTINUOUS
 10
4.420240
 20
5.011160
  0
VERTEX
  8
0
  6
CONTINUOUS
 10
4.325640
 20
4.975960
  0
VERTEX
  8
0
  6
CONTINUOUS
 10
4.230600
 20
4.938560
  0
VERTEX
  8
0
  6
CONTINUOUS
 10
4.034800
 20
5.110600
  0
VERTEX
  8
0
  6
CONTINUOUS
 10
3.872440
 20
4.917880
  0
VERTEX
  8
0
  6
CONTINUOUS
 10
3.839440
 20
4.943400
  0
VERTEX
  8
0
  6
CONTINUOUS
 10
3.805120
 20
4.962320
  0
VERTEX
  8
0
  6
CONTINUOUS
 10
3.770800
 20
4.975960
  0
VERTEX
  8
0
  6
CONTINUOUS
 10
3.736040
 20
4.984320
  0
VERTEX
  8
0
  6
CONTINUOUS
 10
3.701280
 20
4.988280
  0
VERTEX
  8
0
  6
CONTINUOUS
 10
3.666960
 20
4.988280
  0
VERTEX
  8
0
  6
CONTINUOUS
 10
3.633960
 20
4.984760
  0
VERTEX
  8
0
  6
CONTINUOUS
 10
3.586440
 20
4.974200
  0
VERTEX
  8
0
  6
CONTINUOUS
 10
3.543320
 20
4.959240
  0
VERTEX
  8
0
  6
CONTINUOUS
 10
3.505040
 20
4.941640
  0
VERTEX
  8
0
  6
CONTINUOUS
 10
3.464120
 20
4.917000
  0
VERTEX
  8
0
  6
CONTINUOUS
 10
3.437720
 20
4.895440
  0
VERTEX
  8
0
  6
CONTINUOUS
 10
3.433760
 20
4.891040
  0
VERTEX
  8
0
  6
CONTINUOUS
 10
4.006200
 20
4.388560
  0
VERTEX
  8
0
  6
CONTINUOUS
 10
7.612000
 20
4.394280
  0
SEQEND
  8
0
  0
TEXT
  8
0
 10
5.536080
 20
4.711960
 40
0.138128
  1
BA  1085
 41
1.000000
  7
SN0
 71
     0
 72
     5
 11
6.219017
 21
4.711960
  0
TEXT
  8
0
 10
5.334120
 20
4.520120
 40
0.138128
  1
7/8" x 4-11/16"
 41
1.000000
  7
SN0
 71
     0
 72
     5
 11
6.420535
 21
4.520120
  0
ENDSEC
  0
EOF
