  0
SECTION
  2
HEADER
  9
$ACADVER
  1
AC1006
  9
$EXTMIN
 10
2.203080
 20
0.925760
  9
$EXTMAX
 10
6.244920
 20
4.484480
  9
$LTSCALE
 40
0.044000
  9
$PDMODE
 70
    35
  9
$PDSIZE
 40
0.035200
  0
ENDSEC
  0
SECTION
  2
TABLES
  0
TABLE
  2
LTYPE
 70
     9
  0
LTYPE
  2
CONTINUOUS
 70
    64
  3
Solid line
 72
    65
 73
     0
 40
0.000000
  0
LTYPE
  2
DASHED
 70
    64
  3
__ __ __ __ __ __ __ __ __ __ __ __ __ __ __
 72
    65
 73
     2
 40
0.000330
 49
0.000220
 49
-0.000110
  0
LTYPE
  2
HIDDEN
 70
    64
  3
 _ _ _ _ _ _ _ _ _ _ _ _ _ _ _ _ _ _ _ _ _ _
 72
    65
 73
     2
 40
0.000165
 49
0.000110
 49
-0.000055
  0
LTYPE
  2
CENTER
 70
    64
  3
____ _ ____ _ ____ _ ____ _ ____ _ ____ _ ____
 72
    65
 73
     4
 40
0.000880
 49
0.000550
 49
-0.000110
 49
0.000110
 49
-0.000110
  0
LTYPE
  2
PHANTOM
 70
    64
  3
_____ _ _ _____ _ _ _____ _ _ _____ _ _ ____
 72
    65
 73
     6
 40
0.001100
 49
0.000550
 49
-0.000110
 49
0.000110
 49
-0.000110
 49
0.000110
 49
-0.000110
  0
LTYPE
  2
DOT
 70
    64
  3
...............................................
 72
    65
 73
     2
 40
0.000110
 49
0.000000
 49
-0.000110
  0
LTYPE
  2
DASHDOT
 70
    64
  3
__ . __ . __ . __ . __ . __ . __ . __ . __ . __
 72
    65
 73
     4
 40
0.000440
 49
0.000220
 49
-0.000110
 49
0.000000
 49
-0.000110
  0
LTYPE
  2
BORDER
 70
    64
  3
__ __ . __ __ . __ __ . __ __ . __ __ . __ __
 72
    65
 73
     6
 40
0.000770
 49
0.000220
 49
-0.000110
 49
0.000220
 49
-0.000110
 49
0.000000
 49
-0.000110
  0
LTYPE
  2
DIVIDE
 70
    64
  3
__ . . __ . . __ . . __ . . __ . . __ . . __
 72
    65
 73
     6
 40
0.000550
 49
0.000220
 49
-0.000110
 49
0.000000
 49
-0.000110
 49
0.000000
 49
-0.000110
  0
LTYPE
  2
DOTDOT
 70
    64
  3
 . .  . .  . .  . .  . .  . . 
 72
    65
 73
     5
 40
0.000242
 49
-0.000110
 49
0.000000
 49
-0.000110
 49
0.000000
 49
-0.000110
  0
ENDTAB
  0
TABLE
  2
STYLE
 70
     2
  0
STYLE
 70
     0
  2
SN0
 40
0.000000
 41
0.000440
 50
0.000000
 71
     0
 42
0.000000
  3
ROMAND
  0
STYLE
 70
    68
  2
SV0
 40
0.000000
 41
0.000440
 50
0.000000
 71
     0
 42
0.000000
  3
ROMAND
  0
ENDTAB
  0
TABLE
  2
LAYER
 70
     3
  0
LAYER
  2
FOREGROUND
 70
    64
 62
     7
  6
CONTINUOUS
  0
LAYER
  2
BACKGROUND
 70
    65
 62
    -7
  6
CONTINUOUS
  0
LAYER
  2
0
 70
    64
 62
     7
  6
CONTINUOUS
  0
ENDTAB
  0
ENDSEC
  0
SECTION
  2
ENTITIES
  0
POLYLINE
  8
FOREGROUND
  6
CONTINUOUS
 66
     1
 40
0.000000
 41
0.000000
  0
VERTEX
  8
FOREGROUND
  6
CONTINUOUS
 10
0.000000
 20
5.410240
  0
VERTEX
  8
FOREGROUND
  6
CONTINUOUS
 10
8.499920
 20
5.410240
  0
VERTEX
  8
FOREGROUND
  6
CONTINUOUS
 10
8.499920
 20
-5.589760
  0
VERTEX
  8
FOREGROUND
  6
CONTINUOUS
 10
0.000000
 20
-5.589760
  0
VERTEX
  8
FOREGROUND
  6
CONTINUOUS
 10
0.000000
 20
5.410240
  0
SEQEND
  8
0
  0
POLYLINE
  8
FOREGROUND
  6
CONTINUOUS
 66
     1
 40
0.000000
 41
0.000000
  0
VERTEX
  8
FOREGROUND
  6
CONTINUOUS
 10
0.000000
 20
5.410240
  0
VERTEX
  8
FOREGROUND
  6
CONTINUOUS
 10
8.499920
 20
5.410240
  0
VERTEX
  8
FOREGROUND
  6
CONTINUOUS
 10
8.499920
 20
-5.589760
  0
VERTEX
  8
FOREGROUND
  6
CONTINUOUS
 10
0.000000
 20
-5.589760
  0
VERTEX
  8
FOREGROUND
  6
CONTINUOUS
 10
0.000000
 20
5.410240
  0
SEQEND
  8
0
  0
SOLID
  8
0
 62
    15
 10
3.717120
 20
2.421760
 11
3.721080
 21
3.173280
 12
3.718440
 22
2.421320
 13
3.721960
 23
3.173280
  0
POLYLINE
  8
0
  6
CONTINUOUS
 66
     1
 40
0.000000
 41
0.000000
  0
VERTEX
  8
0
  6
CONTINUOUS
 10
3.717120
 20
2.421760
  0
VERTEX
  8
0
  6
CONTINUOUS
 10
3.721080
 20
3.173280
  0
VERTEX
  8
0
  6
CONTINUOUS
 10
3.721960
 20
3.173280
  0
VERTEX
  8
0
  6
CONTINUOUS
 10
3.718440
 20
2.421320
  0
VERTEX
  8
0
  6
CONTINUOUS
 10
3.717120
 20
2.421760
  0
SEQEND
  8
0
  0
SOLID
  8
0
 62
    15
 10
6.240520
 20
1.726120
 11
6.244480
 21
2.477640
 12
6.240520
 22
1.423840
 13
6.244480
 23
2.175800
  0
POLYLINE
  8
0
  6
CONTINUOUS
 66
     1
 40
0.000000
 41
0.000000
  0
VERTEX
  8
0
  6
CONTINUOUS
 10
6.240520
 20
1.726120
  0
VERTEX
  8
0
  6
CONTINUOUS
 10
6.244480
 20
2.477640
  0
VERTEX
  8
0
  6
CONTINUOUS
 10
6.244480
 20
2.175800
  0
VERTEX
  8
0
  6
CONTINUOUS
 10
6.240520
 20
1.423840
  0
VERTEX
  8
0
  6
CONTINUOUS
 10
6.240520
 20
1.726120
  0
SEQEND
  8
0
  0
SOLID
  8
0
 62
    15
 10
6.236560
 20
1.737560
 11
6.240520
 21
2.489520
 12
6.240960
 22
1.726560
 13
6.244920
 23
2.478080
  0
POLYLINE
  8
0
  6
CONTINUOUS
 66
     1
 40
0.000000
 41
0.000000
  0
VERTEX
  8
0
  6
CONTINUOUS
 10
6.236560
 20
1.737560
  0
VERTEX
  8
0
  6
CONTINUOUS
 10
6.240520
 20
2.489520
  0
VERTEX
  8
0
  6
CONTINUOUS
 10
6.244920
 20
2.478080
  0
VERTEX
  8
0
  6
CONTINUOUS
 10
6.240960
 20
1.726560
  0
VERTEX
  8
0
  6
CONTINUOUS
 10
6.236560
 20
1.737560
  0
SEQEND
  8
0
  0
SOLID
  8
0
 62
    15
 10
2.236080
 20
2.421760
 11
2.239600
 21
3.173280
 12
3.717120
 22
2.421760
 13
3.721080
 23
3.173280
  0
POLYLINE
  8
0
  6
CONTINUOUS
 66
     1
 40
0.000000
 41
0.000000
  0
VERTEX
  8
0
  6
CONTINUOUS
 10
2.236080
 20
2.421760
  0
VERTEX
  8
0
  6
CONTINUOUS
 10
2.239600
 20
3.173280
  0
VERTEX
  8
0
  6
CONTINUOUS
 10
3.721080
 20
3.173280
  0
VERTEX
  8
0
  6
CONTINUOUS
 10
3.717120
 20
2.421760
  0
VERTEX
  8
0
  6
CONTINUOUS
 10
2.236080
 20
2.421760
  0
SEQEND
  8
0
  0
SOLID
  8
0
 62
    15
 10
6.225120
 20
1.745920
 11
6.228640
 21
2.497440
 12
6.236560
 22
1.737560
 13
6.240520
 23
2.489520
  0
POLYLINE
  8
0
  6
CONTINUOUS
 66
     1
 40
0.000000
 41
0.000000
  0
VERTEX
  8
0
  6
CONTINUOUS
 10
6.225120
 20
1.745920
  0
VERTEX
  8
0
  6
CONTINUOUS
 10
6.228640
 20
2.497440
  0
VERTEX
  8
0
  6
CONTINUOUS
 10
6.240520
 20
2.489520
  0
VERTEX
  8
0
  6
CONTINUOUS
 10
6.236560
 20
1.737560
  0
VERTEX
  8
0
  6
CONTINUOUS
 10
6.225120
 20
1.745920
  0
SEQEND
  8
0
  0
SOLID
  8
0
 62
    15
 10
3.718440
 20
2.421320
 11
3.721960
 21
3.173280
 12
3.733400
 22
2.415160
 13
3.737360
 23
3.166680
  0
POLYLINE
  8
0
  6
CONTINUOUS
 66
     1
 40
0.000000
 41
0.000000
  0
VERTEX
  8
0
  6
CONTINUOUS
 10
3.718440
 20
2.421320
  0
VERTEX
  8
0
  6
CONTINUOUS
 10
3.721960
 20
3.173280
  0
VERTEX
  8
0
  6
CONTINUOUS
 10
3.737360
 20
3.166680
  0
VERTEX
  8
0
  6
CONTINUOUS
 10
3.733400
 20
2.415160
  0
VERTEX
  8
0
  6
CONTINUOUS
 10
3.718440
 20
2.421320
  0
SEQEND
  8
0
  0
SOLID
  8
0
 62
    15
 10
3.733400
 20
2.415160
 11
3.737360
 21
3.166680
 12
3.739560
 22
2.400200
 13
3.743520
 23
3.152160
  0
POLYLINE
  8
0
  6
CONTINUOUS
 66
     1
 40
0.000000
 41
0.000000
  0
VERTEX
  8
0
  6
CONTINUOUS
 10
3.733400
 20
2.415160
  0
VERTEX
  8
0
  6
CONTINUOUS
 10
3.737360
 20
3.166680
  0
VERTEX
  8
0
  6
CONTINUOUS
 10
3.743520
 20
3.152160
  0
VERTEX
  8
0
  6
CONTINUOUS
 10
3.739560
 20
2.400200
  0
VERTEX
  8
0
  6
CONTINUOUS
 10
3.733400
 20
2.415160
  0
SEQEND
  8
0
  0
SOLID
  8
0
 62
    15
 10
3.739560
 20
2.401080
 11
3.743520
 21
3.152600
 12
3.739560
 22
2.335080
 13
3.743520
 23
3.086600
  0
POLYLINE
  8
0
  6
CONTINUOUS
 66
     1
 40
0.000000
 41
0.000000
  0
VERTEX
  8
0
  6
CONTINUOUS
 10
3.739560
 20
2.401080
  0
VERTEX
  8
0
  6
CONTINUOUS
 10
3.743520
 20
3.152600
  0
VERTEX
  8
0
  6
CONTINUOUS
 10
3.743520
 20
3.086600
  0
VERTEX
  8
0
  6
CONTINUOUS
 10
3.739560
 20
2.335080
  0
VERTEX
  8
0
  6
CONTINUOUS
 10
3.739560
 20
2.401080
  0
SEQEND
  8
0
  0
SOLID
  8
0
 62
    15
 10
3.743520
 20
3.152160
 11
3.743520
 21
3.151280
 12
3.739560
 22
2.400200
 13
3.740000
 23
2.399760
  0
POLYLINE
  8
0
  6
CONTINUOUS
 66
     1
 40
0.000000
 41
0.000000
  0
VERTEX
  8
0
  6
CONTINUOUS
 10
3.743520
 20
3.152160
  0
VERTEX
  8
0
  6
CONTINUOUS
 10
3.743520
 20
3.151280
  0
VERTEX
  8
0
  6
CONTINUOUS
 10
3.740000
 20
2.399760
  0
VERTEX
  8
0
  6
CONTINUOUS
 10
3.739560
 20
2.400200
  0
VERTEX
  8
0
  6
CONTINUOUS
 10
3.743520
 20
3.152160
  0
SEQEND
  8
0
  0
SOLID
  8
0
 62
    15
 10
3.739560
 20
2.335080
 11
3.743520
 21
3.086600
 12
6.225120
 22
1.745920
 13
6.228640
 23
2.497440
  0
POLYLINE
  8
0
  6
CONTINUOUS
 66
     1
 40
0.000000
 41
0.000000
  0
VERTEX
  8
0
  6
CONTINUOUS
 10
3.739560
 20
2.335080
  0
VERTEX
  8
0
  6
CONTINUOUS
 10
3.743520
 20
3.086600
  0
VERTEX
  8
0
  6
CONTINUOUS
 10
6.228640
 20
2.497440
  0
VERTEX
  8
0
  6
CONTINUOUS
 10
6.225120
 20
1.745920
  0
VERTEX
  8
0
  6
CONTINUOUS
 10
3.739560
 20
2.335080
  0
SEQEND
  8
0
  0
POLYLINE
  8
0
  6
CONTINUOUS
 66
     1
 40
0.000000
 41
0.000000
  0
VERTEX
  8
0
  6
CONTINUOUS
 10
6.225120
 20
1.745920
  0
VERTEX
  8
0
  6
CONTINUOUS
 10
6.236560
 20
1.737560
  0
VERTEX
  8
0
  6
CONTINUOUS
 10
6.240960
 20
1.726560
  0
VERTEX
  8
0
  6
CONTINUOUS
 10
6.240520
 20
1.726120
  0
VERTEX
  8
0
  6
CONTINUOUS
 10
6.240520
 20
1.423840
  0
VERTEX
  8
0
  6
CONTINUOUS
 10
2.236080
 20
1.423840
  0
VERTEX
  8
0
  6
CONTINUOUS
 10
2.236080
 20
2.421760
  0
VERTEX
  8
0
  6
CONTINUOUS
 10
3.717120
 20
2.421760
  0
VERTEX
  8
0
  6
CONTINUOUS
 10
3.718440
 20
2.421320
  0
VERTEX
  8
0
  6
CONTINUOUS
 10
3.733400
 20
2.415160
  0
VERTEX
  8
0
  6
CONTINUOUS
 10
3.740000
 20
2.399760
  0
VERTEX
  8
0
  6
CONTINUOUS
 10
3.739560
 20
2.401080
  0
VERTEX
  8
0
  6
CONTINUOUS
 10
3.739560
 20
2.335080
  0
VERTEX
  8
0
  6
CONTINUOUS
 10
6.225120
 20
1.745920
  0
SEQEND
  8
0
  0
TEXT
  8
0
 10
3.898840
 20
1.160720
 40
0.138202
  1
BA  1084
 41
1.000000
  7
SN0
 71
     0
 72
     5
 11
4.581103
 21
1.160720
  0
TEXT
  8
0
 10
4.001360
 20
0.969320
 40
0.138202
  1
1" x 4"
 41
1.000000
  7
SN0
 71
     0
 72
     5
 11
4.478297
 21
0.969320
  0
POLYLINE
  8
0
  6
CONTINUOUS
 66
     1
 40
0.014080
 41
0.014080
  0
VERTEX
  8
0
  6
CONTINUOUS
 10
6.200040
 20
3.801160
  0
VERTEX
  8
0
  6
CONTINUOUS
 10
6.203560
 20
3.799840
  0
VERTEX
  8
0
  6
CONTINUOUS
 10
6.206640
 20
3.798080
  0
VERTEX
  8
0
  6
CONTINUOUS
 10
6.211920
 20
3.792800
  0
VERTEX
  8
0
  6
CONTINUOUS
 10
6.215000
 20
3.787080
  0
VERTEX
  8
0
  6
CONTINUOUS
 10
6.215880
 20
3.781360
  0
VERTEX
  8
0
  6
CONTINUOUS
 10
6.215440
 20
3.781360
  0
VERTEX
  8
0
  6
CONTINUOUS
 10
6.215440
 20
3.744400
  0
VERTEX
  8
0
  6
CONTINUOUS
 10
6.215440
 20
3.479080
  0
VERTEX
  8
0
  6
CONTINUOUS
 10
2.210560
 20
3.479080
  0
VERTEX
  8
0
  6
CONTINUOUS
 10
2.210560
 20
4.477000
  0
VERTEX
  8
0
  6
CONTINUOUS
 10
3.589960
 20
4.477000
  0
VERTEX
  8
0
  6
CONTINUOUS
 10
3.692040
 20
4.477000
  0
VERTEX
  8
0
  6
CONTINUOUS
 10
3.692920
 20
4.476560
  0
VERTEX
  8
0
  6
CONTINUOUS
 10
3.697320
 20
4.476120
  0
VERTEX
  8
0
  6
CONTINUOUS
 10
3.701280
 20
4.474800
  0
VERTEX
  8
0
  6
CONTINUOUS
 10
3.704800
 20
4.473040
  0
VERTEX
  8
0
  6
CONTINUOUS
 10
3.708320
 20
4.470400
  0
VERTEX
  8
0
  6
CONTINUOUS
 10
3.710960
 20
4.466880
  0
VERTEX
  8
0
  6
CONTINUOUS
 10
3.712720
 20
4.463360
  0
VERTEX
  8
0
  6
CONTINUOUS
 10
3.714040
 20
4.459400
  0
VERTEX
  8
0
  6
CONTINUOUS
 10
3.714480
 20
4.455000
  0
VERTEX
  8
0
  6
CONTINUOUS
 10
3.714480
 20
4.456320
  0
VERTEX
  8
0
  6
CONTINUOUS
 10
3.714480
 20
4.390320
  0
VERTEX
  8
0
  6
CONTINUOUS
 10
6.200040
 20
3.801160
  0
SEQEND
  8
0
  0
TEXT
  8
0
 10
2.474120
 20
3.801600
 40
0.138202
  1
BA  1084
 41
1.000000
  7
SN0
 71
     0
 72
     5
 11
3.156383
 21
3.801600
  0
TEXT
  8
0
 10
2.576640
 20
3.610200
 40
0.138202
  1
1" x 4"
 41
1.000000
  7
SN0
 71
     0
 72
     5
 11
3.053577
 21
3.610200
  0
ENDSEC
  0
EOF
