  0
SECTION
  2
HEADER
  9
$ACADVER
  1
AC1006
  9
$EXTMIN
 10
3.170200
 20
0.350680
  9
$EXTMAX
 10
8.096880
 20
3.443440
  9
$LTSCALE
 40
0.044000
  9
$PDMODE
 70
    35
  9
$PDSIZE
 40
0.035200
  0
ENDSEC
  0
SECTION
  2
TABLES
  0
TABLE
  2
LTYPE
 70
     9
  0
LTYPE
  2
CONTINUOUS
 70
    64
  3
Solid line
 72
    65
 73
     0
 40
0.000000
  0
LTYPE
  2
DASHED
 70
    64
  3
__ __ __ __ __ __ __ __ __ __ __ __ __ __ __
 72
    65
 73
     2
 40
0.000330
 49
0.000220
 49
-0.000110
  0
LTYPE
  2
HIDDEN
 70
    64
  3
 _ _ _ _ _ _ _ _ _ _ _ _ _ _ _ _ _ _ _ _ _ _
 72
    65
 73
     2
 40
0.000165
 49
0.000110
 49
-0.000055
  0
LTYPE
  2
CENTER
 70
    64
  3
____ _ ____ _ ____ _ ____ _ ____ _ ____ _ ____
 72
    65
 73
     4
 40
0.000880
 49
0.000550
 49
-0.000110
 49
0.000110
 49
-0.000110
  0
LTYPE
  2
PHANTOM
 70
    64
  3
_____ _ _ _____ _ _ _____ _ _ _____ _ _ ____
 72
    65
 73
     6
 40
0.001100
 49
0.000550
 49
-0.000110
 49
0.000110
 49
-0.000110
 49
0.000110
 49
-0.000110
  0
LTYPE
  2
DOT
 70
    64
  3
...............................................
 72
    65
 73
     2
 40
0.000110
 49
0.000000
 49
-0.000110
  0
LTYPE
  2
DASHDOT
 70
    64
  3
__ . __ . __ . __ . __ . __ . __ . __ . __ . __
 72
    65
 73
     4
 40
0.000440
 49
0.000220
 49
-0.000110
 49
0.000000
 49
-0.000110
  0
LTYPE
  2
BORDER
 70
    64
  3
__ __ . __ __ . __ __ . __ __ . __ __ . __ __
 72
    65
 73
     6
 40
0.000770
 49
0.000220
 49
-0.000110
 49
0.000220
 49
-0.000110
 49
0.000000
 49
-0.000110
  0
LTYPE
  2
DIVIDE
 70
    64
  3
__ . . __ . . __ . . __ . . __ . . __ . . __
 72
    65
 73
     6
 40
0.000550
 49
0.000220
 49
-0.000110
 49
0.000000
 49
-0.000110
 49
0.000000
 49
-0.000110
  0
LTYPE
  2
DOTDOT
 70
    64
  3
 . .  . .  . .  . .  . .  . . 
 72
    65
 73
     5
 40
0.000242
 49
-0.000110
 49
0.000000
 49
-0.000110
 49
0.000000
 49
-0.000110
  0
ENDTAB
  0
TABLE
  2
STYLE
 70
     2
  0
STYLE
 70
     0
  2
SN0
 40
0.000000
 41
0.000440
 50
0.000000
 71
     0
 42
0.000000
  3
ROMAND
  0
STYLE
 70
    68
  2
SV0
 40
0.000000
 41
0.000440
 50
0.000000
 71
     0
 42
0.000000
  3
ROMAND
  0
ENDTAB
  0
TABLE
  2
LAYER
 70
     3
  0
LAYER
  2
FOREGROUND
 70
    64
 62
     7
  6
CONTINUOUS
  0
LAYER
  2
BACKGROUND
 70
    65
 62
    -7
  6
CONTINUOUS
  0
LAYER
  2
0
 70
    64
 62
     7
  6
CONTINUOUS
  0
ENDTAB
  0
ENDSEC
  0
SECTION
  2
ENTITIES
  0
POLYLINE
  8
FOREGROUND
  6
CONTINUOUS
 66
     1
 40
0.000000
 41
0.000000
  0
VERTEX
  8
FOREGROUND
  6
CONTINUOUS
 10
0.000000
 20
3.794120
  0
VERTEX
  8
FOREGROUND
  6
CONTINUOUS
 10
8.499920
 20
3.794120
  0
VERTEX
  8
FOREGROUND
  6
CONTINUOUS
 10
8.499920
 20
-7.205880
  0
VERTEX
  8
FOREGROUND
  6
CONTINUOUS
 10
0.000000
 20
-7.205880
  0
VERTEX
  8
FOREGROUND
  6
CONTINUOUS
 10
0.000000
 20
3.794120
  0
SEQEND
  8
0
  0
POLYLINE
  8
FOREGROUND
  6
CONTINUOUS
 66
     1
 40
0.000000
 41
0.000000
  0
VERTEX
  8
FOREGROUND
  6
CONTINUOUS
 10
0.000000
 20
3.794120
  0
VERTEX
  8
FOREGROUND
  6
CONTINUOUS
 10
8.499920
 20
3.794120
  0
VERTEX
  8
FOREGROUND
  6
CONTINUOUS
 10
8.499920
 20
-7.205880
  0
VERTEX
  8
FOREGROUND
  6
CONTINUOUS
 10
0.000000
 20
-7.205880
  0
VERTEX
  8
FOREGROUND
  6
CONTINUOUS
 10
0.000000
 20
3.794120
  0
SEQEND
  8
0
  0
TEXT
  8
0
 10
4.374920
 20
3.072960
 40
0.138198
  1
BA  1083
 41
1.000000
  7
SN0
 71
     0
 72
     5
 11
5.058497
 21
3.072960
  0
TEXT
  8
0
 10
4.219160
 20
2.881560
 40
0.138198
  1
  3/4" x 4-3/4"
 41
1.000000
  7
SN0
 71
     0
 72
     5
 11
5.217059
 21
2.881560
  0
POLYLINE
  8
0
  6
CONTINUOUS
 66
     1
 40
0.014080
 41
0.014080
  0
VERTEX
  8
0
  6
CONTINUOUS
 10
7.820560
 20
3.166240
  0
VERTEX
  8
0
  6
CONTINUOUS
 10
8.057720
 20
3.146440
  0
VERTEX
  8
0
  6
CONTINUOUS
 10
8.073560
 20
3.112560
  0
VERTEX
  8
0
  6
CONTINUOUS
 10
8.085000
 20
3.073840
  0
VERTEX
  8
0
  6
CONTINUOUS
 10
8.088960
 20
3.047000
  0
VERTEX
  8
0
  6
CONTINUOUS
 10
8.089840
 20
3.019280
  0
VERTEX
  8
0
  6
CONTINUOUS
 10
8.086320
 20
2.992440
  0
VERTEX
  8
0
  6
CONTINUOUS
 10
8.078840
 20
2.966480
  0
VERTEX
  8
0
  6
CONTINUOUS
 10
8.066080
 20
2.942720
  0
VERTEX
  8
0
  6
CONTINUOUS
 10
7.822320
 20
2.897400
  0
VERTEX
  8
0
  6
CONTINUOUS
 10
7.822320
 20
2.684000
  0
VERTEX
  8
0
  6
CONTINUOUS
 10
3.316280
 20
2.684000
  0
VERTEX
  8
0
  6
CONTINUOUS
 10
3.316280
 20
2.896080
  0
VERTEX
  8
0
  6
CONTINUOUS
 10
3.561360
 20
2.937440
  0
VERTEX
  8
0
  6
CONTINUOUS
 10
3.567080
 20
2.944480
  0
VERTEX
  8
0
  6
CONTINUOUS
 10
3.575880
 20
2.964720
  0
VERTEX
  8
0
  6
CONTINUOUS
 10
3.581600
 20
2.990680
  0
VERTEX
  8
0
  6
CONTINUOUS
 10
3.583800
 20
3.020160
  0
VERTEX
  8
0
  6
CONTINUOUS
 10
3.582920
 20
3.051400
  0
VERTEX
  8
0
  6
CONTINUOUS
 10
3.578960
 20
3.082200
  0
VERTEX
  8
0
  6
CONTINUOUS
 10
3.571480
 20
3.109920
  0
VERTEX
  8
0
  6
CONTINUOUS
 10
3.561360
 20
3.132360
  0
VERTEX
  8
0
  6
CONTINUOUS
 10
3.554760
 20
3.141160
  0
VERTEX
  8
0
  6
CONTINUOUS
 10
3.316280
 20
3.161840
  0
VERTEX
  8
0
  6
CONTINUOUS
 10
3.316280
 20
3.347520
  0
VERTEX
  8
0
  6
CONTINUOUS
 10
3.339600
 20
3.434640
  0
VERTEX
  8
0
  6
CONTINUOUS
 10
5.214000
 20
3.434640
  0
VERTEX
  8
0
  6
CONTINUOUS
 10
5.237760
 20
3.345320
  0
VERTEX
  8
0
  6
CONTINUOUS
 10
5.268560
 20
3.345320
  0
VERTEX
  8
0
  6
CONTINUOUS
 10
5.280880
 20
3.367320
  0
VERTEX
  8
0
  6
CONTINUOUS
 10
5.302880
 20
3.394600
  0
VERTEX
  8
0
  6
CONTINUOUS
 10
5.328400
 20
3.414400
  0
VERTEX
  8
0
  6
CONTINUOUS
 10
5.356560
 20
3.427160
  0
VERTEX
  8
0
  6
CONTINUOUS
 10
5.375920
 20
3.432000
  0
VERTEX
  8
0
  6
CONTINUOUS
 10
5.395280
 20
3.434200
  0
VERTEX
  8
0
  6
CONTINUOUS
 10
5.415080
 20
3.433320
  0
VERTEX
  8
0
  6
CONTINUOUS
 10
5.444120
 20
3.427160
  0
VERTEX
  8
0
  6
CONTINUOUS
 10
5.471400
 20
3.414840
  0
VERTEX
  8
0
  6
CONTINUOUS
 10
5.496480
 20
3.396800
  0
VERTEX
  8
0
  6
CONTINUOUS
 10
5.511000
 20
3.381840
  0
VERTEX
  8
0
  6
CONTINUOUS
 10
5.529040
 20
3.355440
  0
VERTEX
  8
0
  6
CONTINUOUS
 10
5.533880
 20
3.345320
  0
VERTEX
  8
0
  6
CONTINUOUS
 10
5.561160
 20
3.345320
  0
VERTEX
  8
0
  6
CONTINUOUS
 10
5.585360
 20
3.435520
  0
VERTEX
  8
0
  6
CONTINUOUS
 10
7.468120
 20
3.435520
  0
VERTEX
  8
0
  6
CONTINUOUS
 10
7.492320
 20
3.345320
  0
VERTEX
  8
0
  6
CONTINUOUS
 10
7.522240
 20
3.345320
  0
VERTEX
  8
0
  6
CONTINUOUS
 10
7.539400
 20
3.375240
  0
VERTEX
  8
0
  6
CONTINUOUS
 10
7.560960
 20
3.399000
  0
VERTEX
  8
0
  6
CONTINUOUS
 10
7.585600
 20
3.417040
  0
VERTEX
  8
0
  6
CONTINUOUS
 10
7.603640
 20
3.425840
  0
VERTEX
  8
0
  6
CONTINUOUS
 10
7.632240
 20
3.433320
  0
VERTEX
  8
0
  6
CONTINUOUS
 10
7.652040
 20
3.435080
  0
VERTEX
  8
0
  6
CONTINUOUS
 10
7.671840
 20
3.434200
  0
VERTEX
  8
0
  6
CONTINUOUS
 10
7.691200
 20
3.430680
  0
VERTEX
  8
0
  6
CONTINUOUS
 10
7.719800
 20
3.419680
  0
VERTEX
  8
0
  6
CONTINUOUS
 10
7.745760
 20
3.402080
  0
VERTEX
  8
0
  6
CONTINUOUS
 10
7.769080
 20
3.377880
  0
VERTEX
  8
0
  6
CONTINUOUS
 10
7.782720
 20
3.358080
  0
VERTEX
  8
0
  6
CONTINUOUS
 10
7.788440
 20
3.347080
  0
VERTEX
  8
0
  6
CONTINUOUS
 10
7.819680
 20
3.347080
  0
VERTEX
  8
0
  6
CONTINUOUS
 10
7.819680
 20
3.166240
  0
VERTEX
  8
0
  6
CONTINUOUS
 10
7.820560
 20
3.166240
  0
SEQEND
  8
0
  0
TEXT
  8
0
 10
5.218840
 20
0.586520
 40
0.138198
  1
BA  1083
 41
1.000000
  7
SN0
 71
     0
 72
     5
 11
5.902417
 21
0.586520
  0
TEXT
  8
0
 10
5.063080
 20
0.394680
 40
0.138198
  1
  3/4" x 4-3/4"
 41
1.000000
  7
SN0
 71
     0
 72
     5
 11
6.060979
 21
0.394680
  0
SOLID
  8
0
 62
    15
 10
5.259760
 20
1.603360
 11
5.265040
 21
2.339480
 12
5.298920
 22
1.596320
 13
5.303760
 23
2.332440
  0
POLYLINE
  8
0
  6
CONTINUOUS
 66
     1
 40
0.000000
 41
0.000000
  0
VERTEX
  8
0
  6
CONTINUOUS
 10
5.259760
 20
1.603360
  0
VERTEX
  8
0
  6
CONTINUOUS
 10
5.265040
 20
2.339480
  0
VERTEX
  8
0
  6
CONTINUOUS
 10
5.303760
 20
2.332440
  0
VERTEX
  8
0
  6
CONTINUOUS
 10
5.298920
 20
1.596320
  0
VERTEX
  8
0
  6
CONTINUOUS
 10
5.259760
 20
1.603360
  0
SEQEND
  8
0
  0
SOLID
  8
0
 62
    15
 10
7.912520
 20
1.315600
 11
7.917360
 21
2.051720
 12
7.932760
 22
1.269400
 13
7.937600
 23
2.005520
  0
POLYLINE
  8
0
  6
CONTINUOUS
 66
     1
 40
0.000000
 41
0.000000
  0
VERTEX
  8
0
  6
CONTINUOUS
 10
7.912520
 20
1.315600
  0
VERTEX
  8
0
  6
CONTINUOUS
 10
7.917360
 20
2.051720
  0
VERTEX
  8
0
  6
CONTINUOUS
 10
7.937600
 20
2.005520
  0
VERTEX
  8
0
  6
CONTINUOUS
 10
7.932760
 20
1.269400
  0
VERTEX
  8
0
  6
CONTINUOUS
 10
7.912520
 20
1.315600
  0
SEQEND
  8
0
  0
SOLID
  8
0
 62
    15
 10
7.932760
 20
1.269400
 11
7.937600
 21
2.005520
 12
7.943760
 22
1.216160
 13
7.948600
 23
1.952280
  0
POLYLINE
  8
0
  6
CONTINUOUS
 66
     1
 40
0.000000
 41
0.000000
  0
VERTEX
  8
0
  6
CONTINUOUS
 10
7.932760
 20
1.269400
  0
VERTEX
  8
0
  6
CONTINUOUS
 10
7.937600
 20
2.005520
  0
VERTEX
  8
0
  6
CONTINUOUS
 10
7.948600
 20
1.952280
  0
VERTEX
  8
0
  6
CONTINUOUS
 10
7.943760
 20
1.216160
  0
VERTEX
  8
0
  6
CONTINUOUS
 10
7.932760
 20
1.269400
  0
SEQEND
  8
0
  0
SOLID
  8
0
 62
    15
 10
7.943760
 20
1.216160
 11
7.948600
 21
1.952280
 12
7.944200
 22
1.188880
 13
7.949480
 23
1.925000
  0
POLYLINE
  8
0
  6
CONTINUOUS
 66
     1
 40
0.000000
 41
0.000000
  0
VERTEX
  8
0
  6
CONTINUOUS
 10
7.943760
 20
1.216160
  0
VERTEX
  8
0
  6
CONTINUOUS
 10
7.948600
 20
1.952280
  0
VERTEX
  8
0
  6
CONTINUOUS
 10
7.949480
 20
1.925000
  0
VERTEX
  8
0
  6
CONTINUOUS
 10
7.944200
 20
1.188880
  0
VERTEX
  8
0
  6
CONTINUOUS
 10
7.943760
 20
1.216160
  0
SEQEND
  8
0
  0
SOLID
  8
0
 62
    15
 10
7.677120
 20
1.066560
 11
7.681960
 21
1.802680
 12
7.677120
 22
0.853600
 13
7.681960
 23
1.589720
  0
POLYLINE
  8
0
  6
CONTINUOUS
 66
     1
 40
0.000000
 41
0.000000
  0
VERTEX
  8
0
  6
CONTINUOUS
 10
7.677120
 20
1.066560
  0
VERTEX
  8
0
  6
CONTINUOUS
 10
7.681960
 20
1.802680
  0
VERTEX
  8
0
  6
CONTINUOUS
 10
7.681960
 20
1.589720
  0
VERTEX
  8
0
  6
CONTINUOUS
 10
7.677120
 20
0.853600
  0
VERTEX
  8
0
  6
CONTINUOUS
 10
7.677120
 20
1.066560
  0
SEQEND
  8
0
  0
SOLID
  8
0
 62
    15
 10
3.171080
 20
1.065240
 11
3.175920
 21
1.801360
 12
3.416160
 22
1.106600
 13
3.421440
 23
1.842720
  0
POLYLINE
  8
0
  6
CONTINUOUS
 66
     1
 40
0.000000
 41
0.000000
  0
VERTEX
  8
0
  6
CONTINUOUS
 10
3.171080
 20
1.065240
  0
VERTEX
  8
0
  6
CONTINUOUS
 10
3.175920
 20
1.801360
  0
VERTEX
  8
0
  6
CONTINUOUS
 10
3.421440
 20
1.842720
  0
VERTEX
  8
0
  6
CONTINUOUS
 10
3.416160
 20
1.106600
  0
VERTEX
  8
0
  6
CONTINUOUS
 10
3.171080
 20
1.065240
  0
SEQEND
  8
0
  0
SOLID
  8
0
 62
    15
 10
3.416160
 20
1.106600
 11
3.421440
 21
1.842720
 12
3.426720
 22
1.122880
 13
3.431560
 23
1.859000
  0
POLYLINE
  8
0
  6
CONTINUOUS
 66
     1
 40
0.000000
 41
0.000000
  0
VERTEX
  8
0
  6
CONTINUOUS
 10
3.416160
 20
1.106600
  0
VERTEX
  8
0
  6
CONTINUOUS
 10
3.421440
 20
1.842720
  0
VERTEX
  8
0
  6
CONTINUOUS
 10
3.431560
 20
1.859000
  0
VERTEX
  8
0
  6
CONTINUOUS
 10
3.426720
 20
1.122880
  0
VERTEX
  8
0
  6
CONTINUOUS
 10
3.416160
 20
1.106600
  0
SEQEND
  8
0
  0
SOLID
  8
0
 62
    15
 10
3.426720
 20
1.122880
 11
3.431560
 21
1.859000
 12
3.433760
 22
1.146200
 13
3.438600
 23
1.882320
  0
POLYLINE
  8
0
  6
CONTINUOUS
 66
     1
 40
0.000000
 41
0.000000
  0
VERTEX
  8
0
  6
CONTINUOUS
 10
3.426720
 20
1.122880
  0
VERTEX
  8
0
  6
CONTINUOUS
 10
3.431560
 20
1.859000
  0
VERTEX
  8
0
  6
CONTINUOUS
 10
3.438600
 20
1.882320
  0
VERTEX
  8
0
  6
CONTINUOUS
 10
3.433760
 20
1.146200
  0
VERTEX
  8
0
  6
CONTINUOUS
 10
3.426720
 20
1.122880
  0
SEQEND
  8
0
  0
SOLID
  8
0
 62
    15
 10
3.433760
 20
1.146200
 11
3.438600
 21
1.882320
 12
3.437720
 22
1.174360
 13
3.443000
 23
1.910480
  0
POLYLINE
  8
0
  6
CONTINUOUS
 66
     1
 40
0.000000
 41
0.000000
  0
VERTEX
  8
0
  6
CONTINUOUS
 10
3.433760
 20
1.146200
  0
VERTEX
  8
0
  6
CONTINUOUS
 10
3.438600
 20
1.882320
  0
VERTEX
  8
0
  6
CONTINUOUS
 10
3.443000
 20
1.910480
  0
VERTEX
  8
0
  6
CONTINUOUS
 10
3.437720
 20
1.174360
  0
VERTEX
  8
0
  6
CONTINUOUS
 10
3.433760
 20
1.146200
  0
SEQEND
  8
0
  0
SOLID
  8
0
 62
    15
 10
3.437720
 20
1.174360
 11
3.443000
 21
1.910480
 12
3.438600
 22
1.205160
 13
3.443440
 23
1.941280
  0
POLYLINE
  8
0
  6
CONTINUOUS
 66
     1
 40
0.000000
 41
0.000000
  0
VERTEX
  8
0
  6
CONTINUOUS
 10
3.437720
 20
1.174360
  0
VERTEX
  8
0
  6
CONTINUOUS
 10
3.443000
 20
1.910480
  0
VERTEX
  8
0
  6
CONTINUOUS
 10
3.443440
 20
1.941280
  0
VERTEX
  8
0
  6
CONTINUOUS
 10
3.438600
 20
1.205160
  0
VERTEX
  8
0
  6
CONTINUOUS
 10
3.437720
 20
1.174360
  0
SEQEND
  8
0
  0
SOLID
  8
0
 62
    15
 10
3.171080
 20
1.516680
 11
3.175920
 21
2.252800
 12
3.194400
 22
1.603800
 13
3.199240
 23
2.339920
  0
POLYLINE
  8
0
  6
CONTINUOUS
 66
     1
 40
0.000000
 41
0.000000
  0
VERTEX
  8
0
  6
CONTINUOUS
 10
3.171080
 20
1.516680
  0
VERTEX
  8
0
  6
CONTINUOUS
 10
3.175920
 20
2.252800
  0
VERTEX
  8
0
  6
CONTINUOUS
 10
3.199240
 20
2.339920
  0
VERTEX
  8
0
  6
CONTINUOUS
 10
3.194400
 20
1.603800
  0
VERTEX
  8
0
  6
CONTINUOUS
 10
3.171080
 20
1.516680
  0
SEQEND
  8
0
  0
SOLID
  8
0
 62
    15
 10
3.194400
 20
1.603800
 11
3.199240
 21
2.339920
 12
5.068800
 22
1.603800
 13
5.073640
 23
2.339920
  0
POLYLINE
  8
0
  6
CONTINUOUS
 66
     1
 40
0.000000
 41
0.000000
  0
VERTEX
  8
0
  6
CONTINUOUS
 10
3.194400
 20
1.603800
  0
VERTEX
  8
0
  6
CONTINUOUS
 10
3.199240
 20
2.339920
  0
VERTEX
  8
0
  6
CONTINUOUS
 10
5.073640
 20
2.339920
  0
VERTEX
  8
0
  6
CONTINUOUS
 10
5.068800
 20
1.603800
  0
VERTEX
  8
0
  6
CONTINUOUS
 10
3.194400
 20
1.603800
  0
SEQEND
  8
0
  0
SOLID
  8
0
 62
    15
 10
5.068800
 20
1.603800
 11
5.073640
 21
2.339920
 12
5.092560
 22
1.514920
 13
5.097400
 23
2.251040
  0
POLYLINE
  8
0
  6
CONTINUOUS
 66
     1
 40
0.000000
 41
0.000000
  0
VERTEX
  8
0
  6
CONTINUOUS
 10
5.068800
 20
1.603800
  0
VERTEX
  8
0
  6
CONTINUOUS
 10
5.073640
 20
2.339920
  0
VERTEX
  8
0
  6
CONTINUOUS
 10
5.097400
 20
2.251040
  0
VERTEX
  8
0
  6
CONTINUOUS
 10
5.092560
 20
1.514920
  0
VERTEX
  8
0
  6
CONTINUOUS
 10
5.068800
 20
1.603800
  0
SEQEND
  8
0
  0
SOLID
  8
0
 62
    15
 10
5.092560
 20
1.514920
 11
5.097400
 21
2.251040
 12
5.123360
 22
1.514920
 13
5.128200
 23
2.251040
  0
POLYLINE
  8
0
  6
CONTINUOUS
 66
     1
 40
0.000000
 41
0.000000
  0
VERTEX
  8
0
  6
CONTINUOUS
 10
5.092560
 20
1.514920
  0
VERTEX
  8
0
  6
CONTINUOUS
 10
5.097400
 20
2.251040
  0
VERTEX
  8
0
  6
CONTINUOUS
 10
5.128200
 20
2.251040
  0
VERTEX
  8
0
  6
CONTINUOUS
 10
5.123360
 20
1.514920
  0
VERTEX
  8
0
  6
CONTINUOUS
 10
5.092560
 20
1.514920
  0
SEQEND
  8
0
  0
SOLID
  8
0
 62
    15
 10
5.123360
 20
1.514920
 11
5.128200
 21
2.251040
 12
5.135680
 22
1.536920
 13
5.140520
 23
2.273040
  0
POLYLINE
  8
0
  6
CONTINUOUS
 66
     1
 40
0.000000
 41
0.000000
  0
VERTEX
  8
0
  6
CONTINUOUS
 10
5.123360
 20
1.514920
  0
VERTEX
  8
0
  6
CONTINUOUS
 10
5.128200
 20
2.251040
  0
VERTEX
  8
0
  6
CONTINUOUS
 10
5.140520
 20
2.273040
  0
VERTEX
  8
0
  6
CONTINUOUS
 10
5.135680
 20
1.536920
  0
VERTEX
  8
0
  6
CONTINUOUS
 10
5.123360
 20
1.514920
  0
SEQEND
  8
0
  0
SOLID
  8
0
 62
    15
 10
5.135680
 20
1.536920
 11
5.140520
 21
2.273040
 12
5.149760
 22
1.555840
 13
5.155040
 23
2.291960
  0
POLYLINE
  8
0
  6
CONTINUOUS
 66
     1
 40
0.000000
 41
0.000000
  0
VERTEX
  8
0
  6
CONTINUOUS
 10
5.135680
 20
1.536920
  0
VERTEX
  8
0
  6
CONTINUOUS
 10
5.140520
 20
2.273040
  0
VERTEX
  8
0
  6
CONTINUOUS
 10
5.155040
 20
2.291960
  0
VERTEX
  8
0
  6
CONTINUOUS
 10
5.149760
 20
1.555840
  0
VERTEX
  8
0
  6
CONTINUOUS
 10
5.135680
 20
1.536920
  0
SEQEND
  8
0
  0
SOLID
  8
0
 62
    15
 10
5.149760
 20
1.555840
 11
5.155040
 21
2.291960
 12
5.166040
 22
1.571240
 13
5.170880
 23
2.307360
  0
POLYLINE
  8
0
  6
CONTINUOUS
 66
     1
 40
0.000000
 41
0.000000
  0
VERTEX
  8
0
  6
CONTINUOUS
 10
5.149760
 20
1.555840
  0
VERTEX
  8
0
  6
CONTINUOUS
 10
5.155040
 20
2.291960
  0
VERTEX
  8
0
  6
CONTINUOUS
 10
5.170880
 20
2.307360
  0
VERTEX
  8
0
  6
CONTINUOUS
 10
5.166040
 20
1.571240
  0
VERTEX
  8
0
  6
CONTINUOUS
 10
5.149760
 20
1.555840
  0
SEQEND
  8
0
  0
SOLID
  8
0
 62
    15
 10
5.166040
 20
1.571240
 11
5.170880
 21
2.307360
 12
5.183200
 22
1.584000
 13
5.188040
 23
2.320120
  0
POLYLINE
  8
0
  6
CONTINUOUS
 66
     1
 40
0.000000
 41
0.000000
  0
VERTEX
  8
0
  6
CONTINUOUS
 10
5.166040
 20
1.571240
  0
VERTEX
  8
0
  6
CONTINUOUS
 10
5.170880
 20
2.307360
  0
VERTEX
  8
0
  6
CONTINUOUS
 10
5.188040
 20
2.320120
  0
VERTEX
  8
0
  6
CONTINUOUS
 10
5.183200
 20
1.584000
  0
VERTEX
  8
0
  6
CONTINUOUS
 10
5.166040
 20
1.571240
  0
SEQEND
  8
0
  0
SOLID
  8
0
 62
    15
 10
5.183200
 20
1.584000
 11
5.188040
 21
2.320120
 12
5.220600
 22
1.599400
 13
5.225880
 23
2.335520
  0
POLYLINE
  8
0
  6
CONTINUOUS
 66
     1
 40
0.000000
 41
0.000000
  0
VERTEX
  8
0
  6
CONTINUOUS
 10
5.183200
 20
1.584000
  0
VERTEX
  8
0
  6
CONTINUOUS
 10
5.188040
 20
2.320120
  0
VERTEX
  8
0
  6
CONTINUOUS
 10
5.225880
 20
2.335520
  0
VERTEX
  8
0
  6
CONTINUOUS
 10
5.220600
 20
1.599400
  0
VERTEX
  8
0
  6
CONTINUOUS
 10
5.183200
 20
1.584000
  0
SEQEND
  8
0
  0
SOLID
  8
0
 62
    15
 10
5.220600
 20
1.599400
 11
5.225880
 21
2.335520
 12
5.259760
 22
1.603360
 13
5.265040
 23
2.339480
  0
POLYLINE
  8
0
  6
CONTINUOUS
 66
     1
 40
0.000000
 41
0.000000
  0
VERTEX
  8
0
  6
CONTINUOUS
 10
5.220600
 20
1.599400
  0
VERTEX
  8
0
  6
CONTINUOUS
 10
5.225880
 20
2.335520
  0
VERTEX
  8
0
  6
CONTINUOUS
 10
5.265040
 20
2.339480
  0
VERTEX
  8
0
  6
CONTINUOUS
 10
5.259760
 20
1.603360
  0
VERTEX
  8
0
  6
CONTINUOUS
 10
5.220600
 20
1.599400
  0
SEQEND
  8
0
  0
SOLID
  8
0
 62
    15
 10
7.675360
 20
1.335840
 11
7.680200
 21
2.071960
 12
7.912520
 22
1.315600
 13
7.917360
 23
2.051720
  0
POLYLINE
  8
0
  6
CONTINUOUS
 66
     1
 40
0.000000
 41
0.000000
  0
VERTEX
  8
0
  6
CONTINUOUS
 10
7.675360
 20
1.335840
  0
VERTEX
  8
0
  6
CONTINUOUS
 10
7.680200
 20
2.071960
  0
VERTEX
  8
0
  6
CONTINUOUS
 10
7.917360
 20
2.051720
  0
VERTEX
  8
0
  6
CONTINUOUS
 10
7.912520
 20
1.315600
  0
VERTEX
  8
0
  6
CONTINUOUS
 10
7.675360
 20
1.335840
  0
SEQEND
  8
0
  0
SOLID
  8
0
 62
    15
 10
5.298920
 20
1.596320
 11
5.303760
 21
2.332440
 12
5.334560
 22
1.578720
 13
5.339840
 23
2.314840
  0
POLYLINE
  8
0
  6
CONTINUOUS
 66
     1
 40
0.000000
 41
0.000000
  0
VERTEX
  8
0
  6
CONTINUOUS
 10
5.298920
 20
1.596320
  0
VERTEX
  8
0
  6
CONTINUOUS
 10
5.303760
 20
2.332440
  0
VERTEX
  8
0
  6
CONTINUOUS
 10
5.339840
 20
2.314840
  0
VERTEX
  8
0
  6
CONTINUOUS
 10
5.334560
 20
1.578720
  0
VERTEX
  8
0
  6
CONTINUOUS
 10
5.298920
 20
1.596320
  0
SEQEND
  8
0
  0
SOLID
  8
0
 62
    15
 10
5.334560
 20
1.578720
 11
5.339840
 21
2.314840
 12
5.365360
 22
1.551440
 13
5.370200
 23
2.287560
  0
POLYLINE
  8
0
  6
CONTINUOUS
 66
     1
 40
0.000000
 41
0.000000
  0
VERTEX
  8
0
  6
CONTINUOUS
 10
5.334560
 20
1.578720
  0
VERTEX
  8
0
  6
CONTINUOUS
 10
5.339840
 20
2.314840
  0
VERTEX
  8
0
  6
CONTINUOUS
 10
5.370200
 20
2.287560
  0
VERTEX
  8
0
  6
CONTINUOUS
 10
5.365360
 20
1.551440
  0
VERTEX
  8
0
  6
CONTINUOUS
 10
5.334560
 20
1.578720
  0
SEQEND
  8
0
  0
SOLID
  8
0
 62
    15
 10
5.365360
 20
1.551440
 11
5.370200
 21
2.287560
 12
5.388240
 22
1.514920
 13
5.393520
 23
2.251040
  0
POLYLINE
  8
0
  6
CONTINUOUS
 66
     1
 40
0.000000
 41
0.000000
  0
VERTEX
  8
0
  6
CONTINUOUS
 10
5.365360
 20
1.551440
  0
VERTEX
  8
0
  6
CONTINUOUS
 10
5.370200
 20
2.287560
  0
VERTEX
  8
0
  6
CONTINUOUS
 10
5.393520
 20
2.251040
  0
VERTEX
  8
0
  6
CONTINUOUS
 10
5.388240
 20
1.514920
  0
VERTEX
  8
0
  6
CONTINUOUS
 10
5.365360
 20
1.551440
  0
SEQEND
  8
0
  0
SOLID
  8
0
 62
    15
 10
5.388240
 20
1.514920
 11
5.393520
 21
2.251040
 12
5.415520
 22
1.514920
 13
5.420800
 23
2.251040
  0
POLYLINE
  8
0
  6
CONTINUOUS
 66
     1
 40
0.000000
 41
0.000000
  0
VERTEX
  8
0
  6
CONTINUOUS
 10
5.388240
 20
1.514920
  0
VERTEX
  8
0
  6
CONTINUOUS
 10
5.393520
 20
2.251040
  0
VERTEX
  8
0
  6
CONTINUOUS
 10
5.420800
 20
2.251040
  0
VERTEX
  8
0
  6
CONTINUOUS
 10
5.415520
 20
1.514920
  0
VERTEX
  8
0
  6
CONTINUOUS
 10
5.388240
 20
1.514920
  0
SEQEND
  8
0
  0
SOLID
  8
0
 62
    15
 10
5.415520
 20
1.514920
 11
5.420800
 21
2.251040
 12
5.439720
 22
1.605120
 13
5.445000
 23
2.341240
  0
POLYLINE
  8
0
  6
CONTINUOUS
 66
     1
 40
0.000000
 41
0.000000
  0
VERTEX
  8
0
  6
CONTINUOUS
 10
5.415520
 20
1.514920
  0
VERTEX
  8
0
  6
CONTINUOUS
 10
5.420800
 20
2.251040
  0
VERTEX
  8
0
  6
CONTINUOUS
 10
5.445000
 20
2.341240
  0
VERTEX
  8
0
  6
CONTINUOUS
 10
5.439720
 20
1.605120
  0
VERTEX
  8
0
  6
CONTINUOUS
 10
5.415520
 20
1.514920
  0
SEQEND
  8
0
  0
SOLID
  8
0
 62
    15
 10
7.347120
 20
1.514920
 11
7.351960
 21
2.251040
 12
7.376600
 22
1.514920
 13
7.381880
 23
2.251040
  0
POLYLINE
  8
0
  6
CONTINUOUS
 66
     1
 40
0.000000
 41
0.000000
  0
VERTEX
  8
0
  6
CONTINUOUS
 10
7.347120
 20
1.514920
  0
VERTEX
  8
0
  6
CONTINUOUS
 10
7.351960
 20
2.251040
  0
VERTEX
  8
0
  6
CONTINUOUS
 10
7.381880
 20
2.251040
  0
VERTEX
  8
0
  6
CONTINUOUS
 10
7.376600
 20
1.514920
  0
VERTEX
  8
0
  6
CONTINUOUS
 10
7.347120
 20
1.514920
  0
SEQEND
  8
0
  0
SOLID
  8
0
 62
    15
 10
7.322920
 20
1.605120
 11
7.328200
 21
2.341240
 12
7.347120
 22
1.514920
 13
7.351960
 23
2.251040
  0
POLYLINE
  8
0
  6
CONTINUOUS
 66
     1
 40
0.000000
 41
0.000000
  0
VERTEX
  8
0
  6
CONTINUOUS
 10
7.322920
 20
1.605120
  0
VERTEX
  8
0
  6
CONTINUOUS
 10
7.328200
 20
2.341240
  0
VERTEX
  8
0
  6
CONTINUOUS
 10
7.351960
 20
2.251040
  0
VERTEX
  8
0
  6
CONTINUOUS
 10
7.347120
 20
1.514920
  0
VERTEX
  8
0
  6
CONTINUOUS
 10
7.322920
 20
1.605120
  0
SEQEND
  8
0
  0
SOLID
  8
0
 62
    15
 10
5.439720
 20
1.605120
 11
5.445000
 21
2.341240
 12
7.322920
 22
1.605120
 13
7.328200
 23
2.341240
  0
POLYLINE
  8
0
  6
CONTINUOUS
 66
     1
 40
0.000000
 41
0.000000
  0
VERTEX
  8
0
  6
CONTINUOUS
 10
5.439720
 20
1.605120
  0
VERTEX
  8
0
  6
CONTINUOUS
 10
5.445000
 20
2.341240
  0
VERTEX
  8
0
  6
CONTINUOUS
 10
7.328200
 20
2.341240
  0
VERTEX
  8
0
  6
CONTINUOUS
 10
7.322920
 20
1.605120
  0
VERTEX
  8
0
  6
CONTINUOUS
 10
5.439720
 20
1.605120
  0
SEQEND
  8
0
  0
SOLID
  8
0
 62
    15
 10
7.376600
 20
1.514920
 11
7.381880
 21
2.251040
 12
7.400360
 22
1.553200
 13
7.405640
 23
2.289320
  0
POLYLINE
  8
0
  6
CONTINUOUS
 66
     1
 40
0.000000
 41
0.000000
  0
VERTEX
  8
0
  6
CONTINUOUS
 10
7.376600
 20
1.514920
  0
VERTEX
  8
0
  6
CONTINUOUS
 10
7.381880
 20
2.251040
  0
VERTEX
  8
0
  6
CONTINUOUS
 10
7.405640
 20
2.289320
  0
VERTEX
  8
0
  6
CONTINUOUS
 10
7.400360
 20
1.553200
  0
VERTEX
  8
0
  6
CONTINUOUS
 10
7.376600
 20
1.514920
  0
SEQEND
  8
0
  0
SOLID
  8
0
 62
    15
 10
7.400360
 20
1.553200
 11
7.405640
 21
2.289320
 12
7.431600
 22
1.581360
 13
7.436880
 23
2.317480
  0
POLYLINE
  8
0
  6
CONTINUOUS
 66
     1
 40
0.000000
 41
0.000000
  0
VERTEX
  8
0
  6
CONTINUOUS
 10
7.400360
 20
1.553200
  0
VERTEX
  8
0
  6
CONTINUOUS
 10
7.405640
 20
2.289320
  0
VERTEX
  8
0
  6
CONTINUOUS
 10
7.436880
 20
2.317480
  0
VERTEX
  8
0
  6
CONTINUOUS
 10
7.431600
 20
1.581360
  0
VERTEX
  8
0
  6
CONTINUOUS
 10
7.400360
 20
1.553200
  0
SEQEND
  8
0
  0
SOLID
  8
0
 62
    15
 10
7.431600
 20
1.581360
 11
7.436880
 21
2.317480
 12
7.468120
 22
1.598520
 13
7.472960
 23
2.334640
  0
POLYLINE
  8
0
  6
CONTINUOUS
 66
     1
 40
0.000000
 41
0.000000
  0
VERTEX
  8
0
  6
CONTINUOUS
 10
7.431600
 20
1.581360
  0
VERTEX
  8
0
  6
CONTINUOUS
 10
7.436880
 20
2.317480
  0
VERTEX
  8
0
  6
CONTINUOUS
 10
7.472960
 20
2.334640
  0
VERTEX
  8
0
  6
CONTINUOUS
 10
7.468120
 20
1.598520
  0
VERTEX
  8
0
  6
CONTINUOUS
 10
7.431600
 20
1.581360
  0
SEQEND
  8
0
  0
SOLID
  8
0
 62
    15
 10
7.468120
 20
1.598520
 11
7.472960
 21
2.334640
 12
7.506840
 22
1.604680
 13
7.511680
 23
2.340800
  0
POLYLINE
  8
0
  6
CONTINUOUS
 66
     1
 40
0.000000
 41
0.000000
  0
VERTEX
  8
0
  6
CONTINUOUS
 10
7.468120
 20
1.598520
  0
VERTEX
  8
0
  6
CONTINUOUS
 10
7.472960
 20
2.334640
  0
VERTEX
  8
0
  6
CONTINUOUS
 10
7.511680
 20
2.340800
  0
VERTEX
  8
0
  6
CONTINUOUS
 10
7.506840
 20
1.604680
  0
VERTEX
  8
0
  6
CONTINUOUS
 10
7.468120
 20
1.598520
  0
SEQEND
  8
0
  0
SOLID
  8
0
 62
    15
 10
7.506840
 20
1.604680
 11
7.511680
 21
2.340800
 12
7.546000
 22
1.599840
 13
7.551280
 23
2.335960
  0
POLYLINE
  8
0
  6
CONTINUOUS
 66
     1
 40
0.000000
 41
0.000000
  0
VERTEX
  8
0
  6
CONTINUOUS
 10
7.506840
 20
1.604680
  0
VERTEX
  8
0
  6
CONTINUOUS
 10
7.511680
 20
2.340800
  0
VERTEX
  8
0
  6
CONTINUOUS
 10
7.551280
 20
2.335960
  0
VERTEX
  8
0
  6
CONTINUOUS
 10
7.546000
 20
1.599840
  0
VERTEX
  8
0
  6
CONTINUOUS
 10
7.506840
 20
1.604680
  0
SEQEND
  8
0
  0
SOLID
  8
0
 62
    15
 10
7.546000
 20
1.599840
 11
7.551280
 21
2.335960
 12
7.583400
 22
1.583560
 13
7.588240
 23
2.319680
  0
POLYLINE
  8
0
  6
CONTINUOUS
 66
     1
 40
0.000000
 41
0.000000
  0
VERTEX
  8
0
  6
CONTINUOUS
 10
7.546000
 20
1.599840
  0
VERTEX
  8
0
  6
CONTINUOUS
 10
7.551280
 20
2.335960
  0
VERTEX
  8
0
  6
CONTINUOUS
 10
7.588240
 20
2.319680
  0
VERTEX
  8
0
  6
CONTINUOUS
 10
7.583400
 20
1.583560
  0
VERTEX
  8
0
  6
CONTINUOUS
 10
7.546000
 20
1.599840
  0
SEQEND
  8
0
  0
SOLID
  8
0
 62
    15
 10
7.583400
 20
1.583560
 11
7.588240
 21
2.319680
 12
7.616400
 22
1.555840
 13
7.621680
 23
2.291960
  0
POLYLINE
  8
0
  6
CONTINUOUS
 66
     1
 40
0.000000
 41
0.000000
  0
VERTEX
  8
0
  6
CONTINUOUS
 10
7.583400
 20
1.583560
  0
VERTEX
  8
0
  6
CONTINUOUS
 10
7.588240
 20
2.319680
  0
VERTEX
  8
0
  6
CONTINUOUS
 10
7.621680
 20
2.291960
  0
VERTEX
  8
0
  6
CONTINUOUS
 10
7.616400
 20
1.555840
  0
VERTEX
  8
0
  6
CONTINUOUS
 10
7.583400
 20
1.583560
  0
SEQEND
  8
0
  0
SOLID
  8
0
 62
    15
 10
7.616400
 20
1.555840
 11
7.621680
 21
2.291960
 12
7.630920
 22
1.537360
 13
7.635760
 23
2.273480
  0
POLYLINE
  8
0
  6
CONTINUOUS
 66
     1
 40
0.000000
 41
0.000000
  0
VERTEX
  8
0
  6
CONTINUOUS
 10
7.616400
 20
1.555840
  0
VERTEX
  8
0
  6
CONTINUOUS
 10
7.621680
 20
2.291960
  0
VERTEX
  8
0
  6
CONTINUOUS
 10
7.635760
 20
2.273480
  0
VERTEX
  8
0
  6
CONTINUOUS
 10
7.630920
 20
1.537360
  0
VERTEX
  8
0
  6
CONTINUOUS
 10
7.616400
 20
1.555840
  0
SEQEND
  8
0
  0
SOLID
  8
0
 62
    15
 10
7.630920
 20
1.537360
 11
7.635760
 21
2.273480
 12
7.643240
 22
1.516240
 13
7.648080
 23
2.252360
  0
POLYLINE
  8
0
  6
CONTINUOUS
 66
     1
 40
0.000000
 41
0.000000
  0
VERTEX
  8
0
  6
CONTINUOUS
 10
7.630920
 20
1.537360
  0
VERTEX
  8
0
  6
CONTINUOUS
 10
7.635760
 20
2.273480
  0
VERTEX
  8
0
  6
CONTINUOUS
 10
7.648080
 20
2.252360
  0
VERTEX
  8
0
  6
CONTINUOUS
 10
7.643240
 20
1.516240
  0
VERTEX
  8
0
  6
CONTINUOUS
 10
7.630920
 20
1.537360
  0
SEQEND
  8
0
  0
SOLID
  8
0
 62
    15
 10
7.674480
 20
1.335840
 11
7.679760
 21
2.071960
 12
7.675360
 22
1.335840
 13
7.680200
 23
2.071960
  0
POLYLINE
  8
0
  6
CONTINUOUS
 66
     1
 40
0.000000
 41
0.000000
  0
VERTEX
  8
0
  6
CONTINUOUS
 10
7.674480
 20
1.335840
  0
VERTEX
  8
0
  6
CONTINUOUS
 10
7.679760
 20
2.071960
  0
VERTEX
  8
0
  6
CONTINUOUS
 10
7.680200
 20
2.071960
  0
VERTEX
  8
0
  6
CONTINUOUS
 10
7.675360
 20
1.335840
  0
VERTEX
  8
0
  6
CONTINUOUS
 10
7.674480
 20
1.335840
  0
SEQEND
  8
0
  0
SOLID
  8
0
 62
    15
 10
7.674480
 20
1.516240
 11
7.679760
 21
2.252360
 12
7.674480
 22
1.335840
 13
7.679760
 23
2.071960
  0
POLYLINE
  8
0
  6
CONTINUOUS
 66
     1
 40
0.000000
 41
0.000000
  0
VERTEX
  8
0
  6
CONTINUOUS
 10
7.674480
 20
1.516240
  0
VERTEX
  8
0
  6
CONTINUOUS
 10
7.679760
 20
2.252360
  0
VERTEX
  8
0
  6
CONTINUOUS
 10
7.679760
 20
2.071960
  0
VERTEX
  8
0
  6
CONTINUOUS
 10
7.674480
 20
1.335840
  0
VERTEX
  8
0
  6
CONTINUOUS
 10
7.674480
 20
1.516240
  0
SEQEND
  8
0
  0
SOLID
  8
0
 62
    15
 10
7.643240
 20
1.516240
 11
7.648080
 21
2.252360
 12
7.674480
 22
1.516240
 13
7.679760
 23
2.252360
  0
POLYLINE
  8
0
  6
CONTINUOUS
 66
     1
 40
0.000000
 41
0.000000
  0
VERTEX
  8
0
  6
CONTINUOUS
 10
7.643240
 20
1.516240
  0
VERTEX
  8
0
  6
CONTINUOUS
 10
7.648080
 20
2.252360
  0
VERTEX
  8
0
  6
CONTINUOUS
 10
7.679760
 20
2.252360
  0
VERTEX
  8
0
  6
CONTINUOUS
 10
7.674480
 20
1.516240
  0
VERTEX
  8
0
  6
CONTINUOUS
 10
7.643240
 20
1.516240
  0
SEQEND
  8
0
  0
POLYLINE
  8
0
  6
CONTINUOUS
 66
     1
 40
0.000000
 41
0.000000
  0
VERTEX
  8
0
  6
CONTINUOUS
 10
7.675360
 20
1.335840
  0
VERTEX
  8
0
  6
CONTINUOUS
 10
7.912520
 20
1.315600
  0
VERTEX
  8
0
  6
CONTINUOUS
 10
7.932760
 20
1.269400
  0
VERTEX
  8
0
  6
CONTINUOUS
 10
7.943760
 20
1.216160
  0
VERTEX
  8
0
  6
CONTINUOUS
 10
7.944200
 20
1.188880
  0
VERTEX
  8
0
  6
CONTINUOUS
 10
7.941120
 20
1.161600
  0
VERTEX
  8
0
  6
CONTINUOUS
 10
7.933200
 20
1.136080
  0
VERTEX
  8
0
  6
CONTINUOUS
 10
7.920880
 20
1.111880
  0
VERTEX
  8
0
  6
CONTINUOUS
 10
7.677120
 20
1.066560
  0
VERTEX
  8
0
  6
CONTINUOUS
 10
7.677120
 20
0.853600
  0
VERTEX
  8
0
  6
CONTINUOUS
 10
3.171080
 20
0.853600
  0
VERTEX
  8
0
  6
CONTINUOUS
 10
3.171080
 20
1.065240
  0
VERTEX
  8
0
  6
CONTINUOUS
 10
3.416160
 20
1.106600
  0
VERTEX
  8
0
  6
CONTINUOUS
 10
3.426720
 20
1.122880
  0
VERTEX
  8
0
  6
CONTINUOUS
 10
3.433760
 20
1.146200
  0
VERTEX
  8
0
  6
CONTINUOUS
 10
3.437720
 20
1.174360
  0
VERTEX
  8
0
  6
CONTINUOUS
 10
3.438600
 20
1.205160
  0
VERTEX
  8
0
  6
CONTINUOUS
 10
3.435960
 20
1.236400
  0
VERTEX
  8
0
  6
CONTINUOUS
 10
3.430240
 20
1.265880
  0
VERTEX
  8
0
  6
CONTINUOUS
 10
3.421440
 20
1.291400
  0
VERTEX
  8
0
  6
CONTINUOUS
 10
3.409560
 20
1.310760
  0
VERTEX
  8
0
  6
CONTINUOUS
 10
3.171080
 20
1.331000
  0
VERTEX
  8
0
  6
CONTINUOUS
 10
3.171080
 20
1.516680
  0
VERTEX
  8
0
  6
CONTINUOUS
 10
3.194400
 20
1.603800
  0
VERTEX
  8
0
  6
CONTINUOUS
 10
5.068800
 20
1.603800
  0
VERTEX
  8
0
  6
CONTINUOUS
 10
5.092560
 20
1.514920
  0
VERTEX
  8
0
  6
CONTINUOUS
 10
5.123360
 20
1.514920
  0
VERTEX
  8
0
  6
CONTINUOUS
 10
5.135680
 20
1.536920
  0
VERTEX
  8
0
  6
CONTINUOUS
 10
5.149760
 20
1.555840
  0
VERTEX
  8
0
  6
CONTINUOUS
 10
5.166040
 20
1.571240
  0
VERTEX
  8
0
  6
CONTINUOUS
 10
5.183200
 20
1.584000
  0
VERTEX
  8
0
  6
CONTINUOUS
 10
5.220600
 20
1.599400
  0
VERTEX
  8
0
  6
CONTINUOUS
 10
5.259760
 20
1.603360
  0
VERTEX
  8
0
  6
CONTINUOUS
 10
5.298920
 20
1.596320
  0
VERTEX
  8
0
  6
CONTINUOUS
 10
5.334560
 20
1.578720
  0
VERTEX
  8
0
  6
CONTINUOUS
 10
5.365360
 20
1.551440
  0
VERTEX
  8
0
  6
CONTINUOUS
 10
5.388240
 20
1.514920
  0
VERTEX
  8
0
  6
CONTINUOUS
 10
5.415520
 20
1.514920
  0
VERTEX
  8
0
  6
CONTINUOUS
 10
5.439720
 20
1.605120
  0
VERTEX
  8
0
  6
CONTINUOUS
 10
7.322920
 20
1.605120
  0
VERTEX
  8
0
  6
CONTINUOUS
 10
7.347120
 20
1.514920
  0
VERTEX
  8
0
  6
CONTINUOUS
 10
7.376600
 20
1.514920
  0
VERTEX
  8
0
  6
CONTINUOUS
 10
7.400360
 20
1.553200
  0
VERTEX
  8
0
  6
CONTINUOUS
 10
7.431600
 20
1.581360
  0
VERTEX
  8
0
  6
CONTINUOUS
 10
7.468120
 20
1.598520
  0
VERTEX
  8
0
  6
CONTINUOUS
 10
7.506840
 20
1.604680
  0
VERTEX
  8
0
  6
CONTINUOUS
 10
7.546000
 20
1.599840
  0
VERTEX
  8
0
  6
CONTINUOUS
 10
7.583400
 20
1.583560
  0
VERTEX
  8
0
  6
CONTINUOUS
 10
7.616400
 20
1.555840
  0
VERTEX
  8
0
  6
CONTINUOUS
 10
7.630920
 20
1.537360
  0
VERTEX
  8
0
  6
CONTINUOUS
 10
7.643240
 20
1.516240
  0
VERTEX
  8
0
  6
CONTINUOUS
 10
7.674480
 20
1.516240
  0
VERTEX
  8
0
  6
CONTINUOUS
 10
7.674480
 20
1.335840
  0
VERTEX
  8
0
  6
CONTINUOUS
 10
7.675360
 20
1.335840
  0
SEQEND
  8
0
  0
ENDSEC
  0
EOF
