  0
SECTION
  2
HEADER
  9
$ACADVER
  1
AC1006
  9
$EXTMIN
 10
4.579520
 20
0.585640
  9
$EXTMAX
 10
7.621240
 20
2.567400
  9
$LTSCALE
 40
0.044000
  9
$PDMODE
 70
    35
  9
$PDSIZE
 40
0.035200
  0
ENDSEC
  0
SECTION
  2
TABLES
  0
TABLE
  2
LTYPE
 70
     9
  0
LTYPE
  2
CONTINUOUS
 70
    64
  3
Solid line
 72
    65
 73
     0
 40
0.000000
  0
LTYPE
  2
DASHED
 70
    64
  3
__ __ __ __ __ __ __ __ __ __ __ __ __ __ __
 72
    65
 73
     2
 40
0.000330
 49
0.000220
 49
-0.000110
  0
LTYPE
  2
HIDDEN
 70
    64
  3
 _ _ _ _ _ _ _ _ _ _ _ _ _ _ _ _ _ _ _ _ _ _
 72
    65
 73
     2
 40
0.000165
 49
0.000110
 49
-0.000055
  0
LTYPE
  2
CENTER
 70
    64
  3
____ _ ____ _ ____ _ ____ _ ____ _ ____ _ ____
 72
    65
 73
     4
 40
0.000880
 49
0.000550
 49
-0.000110
 49
0.000110
 49
-0.000110
  0
LTYPE
  2
PHANTOM
 70
    64
  3
_____ _ _ _____ _ _ _____ _ _ _____ _ _ ____
 72
    65
 73
     6
 40
0.001100
 49
0.000550
 49
-0.000110
 49
0.000110
 49
-0.000110
 49
0.000110
 49
-0.000110
  0
LTYPE
  2
DOT
 70
    64
  3
...............................................
 72
    65
 73
     2
 40
0.000110
 49
0.000000
 49
-0.000110
  0
LTYPE
  2
DASHDOT
 70
    64
  3
__ . __ . __ . __ . __ . __ . __ . __ . __ . __
 72
    65
 73
     4
 40
0.000440
 49
0.000220
 49
-0.000110
 49
0.000000
 49
-0.000110
  0
LTYPE
  2
BORDER
 70
    64
  3
__ __ . __ __ . __ __ . __ __ . __ __ . __ __
 72
    65
 73
     6
 40
0.000770
 49
0.000220
 49
-0.000110
 49
0.000220
 49
-0.000110
 49
0.000000
 49
-0.000110
  0
LTYPE
  2
DIVIDE
 70
    64
  3
__ . . __ . . __ . . __ . . __ . . __ . . __
 72
    65
 73
     6
 40
0.000550
 49
0.000220
 49
-0.000110
 49
0.000000
 49
-0.000110
 49
0.000000
 49
-0.000110
  0
LTYPE
  2
DOTDOT
 70
    64
  3
 . .  . .  . .  . .  . .  . . 
 72
    65
 73
     5
 40
0.000242
 49
-0.000110
 49
0.000000
 49
-0.000110
 49
0.000000
 49
-0.000110
  0
ENDTAB
  0
TABLE
  2
STYLE
 70
     2
  0
STYLE
 70
     0
  2
SN0
 40
0.000000
 41
0.000440
 50
0.000000
 71
     0
 42
0.000000
  3
ROMAND
  0
STYLE
 70
    68
  2
SV0
 40
0.000000
 41
0.000440
 50
0.000000
 71
     0
 42
0.000000
  3
ROMAND
  0
ENDTAB
  0
TABLE
  2
LAYER
 70
     3
  0
LAYER
  2
FOREGROUND
 70
    64
 62
     7
  6
CONTINUOUS
  0
LAYER
  2
BACKGROUND
 70
    65
 62
    -7
  6
CONTINUOUS
  0
LAYER
  2
0
 70
    64
 62
     7
  6
CONTINUOUS
  0
ENDTAB
  0
ENDSEC
  0
SECTION
  2
ENTITIES
  0
POLYLINE
  8
FOREGROUND
  6
CONTINUOUS
 66
     1
 40
0.000000
 41
0.000000
  0
VERTEX
  8
FOREGROUND
  6
CONTINUOUS
 10
0.000000
 20
3.153040
  0
VERTEX
  8
FOREGROUND
  6
CONTINUOUS
 10
8.499920
 20
3.153040
  0
VERTEX
  8
FOREGROUND
  6
CONTINUOUS
 10
8.499920
 20
-7.846960
  0
VERTEX
  8
FOREGROUND
  6
CONTINUOUS
 10
0.000000
 20
-7.846960
  0
VERTEX
  8
FOREGROUND
  6
CONTINUOUS
 10
0.000000
 20
3.153040
  0
SEQEND
  8
0
  0
POLYLINE
  8
FOREGROUND
  6
CONTINUOUS
 66
     1
 40
0.000000
 41
0.000000
  0
VERTEX
  8
FOREGROUND
  6
CONTINUOUS
 10
0.000000
 20
3.153040
  0
VERTEX
  8
FOREGROUND
  6
CONTINUOUS
 10
8.499920
 20
3.153040
  0
VERTEX
  8
FOREGROUND
  6
CONTINUOUS
 10
8.499920
 20
-7.846960
  0
VERTEX
  8
FOREGROUND
  6
CONTINUOUS
 10
0.000000
 20
-7.846960
  0
VERTEX
  8
FOREGROUND
  6
CONTINUOUS
 10
0.000000
 20
3.153040
  0
SEQEND
  8
0
  0
SOLID
  8
0
 62
    15
 10
5.101800
 20
1.767480
 11
5.747720
 21
2.140600
 12
5.143160
 22
1.734920
 13
5.789080
 23
2.108040
  0
POLYLINE
  8
0
  6
CONTINUOUS
 66
     1
 40
0.000000
 41
0.000000
  0
VERTEX
  8
0
  6
CONTINUOUS
 10
5.101800
 20
1.767480
  0
VERTEX
  8
0
  6
CONTINUOUS
 10
5.747720
 20
2.140600
  0
VERTEX
  8
0
  6
CONTINUOUS
 10
5.789080
 20
2.108040
  0
VERTEX
  8
0
  6
CONTINUOUS
 10
5.143160
 20
1.734920
  0
VERTEX
  8
0
  6
CONTINUOUS
 10
5.101800
 20
1.767480
  0
SEQEND
  8
0
  0
SOLID
  8
0
 62
    15
 10
4.818000
 20
2.190760
 11
5.463920
 21
2.563880
 12
4.856720
 22
2.182840
 13
5.502640
 23
2.556400
  0
POLYLINE
  8
0
  6
CONTINUOUS
 66
     1
 40
0.000000
 41
0.000000
  0
VERTEX
  8
0
  6
CONTINUOUS
 10
4.818000
 20
2.190760
  0
VERTEX
  8
0
  6
CONTINUOUS
 10
5.463920
 20
2.563880
  0
VERTEX
  8
0
  6
CONTINUOUS
 10
5.502640
 20
2.556400
  0
VERTEX
  8
0
  6
CONTINUOUS
 10
4.856720
 20
2.182840
  0
VERTEX
  8
0
  6
CONTINUOUS
 10
4.818000
 20
2.190760
  0
SEQEND
  8
0
  0
SOLID
  8
0
 62
    15
 10
4.856720
 20
2.182840
 11
5.502640
 21
2.556400
 12
4.885320
 22
2.171400
 13
5.531240
 23
2.544520
  0
POLYLINE
  8
0
  6
CONTINUOUS
 66
     1
 40
0.000000
 41
0.000000
  0
VERTEX
  8
0
  6
CONTINUOUS
 10
4.856720
 20
2.182840
  0
VERTEX
  8
0
  6
CONTINUOUS
 10
5.502640
 20
2.556400
  0
VERTEX
  8
0
  6
CONTINUOUS
 10
5.531240
 20
2.544520
  0
VERTEX
  8
0
  6
CONTINUOUS
 10
4.885320
 20
2.171400
  0
VERTEX
  8
0
  6
CONTINUOUS
 10
4.856720
 20
2.182840
  0
SEQEND
  8
0
  0
SOLID
  8
0
 62
    15
 10
4.885320
 20
2.171400
 11
5.531240
 21
2.544520
 12
4.905120
 22
2.156000
 13
5.551040
 23
2.529560
  0
POLYLINE
  8
0
  6
CONTINUOUS
 66
     1
 40
0.000000
 41
0.000000
  0
VERTEX
  8
0
  6
CONTINUOUS
 10
4.885320
 20
2.171400
  0
VERTEX
  8
0
  6
CONTINUOUS
 10
5.531240
 20
2.544520
  0
VERTEX
  8
0
  6
CONTINUOUS
 10
5.551040
 20
2.529560
  0
VERTEX
  8
0
  6
CONTINUOUS
 10
4.905120
 20
2.156000
  0
VERTEX
  8
0
  6
CONTINUOUS
 10
4.885320
 20
2.171400
  0
SEQEND
  8
0
  0
SOLID
  8
0
 62
    15
 10
4.905120
 20
2.156000
 11
5.551040
 21
2.529560
 12
4.918320
 22
2.138400
 13
5.564240
 23
2.511520
  0
POLYLINE
  8
0
  6
CONTINUOUS
 66
     1
 40
0.000000
 41
0.000000
  0
VERTEX
  8
0
  6
CONTINUOUS
 10
4.905120
 20
2.156000
  0
VERTEX
  8
0
  6
CONTINUOUS
 10
5.551040
 20
2.529560
  0
VERTEX
  8
0
  6
CONTINUOUS
 10
5.564240
 20
2.511520
  0
VERTEX
  8
0
  6
CONTINUOUS
 10
4.918320
 20
2.138400
  0
VERTEX
  8
0
  6
CONTINUOUS
 10
4.905120
 20
2.156000
  0
SEQEND
  8
0
  0
SOLID
  8
0
 62
     7
 10
4.918320
 20
2.138400
 11
5.564240
 21
2.511520
 12
4.926680
 22
2.118600
 13
5.572600
 23
2.491720
  0
POLYLINE
  8
0
  6
CONTINUOUS
 66
     1
 40
0.000000
 41
0.000000
  0
VERTEX
  8
0
  6
CONTINUOUS
 10
4.918320
 20
2.138400
  0
VERTEX
  8
0
  6
CONTINUOUS
 10
5.564240
 20
2.511520
  0
VERTEX
  8
0
  6
CONTINUOUS
 10
5.572600
 20
2.491720
  0
VERTEX
  8
0
  6
CONTINUOUS
 10
4.926680
 20
2.118600
  0
VERTEX
  8
0
  6
CONTINUOUS
 10
4.918320
 20
2.138400
  0
SEQEND
  8
0
  0
SOLID
  8
0
 62
     7
 10
4.926680
 20
2.118600
 11
5.572600
 21
2.491720
 12
4.931520
 22
2.097920
 13
5.577440
 23
2.471040
  0
POLYLINE
  8
0
  6
CONTINUOUS
 66
     1
 40
0.000000
 41
0.000000
  0
VERTEX
  8
0
  6
CONTINUOUS
 10
4.926680
 20
2.118600
  0
VERTEX
  8
0
  6
CONTINUOUS
 10
5.572600
 20
2.491720
  0
VERTEX
  8
0
  6
CONTINUOUS
 10
5.577440
 20
2.471040
  0
VERTEX
  8
0
  6
CONTINUOUS
 10
4.931520
 20
2.097920
  0
VERTEX
  8
0
  6
CONTINUOUS
 10
4.926680
 20
2.118600
  0
SEQEND
  8
0
  0
SOLID
  8
0
 62
     7
 10
4.931520
 20
2.097920
 11
5.577440
 21
2.471040
 12
4.933280
 22
2.087360
 13
5.579200
 23
2.460480
  0
POLYLINE
  8
0
  6
CONTINUOUS
 66
     1
 40
0.000000
 41
0.000000
  0
VERTEX
  8
0
  6
CONTINUOUS
 10
4.931520
 20
2.097920
  0
VERTEX
  8
0
  6
CONTINUOUS
 10
5.577440
 20
2.471040
  0
VERTEX
  8
0
  6
CONTINUOUS
 10
5.579200
 20
2.460480
  0
VERTEX
  8
0
  6
CONTINUOUS
 10
4.933280
 20
2.087360
  0
VERTEX
  8
0
  6
CONTINUOUS
 10
4.931520
 20
2.097920
  0
SEQEND
  8
0
  0
SOLID
  8
0
 62
     7
 10
4.933280
 20
2.087360
 11
5.579200
 21
2.460480
 12
4.935040
 22
2.076800
 13
5.580960
 23
2.449920
  0
POLYLINE
  8
0
  6
CONTINUOUS
 66
     1
 40
0.000000
 41
0.000000
  0
VERTEX
  8
0
  6
CONTINUOUS
 10
4.933280
 20
2.087360
  0
VERTEX
  8
0
  6
CONTINUOUS
 10
5.579200
 20
2.460480
  0
VERTEX
  8
0
  6
CONTINUOUS
 10
5.580960
 20
2.449920
  0
VERTEX
  8
0
  6
CONTINUOUS
 10
4.935040
 20
2.076800
  0
VERTEX
  8
0
  6
CONTINUOUS
 10
4.933280
 20
2.087360
  0
SEQEND
  8
0
  0
SOLID
  8
0
 62
     7
 10
4.935040
 20
2.076800
 11
5.580960
 21
2.449920
 12
4.939000
 22
2.048200
 13
5.584920
 23
2.421760
  0
POLYLINE
  8
0
  6
CONTINUOUS
 66
     1
 40
0.000000
 41
0.000000
  0
VERTEX
  8
0
  6
CONTINUOUS
 10
4.935040
 20
2.076800
  0
VERTEX
  8
0
  6
CONTINUOUS
 10
5.580960
 20
2.449920
  0
VERTEX
  8
0
  6
CONTINUOUS
 10
5.584920
 20
2.421760
  0
VERTEX
  8
0
  6
CONTINUOUS
 10
4.939000
 20
2.048200
  0
VERTEX
  8
0
  6
CONTINUOUS
 10
4.935040
 20
2.076800
  0
SEQEND
  8
0
  0
SOLID
  8
0
 62
     7
 10
4.939000
 20
2.048200
 11
5.584920
 21
2.421760
 12
4.947360
 22
2.006840
 13
5.593280
 23
2.379960
  0
POLYLINE
  8
0
  6
CONTINUOUS
 66
     1
 40
0.000000
 41
0.000000
  0
VERTEX
  8
0
  6
CONTINUOUS
 10
4.939000
 20
2.048200
  0
VERTEX
  8
0
  6
CONTINUOUS
 10
5.584920
 20
2.421760
  0
VERTEX
  8
0
  6
CONTINUOUS
 10
5.593280
 20
2.379960
  0
VERTEX
  8
0
  6
CONTINUOUS
 10
4.947360
 20
2.006840
  0
VERTEX
  8
0
  6
CONTINUOUS
 10
4.939000
 20
2.048200
  0
SEQEND
  8
0
  0
SOLID
  8
0
 62
     7
 10
4.947360
 20
2.006840
 11
5.593280
 21
2.379960
 12
4.963640
 22
1.955360
 13
5.609560
 23
2.328480
  0
POLYLINE
  8
0
  6
CONTINUOUS
 66
     1
 40
0.000000
 41
0.000000
  0
VERTEX
  8
0
  6
CONTINUOUS
 10
4.947360
 20
2.006840
  0
VERTEX
  8
0
  6
CONTINUOUS
 10
5.593280
 20
2.379960
  0
VERTEX
  8
0
  6
CONTINUOUS
 10
5.609560
 20
2.328480
  0
VERTEX
  8
0
  6
CONTINUOUS
 10
4.963640
 20
1.955360
  0
VERTEX
  8
0
  6
CONTINUOUS
 10
4.947360
 20
2.006840
  0
SEQEND
  8
0
  0
SOLID
  8
0
 62
     7
 10
4.963640
 20
1.955360
 11
5.609560
 21
2.328480
 12
4.992240
 22
1.896400
 13
5.638160
 23
2.269520
  0
POLYLINE
  8
0
  6
CONTINUOUS
 66
     1
 40
0.000000
 41
0.000000
  0
VERTEX
  8
0
  6
CONTINUOUS
 10
4.963640
 20
1.955360
  0
VERTEX
  8
0
  6
CONTINUOUS
 10
5.609560
 20
2.328480
  0
VERTEX
  8
0
  6
CONTINUOUS
 10
5.638160
 20
2.269520
  0
VERTEX
  8
0
  6
CONTINUOUS
 10
4.992240
 20
1.896400
  0
VERTEX
  8
0
  6
CONTINUOUS
 10
4.963640
 20
1.955360
  0
SEQEND
  8
0
  0
SOLID
  8
0
 62
     7
 10
4.992240
 20
1.896400
 11
5.638160
 21
2.269520
 12
5.012480
 22
1.864720
 13
5.658400
 23
2.238280
  0
POLYLINE
  8
0
  6
CONTINUOUS
 66
     1
 40
0.000000
 41
0.000000
  0
VERTEX
  8
0
  6
CONTINUOUS
 10
4.992240
 20
1.896400
  0
VERTEX
  8
0
  6
CONTINUOUS
 10
5.638160
 20
2.269520
  0
VERTEX
  8
0
  6
CONTINUOUS
 10
5.658400
 20
2.238280
  0
VERTEX
  8
0
  6
CONTINUOUS
 10
5.012480
 20
1.864720
  0
VERTEX
  8
0
  6
CONTINUOUS
 10
4.992240
 20
1.896400
  0
SEQEND
  8
0
  0
SOLID
  8
0
 62
    15
 10
5.012480
 20
1.864720
 11
5.658400
 21
2.238280
 12
5.037120
 22
1.832600
 13
5.683040
 23
2.206160
  0
POLYLINE
  8
0
  6
CONTINUOUS
 66
     1
 40
0.000000
 41
0.000000
  0
VERTEX
  8
0
  6
CONTINUOUS
 10
5.012480
 20
1.864720
  0
VERTEX
  8
0
  6
CONTINUOUS
 10
5.658400
 20
2.238280
  0
VERTEX
  8
0
  6
CONTINUOUS
 10
5.683040
 20
2.206160
  0
VERTEX
  8
0
  6
CONTINUOUS
 10
5.037120
 20
1.832600
  0
VERTEX
  8
0
  6
CONTINUOUS
 10
5.012480
 20
1.864720
  0
SEQEND
  8
0
  0
SOLID
  8
0
 62
    15
 10
5.037120
 20
1.832600
 11
5.683040
 21
2.206160
 12
5.066600
 22
1.800040
 13
5.712520
 23
2.173160
  0
POLYLINE
  8
0
  6
CONTINUOUS
 66
     1
 40
0.000000
 41
0.000000
  0
VERTEX
  8
0
  6
CONTINUOUS
 10
5.037120
 20
1.832600
  0
VERTEX
  8
0
  6
CONTINUOUS
 10
5.683040
 20
2.206160
  0
VERTEX
  8
0
  6
CONTINUOUS
 10
5.712520
 20
2.173160
  0
VERTEX
  8
0
  6
CONTINUOUS
 10
5.066600
 20
1.800040
  0
VERTEX
  8
0
  6
CONTINUOUS
 10
5.037120
 20
1.832600
  0
SEQEND
  8
0
  0
SOLID
  8
0
 62
    15
 10
5.066600
 20
1.800040
 11
5.712520
 21
2.173160
 12
5.101800
 22
1.767480
 13
5.747720
 23
2.140600
  0
POLYLINE
  8
0
  6
CONTINUOUS
 66
     1
 40
0.000000
 41
0.000000
  0
VERTEX
  8
0
  6
CONTINUOUS
 10
5.066600
 20
1.800040
  0
VERTEX
  8
0
  6
CONTINUOUS
 10
5.712520
 20
2.173160
  0
VERTEX
  8
0
  6
CONTINUOUS
 10
5.747720
 20
2.140600
  0
VERTEX
  8
0
  6
CONTINUOUS
 10
5.101800
 20
1.767480
  0
VERTEX
  8
0
  6
CONTINUOUS
 10
5.066600
 20
1.800040
  0
SEQEND
  8
0
  0
SOLID
  8
0
 62
    15
 10
4.766960
 20
2.193400
 11
5.412880
 21
2.566960
 12
4.818000
 22
2.190760
 13
5.463920
 23
2.563880
  0
POLYLINE
  8
0
  6
CONTINUOUS
 66
     1
 40
0.000000
 41
0.000000
  0
VERTEX
  8
0
  6
CONTINUOUS
 10
4.766960
 20
2.193400
  0
VERTEX
  8
0
  6
CONTINUOUS
 10
5.412880
 20
2.566960
  0
VERTEX
  8
0
  6
CONTINUOUS
 10
5.463920
 20
2.563880
  0
VERTEX
  8
0
  6
CONTINUOUS
 10
4.818000
 20
2.190760
  0
VERTEX
  8
0
  6
CONTINUOUS
 10
4.766960
 20
2.193400
  0
SEQEND
  8
0
  0
SOLID
  8
0
 62
    15
 10
5.143160
 20
1.734920
 11
5.789080
 21
2.108040
 12
5.191120
 22
1.702800
 13
5.837040
 23
2.076360
  0
POLYLINE
  8
0
  6
CONTINUOUS
 66
     1
 40
0.000000
 41
0.000000
  0
VERTEX
  8
0
  6
CONTINUOUS
 10
5.143160
 20
1.734920
  0
VERTEX
  8
0
  6
CONTINUOUS
 10
5.789080
 20
2.108040
  0
VERTEX
  8
0
  6
CONTINUOUS
 10
5.837040
 20
2.076360
  0
VERTEX
  8
0
  6
CONTINUOUS
 10
5.191120
 20
1.702800
  0
VERTEX
  8
0
  6
CONTINUOUS
 10
5.143160
 20
1.734920
  0
SEQEND
  8
0
  0
SOLID
  8
0
 62
    15
 10
5.191120
 20
1.702800
 11
5.837040
 21
2.076360
 12
5.246120
 22
1.672000
 13
5.892040
 23
2.045120
  0
POLYLINE
  8
0
  6
CONTINUOUS
 66
     1
 40
0.000000
 41
0.000000
  0
VERTEX
  8
0
  6
CONTINUOUS
 10
5.191120
 20
1.702800
  0
VERTEX
  8
0
  6
CONTINUOUS
 10
5.837040
 20
2.076360
  0
VERTEX
  8
0
  6
CONTINUOUS
 10
5.892040
 20
2.045120
  0
VERTEX
  8
0
  6
CONTINUOUS
 10
5.246120
 20
1.672000
  0
VERTEX
  8
0
  6
CONTINUOUS
 10
5.191120
 20
1.702800
  0
SEQEND
  8
0
  0
SOLID
  8
0
 62
    15
 10
5.246120
 20
1.672000
 11
5.892040
 21
2.045120
 12
5.308600
 22
1.642080
 13
5.954520
 23
2.015640
  0
POLYLINE
  8
0
  6
CONTINUOUS
 66
     1
 40
0.000000
 41
0.000000
  0
VERTEX
  8
0
  6
CONTINUOUS
 10
5.246120
 20
1.672000
  0
VERTEX
  8
0
  6
CONTINUOUS
 10
5.892040
 20
2.045120
  0
VERTEX
  8
0
  6
CONTINUOUS
 10
5.954520
 20
2.015640
  0
VERTEX
  8
0
  6
CONTINUOUS
 10
5.308600
 20
1.642080
  0
VERTEX
  8
0
  6
CONTINUOUS
 10
5.246120
 20
1.672000
  0
SEQEND
  8
0
  0
SOLID
  8
0
 62
    15
 10
5.308600
 20
1.642080
 11
5.954520
 21
2.015640
 12
5.370640
 22
1.610400
 13
6.016120
 23
1.983960
  0
POLYLINE
  8
0
  6
CONTINUOUS
 66
     1
 40
0.000000
 41
0.000000
  0
VERTEX
  8
0
  6
CONTINUOUS
 10
5.308600
 20
1.642080
  0
VERTEX
  8
0
  6
CONTINUOUS
 10
5.954520
 20
2.015640
  0
VERTEX
  8
0
  6
CONTINUOUS
 10
6.016120
 20
1.983960
  0
VERTEX
  8
0
  6
CONTINUOUS
 10
5.370640
 20
1.610400
  0
VERTEX
  8
0
  6
CONTINUOUS
 10
5.308600
 20
1.642080
  0
SEQEND
  8
0
  0
SOLID
  8
0
 62
    15
 10
5.370640
 20
1.610400
 11
6.016120
 21
1.983960
 12
5.423000
 22
1.573880
 13
6.068920
 23
1.947000
  0
POLYLINE
  8
0
  6
CONTINUOUS
 66
     1
 40
0.000000
 41
0.000000
  0
VERTEX
  8
0
  6
CONTINUOUS
 10
5.370640
 20
1.610400
  0
VERTEX
  8
0
  6
CONTINUOUS
 10
6.016120
 20
1.983960
  0
VERTEX
  8
0
  6
CONTINUOUS
 10
6.068920
 20
1.947000
  0
VERTEX
  8
0
  6
CONTINUOUS
 10
5.423000
 20
1.573880
  0
VERTEX
  8
0
  6
CONTINUOUS
 10
5.370640
 20
1.610400
  0
SEQEND
  8
0
  0
SOLID
  8
0
 62
    15
 10
5.423000
 20
1.573880
 11
6.068920
 21
1.947000
 12
5.466120
 22
1.532960
 13
6.112040
 23
1.906080
  0
POLYLINE
  8
0
  6
CONTINUOUS
 66
     1
 40
0.000000
 41
0.000000
  0
VERTEX
  8
0
  6
CONTINUOUS
 10
5.423000
 20
1.573880
  0
VERTEX
  8
0
  6
CONTINUOUS
 10
6.068920
 20
1.947000
  0
VERTEX
  8
0
  6
CONTINUOUS
 10
6.112040
 20
1.906080
  0
VERTEX
  8
0
  6
CONTINUOUS
 10
5.466120
 20
1.532960
  0
VERTEX
  8
0
  6
CONTINUOUS
 10
5.423000
 20
1.573880
  0
SEQEND
  8
0
  0
SOLID
  8
0
 62
    15
 10
5.466120
 20
1.532960
 11
6.112040
 21
1.906080
 12
5.500440
 22
1.488960
 13
6.146360
 23
1.862520
  0
POLYLINE
  8
0
  6
CONTINUOUS
 66
     1
 40
0.000000
 41
0.000000
  0
VERTEX
  8
0
  6
CONTINUOUS
 10
5.466120
 20
1.532960
  0
VERTEX
  8
0
  6
CONTINUOUS
 10
6.112040
 20
1.906080
  0
VERTEX
  8
0
  6
CONTINUOUS
 10
6.146360
 20
1.862520
  0
VERTEX
  8
0
  6
CONTINUOUS
 10
5.500440
 20
1.488960
  0
VERTEX
  8
0
  6
CONTINUOUS
 10
5.466120
 20
1.532960
  0
SEQEND
  8
0
  0
SOLID
  8
0
 62
     7
 10
5.500440
 20
1.488960
 11
6.146360
 21
1.862520
 12
5.526400
 22
1.442760
 13
6.171880
 23
1.816320
  0
POLYLINE
  8
0
  6
CONTINUOUS
 66
     1
 40
0.000000
 41
0.000000
  0
VERTEX
  8
0
  6
CONTINUOUS
 10
5.500440
 20
1.488960
  0
VERTEX
  8
0
  6
CONTINUOUS
 10
6.146360
 20
1.862520
  0
VERTEX
  8
0
  6
CONTINUOUS
 10
6.171880
 20
1.816320
  0
VERTEX
  8
0
  6
CONTINUOUS
 10
5.526400
 20
1.442760
  0
VERTEX
  8
0
  6
CONTINUOUS
 10
5.500440
 20
1.488960
  0
SEQEND
  8
0
  0
SOLID
  8
0
 62
     7
 10
5.526400
 20
1.442760
 11
6.171880
 21
1.816320
 12
5.543120
 22
1.395680
 13
6.189040
 23
1.769240
  0
POLYLINE
  8
0
  6
CONTINUOUS
 66
     1
 40
0.000000
 41
0.000000
  0
VERTEX
  8
0
  6
CONTINUOUS
 10
5.526400
 20
1.442760
  0
VERTEX
  8
0
  6
CONTINUOUS
 10
6.171880
 20
1.816320
  0
VERTEX
  8
0
  6
CONTINUOUS
 10
6.189040
 20
1.769240
  0
VERTEX
  8
0
  6
CONTINUOUS
 10
5.543120
 20
1.395680
  0
VERTEX
  8
0
  6
CONTINUOUS
 10
5.526400
 20
1.442760
  0
SEQEND
  8
0
  0
SOLID
  8
0
 62
     7
 10
5.543120
 20
1.395680
 11
6.189040
 21
1.769240
 12
5.551920
 22
1.348600
 13
6.197840
 23
1.721720
  0
POLYLINE
  8
0
  6
CONTINUOUS
 66
     1
 40
0.000000
 41
0.000000
  0
VERTEX
  8
0
  6
CONTINUOUS
 10
5.543120
 20
1.395680
  0
VERTEX
  8
0
  6
CONTINUOUS
 10
6.189040
 20
1.769240
  0
VERTEX
  8
0
  6
CONTINUOUS
 10
6.197840
 20
1.721720
  0
VERTEX
  8
0
  6
CONTINUOUS
 10
5.551920
 20
1.348600
  0
VERTEX
  8
0
  6
CONTINUOUS
 10
5.543120
 20
1.395680
  0
SEQEND
  8
0
  0
SOLID
  8
0
 62
     7
 10
5.551920
 20
1.348600
 11
6.197840
 21
1.721720
 12
5.551920
 22
1.301960
 13
6.197840
 23
1.675520
  0
POLYLINE
  8
0
  6
CONTINUOUS
 66
     1
 40
0.000000
 41
0.000000
  0
VERTEX
  8
0
  6
CONTINUOUS
 10
5.551920
 20
1.348600
  0
VERTEX
  8
0
  6
CONTINUOUS
 10
6.197840
 20
1.721720
  0
VERTEX
  8
0
  6
CONTINUOUS
 10
6.197840
 20
1.675520
  0
VERTEX
  8
0
  6
CONTINUOUS
 10
5.551920
 20
1.301960
  0
VERTEX
  8
0
  6
CONTINUOUS
 10
5.551920
 20
1.348600
  0
SEQEND
  8
0
  0
SOLID
  8
0
 62
    15
 10
5.551920
 20
1.301960
 11
6.197840
 21
1.675520
 12
5.544440
 22
1.257080
 13
6.190360
 23
1.630640
  0
POLYLINE
  8
0
  6
CONTINUOUS
 66
     1
 40
0.000000
 41
0.000000
  0
VERTEX
  8
0
  6
CONTINUOUS
 10
5.551920
 20
1.301960
  0
VERTEX
  8
0
  6
CONTINUOUS
 10
6.197840
 20
1.675520
  0
VERTEX
  8
0
  6
CONTINUOUS
 10
6.190360
 20
1.630640
  0
VERTEX
  8
0
  6
CONTINUOUS
 10
5.544440
 20
1.257080
  0
VERTEX
  8
0
  6
CONTINUOUS
 10
5.551920
 20
1.301960
  0
SEQEND
  8
0
  0
SOLID
  8
0
 62
    15
 10
5.544440
 20
1.257080
 11
6.190360
 21
1.630640
 12
5.528600
 22
1.215280
 13
6.174520
 23
1.588840
  0
POLYLINE
  8
0
  6
CONTINUOUS
 66
     1
 40
0.000000
 41
0.000000
  0
VERTEX
  8
0
  6
CONTINUOUS
 10
5.544440
 20
1.257080
  0
VERTEX
  8
0
  6
CONTINUOUS
 10
6.190360
 20
1.630640
  0
VERTEX
  8
0
  6
CONTINUOUS
 10
6.174520
 20
1.588840
  0
VERTEX
  8
0
  6
CONTINUOUS
 10
5.528600
 20
1.215280
  0
VERTEX
  8
0
  6
CONTINUOUS
 10
5.544440
 20
1.257080
  0
SEQEND
  8
0
  0
SOLID
  8
0
 62
    15
 10
5.528600
 20
1.215280
 11
6.174520
 21
1.588840
 12
5.505720
 22
1.177440
 13
6.151640
 23
1.550560
  0
POLYLINE
  8
0
  6
CONTINUOUS
 66
     1
 40
0.000000
 41
0.000000
  0
VERTEX
  8
0
  6
CONTINUOUS
 10
5.528600
 20
1.215280
  0
VERTEX
  8
0
  6
CONTINUOUS
 10
6.174520
 20
1.588840
  0
VERTEX
  8
0
  6
CONTINUOUS
 10
6.151640
 20
1.550560
  0
VERTEX
  8
0
  6
CONTINUOUS
 10
5.505720
 20
1.177440
  0
VERTEX
  8
0
  6
CONTINUOUS
 10
5.528600
 20
1.215280
  0
SEQEND
  8
0
  0
SOLID
  8
0
 62
    15
 10
5.505720
 20
1.177440
 11
6.151640
 21
1.550560
 12
5.474920
 22
1.144000
 13
6.120840
 23
1.517120
  0
POLYLINE
  8
0
  6
CONTINUOUS
 66
     1
 40
0.000000
 41
0.000000
  0
VERTEX
  8
0
  6
CONTINUOUS
 10
5.505720
 20
1.177440
  0
VERTEX
  8
0
  6
CONTINUOUS
 10
6.151640
 20
1.550560
  0
VERTEX
  8
0
  6
CONTINUOUS
 10
6.120840
 20
1.517120
  0
VERTEX
  8
0
  6
CONTINUOUS
 10
5.474920
 20
1.144000
  0
VERTEX
  8
0
  6
CONTINUOUS
 10
5.505720
 20
1.177440
  0
SEQEND
  8
0
  0
SOLID
  8
0
 62
    15
 10
5.474920
 20
1.144000
 11
6.120840
 21
1.517120
 12
5.436640
 22
1.116280
 13
6.082560
 23
1.489400
  0
POLYLINE
  8
0
  6
CONTINUOUS
 66
     1
 40
0.000000
 41
0.000000
  0
VERTEX
  8
0
  6
CONTINUOUS
 10
5.474920
 20
1.144000
  0
VERTEX
  8
0
  6
CONTINUOUS
 10
6.120840
 20
1.517120
  0
VERTEX
  8
0
  6
CONTINUOUS
 10
6.082560
 20
1.489400
  0
VERTEX
  8
0
  6
CONTINUOUS
 10
5.436640
 20
1.116280
  0
VERTEX
  8
0
  6
CONTINUOUS
 10
5.474920
 20
1.144000
  0
SEQEND
  8
0
  0
SOLID
  8
0
 62
    15
 10
4.579960
 20
2.193400
 11
5.225880
 21
2.566960
 12
4.766960
 22
2.193400
 13
5.412880
 23
2.566960
  0
POLYLINE
  8
0
  6
CONTINUOUS
 66
     1
 40
0.000000
 41
0.000000
  0
VERTEX
  8
0
  6
CONTINUOUS
 10
4.579960
 20
2.193400
  0
VERTEX
  8
0
  6
CONTINUOUS
 10
5.225880
 20
2.566960
  0
VERTEX
  8
0
  6
CONTINUOUS
 10
5.412880
 20
2.566960
  0
VERTEX
  8
0
  6
CONTINUOUS
 10
4.766960
 20
2.193400
  0
VERTEX
  8
0
  6
CONTINUOUS
 10
4.579960
 20
2.193400
  0
SEQEND
  8
0
  0
POLYLINE
  8
0
  6
CONTINUOUS
 66
     1
 40
0.000000
 41
0.000000
  0
VERTEX
  8
0
  6
CONTINUOUS
 10
4.766960
 20
2.193400
  0
VERTEX
  8
0
  6
CONTINUOUS
 10
4.818000
 20
2.190760
  0
VERTEX
  8
0
  6
CONTINUOUS
 10
4.856720
 20
2.182840
  0
VERTEX
  8
0
  6
CONTINUOUS
 10
4.885320
 20
2.171400
  0
VERTEX
  8
0
  6
CONTINUOUS
 10
4.905120
 20
2.156000
  0
VERTEX
  8
0
  6
CONTINUOUS
 10
4.918320
 20
2.138400
  0
VERTEX
  8
0
  6
CONTINUOUS
 10
4.926680
 20
2.118600
  0
VERTEX
  8
0
  6
CONTINUOUS
 10
4.931520
 20
2.097920
  0
VERTEX
  8
0
  6
CONTINUOUS
 10
4.933280
 20
2.087360
  0
VERTEX
  8
0
  6
CONTINUOUS
 10
4.935040
 20
2.076800
  0
VERTEX
  8
0
  6
CONTINUOUS
 10
4.939000
 20
2.048200
  0
VERTEX
  8
0
  6
CONTINUOUS
 10
4.947360
 20
2.006840
  0
VERTEX
  8
0
  6
CONTINUOUS
 10
4.963640
 20
1.955360
  0
VERTEX
  8
0
  6
CONTINUOUS
 10
4.992240
 20
1.896400
  0
VERTEX
  8
0
  6
CONTINUOUS
 10
5.012480
 20
1.864720
  0
VERTEX
  8
0
  6
CONTINUOUS
 10
5.037120
 20
1.832600
  0
VERTEX
  8
0
  6
CONTINUOUS
 10
5.066600
 20
1.800040
  0
VERTEX
  8
0
  6
CONTINUOUS
 10
5.101800
 20
1.767480
  0
VERTEX
  8
0
  6
CONTINUOUS
 10
5.143160
 20
1.734920
  0
VERTEX
  8
0
  6
CONTINUOUS
 10
5.191120
 20
1.702800
  0
VERTEX
  8
0
  6
CONTINUOUS
 10
5.246120
 20
1.672000
  0
VERTEX
  8
0
  6
CONTINUOUS
 10
5.308600
 20
1.642080
  0
VERTEX
  8
0
  6
CONTINUOUS
 10
5.370640
 20
1.610400
  0
VERTEX
  8
0
  6
CONTINUOUS
 10
5.423000
 20
1.573880
  0
VERTEX
  8
0
  6
CONTINUOUS
 10
5.466120
 20
1.532960
  0
VERTEX
  8
0
  6
CONTINUOUS
 10
5.500440
 20
1.488960
  0
VERTEX
  8
0
  6
CONTINUOUS
 10
5.526400
 20
1.442760
  0
VERTEX
  8
0
  6
CONTINUOUS
 10
5.543120
 20
1.395680
  0
VERTEX
  8
0
  6
CONTINUOUS
 10
5.551920
 20
1.348600
  0
VERTEX
  8
0
  6
CONTINUOUS
 10
5.551920
 20
1.301960
  0
VERTEX
  8
0
  6
CONTINUOUS
 10
5.544440
 20
1.257080
  0
VERTEX
  8
0
  6
CONTINUOUS
 10
5.528600
 20
1.215280
  0
VERTEX
  8
0
  6
CONTINUOUS
 10
5.505720
 20
1.177440
  0
VERTEX
  8
0
  6
CONTINUOUS
 10
5.474920
 20
1.144000
  0
VERTEX
  8
0
  6
CONTINUOUS
 10
5.436640
 20
1.116280
  0
VERTEX
  8
0
  6
CONTINUOUS
 10
5.391760
 20
1.095160
  0
VERTEX
  8
0
  6
CONTINUOUS
 10
5.339400
 20
1.081960
  0
VERTEX
  8
0
  6
CONTINUOUS
 10
5.280440
 20
1.077120
  0
VERTEX
  8
0
  6
CONTINUOUS
 10
4.579960
 20
1.077120
  0
VERTEX
  8
0
  6
CONTINUOUS
 10
4.579960
 20
2.193400
  0
VERTEX
  8
0
  6
CONTINUOUS
 10
4.766960
 20
2.193400
  0
SEQEND
  8
0
  0
TEXT
  8
0
 10
5.070120
 20
0.821480
 40
0.138023
  1
BA 1082
 41
1.000000
  7
SN0
 71
     0
 72
     5
 11
5.706448
 21
0.821480
  0
TEXT
  8
0
 10
5.006760
 20
0.629640
 40
0.138023
  1
1-1/8" x 1"
 41
1.000000
  7
SN0
 71
     0
 72
     5
 11
5.768863
 21
0.629640
  0
POLYLINE
  8
0
  6
CONTINUOUS
 66
     1
 40
0.014080
 41
0.014080
  0
VERTEX
  8
0
  6
CONTINUOUS
 10
6.641360
 20
2.534840
  0
VERTEX
  8
0
  6
CONTINUOUS
 10
6.641360
 20
1.418560
  0
VERTEX
  8
0
  6
CONTINUOUS
 10
7.357240
 20
1.419000
  0
VERTEX
  8
0
  6
CONTINUOUS
 10
7.386720
 20
1.421200
  0
VERTEX
  8
0
  6
CONTINUOUS
 10
7.427640
 20
1.428680
  0
VERTEX
  8
0
  6
CONTINUOUS
 10
7.452720
 20
1.436600
  0
VERTEX
  8
0
  6
CONTINUOUS
 10
7.476480
 20
1.446280
  0
VERTEX
  8
0
  6
CONTINUOUS
 10
7.498040
 20
1.457720
  0
VERTEX
  8
0
  6
CONTINUOUS
 10
7.517840
 20
1.470480
  0
VERTEX
  8
0
  6
CONTINUOUS
 10
7.535880
 20
1.485000
  0
VERTEX
  8
0
  6
CONTINUOUS
 10
7.552160
 20
1.501280
  0
VERTEX
  8
0
  6
CONTINUOUS
 10
7.566680
 20
1.518440
  0
VERTEX
  8
0
  6
CONTINUOUS
 10
7.579440
 20
1.536920
  0
VERTEX
  8
0
  6
CONTINUOUS
 10
7.590000
 20
1.556720
  0
VERTEX
  8
0
  6
CONTINUOUS
 10
7.598800
 20
1.577400
  0
VERTEX
  8
0
  6
CONTINUOUS
 10
7.610680
 20
1.620520
  0
VERTEX
  8
0
  6
CONTINUOUS
 10
7.613320
 20
1.643400
  0
VERTEX
  8
0
  6
CONTINUOUS
 10
7.614200
 20
1.666280
  0
VERTEX
  8
0
  6
CONTINUOUS
 10
7.612880
 20
1.689600
  0
VERTEX
  8
0
  6
CONTINUOUS
 10
7.609800
 20
1.713360
  0
VERTEX
  8
0
  6
CONTINUOUS
 10
7.604520
 20
1.737120
  0
VERTEX
  8
0
  6
CONTINUOUS
 10
7.597040
 20
1.760880
  0
VERTEX
  8
0
  6
CONTINUOUS
 10
7.575920
 20
1.807520
  0
VERTEX
  8
0
  6
CONTINUOUS
 10
7.561840
 20
1.830400
  0
VERTEX
  8
0
  6
CONTINUOUS
 10
7.546000
 20
1.852400
  0
VERTEX
  8
0
  6
CONTINUOUS
 10
7.527520
 20
1.874400
  0
VERTEX
  8
0
  6
CONTINUOUS
 10
7.484400
 20
1.914880
  0
VERTEX
  8
0
  6
CONTINUOUS
 10
7.445680
 20
1.943040
  0
VERTEX
  8
0
  6
CONTINUOUS
 10
7.402120
 20
1.968560
  0
VERTEX
  8
0
  6
CONTINUOUS
 10
7.307520
 20
2.013000
  0
VERTEX
  8
0
  6
CONTINUOUS
 10
7.252520
 20
2.044240
  0
VERTEX
  8
0
  6
CONTINUOUS
 10
7.204560
 20
2.075920
  0
VERTEX
  8
0
  6
CONTINUOUS
 10
7.163200
 20
2.108480
  0
VERTEX
  8
0
  6
CONTINUOUS
 10
7.128000
 20
2.141040
  0
VERTEX
  8
0
  6
CONTINUOUS
 10
7.085320
 20
2.189880
  0
VERTEX
  8
0
  6
CONTINUOUS
 10
7.053640
 20
2.237400
  0
VERTEX
  8
0
  6
CONTINUOUS
 10
7.030760
 20
2.282280
  0
VERTEX
  8
0
  6
CONTINUOUS
 10
7.011840
 20
2.335960
  0
VERTEX
  8
0
  6
CONTINUOUS
 10
7.000400
 20
2.389200
  0
VERTEX
  8
0
  6
CONTINUOUS
 10
6.992920
 20
2.438920
  0
VERTEX
  8
0
  6
CONTINUOUS
 10
6.984120
 20
2.469720
  0
VERTEX
  8
0
  6
CONTINUOUS
 10
6.974000
 20
2.488640
  0
VERTEX
  8
0
  6
CONTINUOUS
 10
6.957720
 20
2.505360
  0
VERTEX
  8
0
  6
CONTINUOUS
 10
6.940560
 20
2.515920
  0
VERTEX
  8
0
  6
CONTINUOUS
 10
6.918120
 20
2.524280
  0
VERTEX
  8
0
  6
CONTINUOUS
 10
6.890400
 20
2.530440
  0
VERTEX
  8
0
  6
CONTINUOUS
 10
6.855640
 20
2.533960
  0
VERTEX
  8
0
  6
CONTINUOUS
 10
6.828360
 20
2.534840
  0
VERTEX
  8
0
  6
CONTINUOUS
 10
6.641360
 20
2.534840
  0
SEQEND
  8
0
  0
TEXT
  8
0
 10
6.808560
 20
1.719960
 40
0.138023
  1
BA 1082
 41
1.000000
  7
SN0
 71
     0
 72
     5
 11
7.444888
 21
1.719960
  0
TEXT
  8
0
 10
6.744760
 20
1.528120
 40
0.138023
  1
1-1/8" x 1"
 41
1.000000
  7
SN0
 71
     0
 72
     5
 11
7.506863
 21
1.528120
  0
ENDSEC
  0
EOF
