  0
SECTION
  2
HEADER
  9
$ACADVER
  1
AC1006
  9
$EXTMIN
 10
2.315280
 20
0.635800
  9
$EXTMAX
 10
6.011720
 20
3.756280
  9
$LTSCALE
 40
0.044000
  9
$PDMODE
 70
    35
  9
$PDSIZE
 40
0.035200
  0
ENDSEC
  0
SECTION
  2
TABLES
  0
TABLE
  2
LTYPE
 70
     9
  0
LTYPE
  2
CONTINUOUS
 70
    64
  3
Solid line
 72
    65
 73
     0
 40
0.000000
  0
LTYPE
  2
DASHED
 70
    64
  3
__ __ __ __ __ __ __ __ __ __ __ __ __ __ __
 72
    65
 73
     2
 40
0.000330
 49
0.000220
 49
-0.000110
  0
LTYPE
  2
HIDDEN
 70
    64
  3
 _ _ _ _ _ _ _ _ _ _ _ _ _ _ _ _ _ _ _ _ _ _
 72
    65
 73
     2
 40
0.000165
 49
0.000110
 49
-0.000055
  0
LTYPE
  2
CENTER
 70
    64
  3
____ _ ____ _ ____ _ ____ _ ____ _ ____ _ ____
 72
    65
 73
     4
 40
0.000880
 49
0.000550
 49
-0.000110
 49
0.000110
 49
-0.000110
  0
LTYPE
  2
PHANTOM
 70
    64
  3
_____ _ _ _____ _ _ _____ _ _ _____ _ _ ____
 72
    65
 73
     6
 40
0.001100
 49
0.000550
 49
-0.000110
 49
0.000110
 49
-0.000110
 49
0.000110
 49
-0.000110
  0
LTYPE
  2
DOT
 70
    64
  3
...............................................
 72
    65
 73
     2
 40
0.000110
 49
0.000000
 49
-0.000110
  0
LTYPE
  2
DASHDOT
 70
    64
  3
__ . __ . __ . __ . __ . __ . __ . __ . __ . __
 72
    65
 73
     4
 40
0.000440
 49
0.000220
 49
-0.000110
 49
0.000000
 49
-0.000110
  0
LTYPE
  2
BORDER
 70
    64
  3
__ __ . __ __ . __ __ . __ __ . __ __ . __ __
 72
    65
 73
     6
 40
0.000770
 49
0.000220
 49
-0.000110
 49
0.000220
 49
-0.000110
 49
0.000000
 49
-0.000110
  0
LTYPE
  2
DIVIDE
 70
    64
  3
__ . . __ . . __ . . __ . . __ . . __ . . __
 72
    65
 73
     6
 40
0.000550
 49
0.000220
 49
-0.000110
 49
0.000000
 49
-0.000110
 49
0.000000
 49
-0.000110
  0
LTYPE
  2
DOTDOT
 70
    64
  3
 . .  . .  . .  . .  . .  . . 
 72
    65
 73
     5
 40
0.000242
 49
-0.000110
 49
0.000000
 49
-0.000110
 49
0.000000
 49
-0.000110
  0
ENDTAB
  0
TABLE
  2
STYLE
 70
     2
  0
STYLE
 70
     0
  2
SN0
 40
0.000000
 41
0.000440
 50
0.000000
 71
     0
 42
0.000000
  3
ROMAND
  0
STYLE
 70
    68
  2
SV0
 40
0.000000
 41
0.000440
 50
0.000000
 71
     0
 42
0.000000
  3
ROMAND
  0
ENDTAB
  0
TABLE
  2
LAYER
 70
     3
  0
LAYER
  2
FOREGROUND
 70
    64
 62
     7
  6
CONTINUOUS
  0
LAYER
  2
BACKGROUND
 70
    65
 62
    -7
  6
CONTINUOUS
  0
LAYER
  2
0
 70
    64
 62
     7
  6
CONTINUOUS
  0
ENDTAB
  0
ENDSEC
  0
SECTION
  2
ENTITIES
  0
POLYLINE
  8
FOREGROUND
  6
CONTINUOUS
 66
     1
 40
0.000000
 41
0.000000
  0
VERTEX
  8
FOREGROUND
  6
CONTINUOUS
 10
0.000000
 20
4.392080
  0
VERTEX
  8
FOREGROUND
  6
CONTINUOUS
 10
8.499920
 20
4.392080
  0
VERTEX
  8
FOREGROUND
  6
CONTINUOUS
 10
8.499920
 20
-6.607920
  0
VERTEX
  8
FOREGROUND
  6
CONTINUOUS
 10
0.000000
 20
-6.607920
  0
VERTEX
  8
FOREGROUND
  6
CONTINUOUS
 10
0.000000
 20
4.392080
  0
SEQEND
  8
0
  0
POLYLINE
  8
FOREGROUND
  6
CONTINUOUS
 66
     1
 40
0.000000
 41
0.000000
  0
VERTEX
  8
FOREGROUND
  6
CONTINUOUS
 10
0.000000
 20
4.392080
  0
VERTEX
  8
FOREGROUND
  6
CONTINUOUS
 10
8.499920
 20
4.392080
  0
VERTEX
  8
FOREGROUND
  6
CONTINUOUS
 10
8.499920
 20
-6.607920
  0
VERTEX
  8
FOREGROUND
  6
CONTINUOUS
 10
0.000000
 20
-6.607920
  0
VERTEX
  8
FOREGROUND
  6
CONTINUOUS
 10
0.000000
 20
4.392080
  0
SEQEND
  8
0
  0
SOLID
  8
0
 62
    15
 10
3.816120
 20
1.708960
 11
3.817000
 21
2.448160
 12
3.846040
 22
1.716880
 13
3.847360
 23
2.456080
  0
POLYLINE
  8
0
  6
CONTINUOUS
 66
     1
 40
0.000000
 41
0.000000
  0
VERTEX
  8
0
  6
CONTINUOUS
 10
3.816120
 20
1.708960
  0
VERTEX
  8
0
  6
CONTINUOUS
 10
3.817000
 20
2.448160
  0
VERTEX
  8
0
  6
CONTINUOUS
 10
3.847360
 20
2.456080
  0
VERTEX
  8
0
  6
CONTINUOUS
 10
3.846040
 20
1.716880
  0
VERTEX
  8
0
  6
CONTINUOUS
 10
3.816120
 20
1.708960
  0
SEQEND
  8
0
  0
SOLID
  8
0
 62
    15
 10
2.957680
 20
1.886280
 11
2.959000
 21
2.625480
 12
3.058440
 22
1.752960
 13
3.059760
 23
2.492160
  0
POLYLINE
  8
0
  6
CONTINUOUS
 66
     1
 40
0.000000
 41
0.000000
  0
VERTEX
  8
0
  6
CONTINUOUS
 10
2.957680
 20
1.886280
  0
VERTEX
  8
0
  6
CONTINUOUS
 10
2.959000
 20
2.625480
  0
VERTEX
  8
0
  6
CONTINUOUS
 10
3.059760
 20
2.492160
  0
VERTEX
  8
0
  6
CONTINUOUS
 10
3.058440
 20
1.752960
  0
VERTEX
  8
0
  6
CONTINUOUS
 10
2.957680
 20
1.886280
  0
SEQEND
  8
0
  0
SOLID
  8
0
 62
    15
 10
3.058440
 20
1.752960
 11
3.059760
 21
2.492160
 12
3.104640
 22
1.788160
 13
3.105960
 23
2.527360
  0
POLYLINE
  8
0
  6
CONTINUOUS
 66
     1
 40
0.000000
 41
0.000000
  0
VERTEX
  8
0
  6
CONTINUOUS
 10
3.058440
 20
1.752960
  0
VERTEX
  8
0
  6
CONTINUOUS
 10
3.059760
 20
2.492160
  0
VERTEX
  8
0
  6
CONTINUOUS
 10
3.105960
 20
2.527360
  0
VERTEX
  8
0
  6
CONTINUOUS
 10
3.104640
 20
1.788160
  0
VERTEX
  8
0
  6
CONTINUOUS
 10
3.058440
 20
1.752960
  0
SEQEND
  8
0
  0
SOLID
  8
0
 62
    15
 10
3.104640
 20
1.788160
 11
3.105960
 21
2.527360
 12
3.152160
 22
1.818520
 13
3.153480
 23
2.557280
  0
POLYLINE
  8
0
  6
CONTINUOUS
 66
     1
 40
0.000000
 41
0.000000
  0
VERTEX
  8
0
  6
CONTINUOUS
 10
3.104640
 20
1.788160
  0
VERTEX
  8
0
  6
CONTINUOUS
 10
3.105960
 20
2.527360
  0
VERTEX
  8
0
  6
CONTINUOUS
 10
3.153480
 20
2.557280
  0
VERTEX
  8
0
  6
CONTINUOUS
 10
3.152160
 20
1.818520
  0
VERTEX
  8
0
  6
CONTINUOUS
 10
3.104640
 20
1.788160
  0
SEQEND
  8
0
  0
SOLID
  8
0
 62
    15
 10
3.152160
 20
1.818520
 11
3.153480
 21
2.557280
 12
3.201000
 22
1.841400
 13
3.202320
 23
2.580600
  0
POLYLINE
  8
0
  6
CONTINUOUS
 66
     1
 40
0.000000
 41
0.000000
  0
VERTEX
  8
0
  6
CONTINUOUS
 10
3.152160
 20
1.818520
  0
VERTEX
  8
0
  6
CONTINUOUS
 10
3.153480
 20
2.557280
  0
VERTEX
  8
0
  6
CONTINUOUS
 10
3.202320
 20
2.580600
  0
VERTEX
  8
0
  6
CONTINUOUS
 10
3.201000
 20
1.841400
  0
VERTEX
  8
0
  6
CONTINUOUS
 10
3.152160
 20
1.818520
  0
SEQEND
  8
0
  0
SOLID
  8
0
 62
    15
 10
3.201000
 20
1.841400
 11
3.202320
 21
2.580600
 12
3.253360
 22
1.855480
 13
3.254680
 23
2.594240
  0
POLYLINE
  8
0
  6
CONTINUOUS
 66
     1
 40
0.000000
 41
0.000000
  0
VERTEX
  8
0
  6
CONTINUOUS
 10
3.201000
 20
1.841400
  0
VERTEX
  8
0
  6
CONTINUOUS
 10
3.202320
 20
2.580600
  0
VERTEX
  8
0
  6
CONTINUOUS
 10
3.254680
 20
2.594240
  0
VERTEX
  8
0
  6
CONTINUOUS
 10
3.253360
 20
1.855480
  0
VERTEX
  8
0
  6
CONTINUOUS
 10
3.201000
 20
1.841400
  0
SEQEND
  8
0
  0
SOLID
  8
0
 62
    15
 10
3.253360
 20
1.855480
 11
3.254680
 21
2.594240
 12
3.310120
 22
1.858120
 13
3.311440
 23
2.597320
  0
POLYLINE
  8
0
  6
CONTINUOUS
 66
     1
 40
0.000000
 41
0.000000
  0
VERTEX
  8
0
  6
CONTINUOUS
 10
3.253360
 20
1.855480
  0
VERTEX
  8
0
  6
CONTINUOUS
 10
3.254680
 20
2.594240
  0
VERTEX
  8
0
  6
CONTINUOUS
 10
3.311440
 20
2.597320
  0
VERTEX
  8
0
  6
CONTINUOUS
 10
3.310120
 20
1.858120
  0
VERTEX
  8
0
  6
CONTINUOUS
 10
3.253360
 20
1.855480
  0
SEQEND
  8
0
  0
SOLID
  8
0
 62
    15
 10
3.310120
 20
1.858120
 11
3.311440
 21
2.597320
 12
3.340480
 22
1.855040
 13
3.341800
 23
2.593800
  0
POLYLINE
  8
0
  6
CONTINUOUS
 66
     1
 40
0.000000
 41
0.000000
  0
VERTEX
  8
0
  6
CONTINUOUS
 10
3.310120
 20
1.858120
  0
VERTEX
  8
0
  6
CONTINUOUS
 10
3.311440
 20
2.597320
  0
VERTEX
  8
0
  6
CONTINUOUS
 10
3.341800
 20
2.593800
  0
VERTEX
  8
0
  6
CONTINUOUS
 10
3.340480
 20
1.855040
  0
VERTEX
  8
0
  6
CONTINUOUS
 10
3.310120
 20
1.858120
  0
SEQEND
  8
0
  0
SOLID
  8
0
 62
    15
 10
3.340480
 20
1.855040
 11
3.341800
 21
2.593800
 12
3.372160
 22
1.848440
 13
3.373480
 23
2.587200
  0
POLYLINE
  8
0
  6
CONTINUOUS
 66
     1
 40
0.000000
 41
0.000000
  0
VERTEX
  8
0
  6
CONTINUOUS
 10
3.340480
 20
1.855040
  0
VERTEX
  8
0
  6
CONTINUOUS
 10
3.341800
 20
2.593800
  0
VERTEX
  8
0
  6
CONTINUOUS
 10
3.373480
 20
2.587200
  0
VERTEX
  8
0
  6
CONTINUOUS
 10
3.372160
 20
1.848440
  0
VERTEX
  8
0
  6
CONTINUOUS
 10
3.340480
 20
1.855040
  0
SEQEND
  8
0
  0
SOLID
  8
0
 62
    15
 10
3.372160
 20
1.848440
 11
3.373480
 21
2.587200
 12
3.405600
 22
1.837880
 13
3.406920
 23
2.576640
  0
POLYLINE
  8
0
  6
CONTINUOUS
 66
     1
 40
0.000000
 41
0.000000
  0
VERTEX
  8
0
  6
CONTINUOUS
 10
3.372160
 20
1.848440
  0
VERTEX
  8
0
  6
CONTINUOUS
 10
3.373480
 20
2.587200
  0
VERTEX
  8
0
  6
CONTINUOUS
 10
3.406920
 20
2.576640
  0
VERTEX
  8
0
  6
CONTINUOUS
 10
3.405600
 20
1.837880
  0
VERTEX
  8
0
  6
CONTINUOUS
 10
3.372160
 20
1.848440
  0
SEQEND
  8
0
  0
SOLID
  8
0
 62
    15
 10
3.405600
 20
1.837880
 11
3.406920
 21
2.576640
 12
3.440800
 22
1.823360
 13
3.442120
 23
2.562560
  0
POLYLINE
  8
0
  6
CONTINUOUS
 66
     1
 40
0.000000
 41
0.000000
  0
VERTEX
  8
0
  6
CONTINUOUS
 10
3.405600
 20
1.837880
  0
VERTEX
  8
0
  6
CONTINUOUS
 10
3.406920
 20
2.576640
  0
VERTEX
  8
0
  6
CONTINUOUS
 10
3.442120
 20
2.562560
  0
VERTEX
  8
0
  6
CONTINUOUS
 10
3.440800
 20
1.823360
  0
VERTEX
  8
0
  6
CONTINUOUS
 10
3.405600
 20
1.837880
  0
SEQEND
  8
0
  0
SOLID
  8
0
 62
    15
 10
3.440800
 20
1.823360
 11
3.442120
 21
2.562560
 12
3.478200
 22
1.804880
 13
3.479080
 23
2.544080
  0
POLYLINE
  8
0
  6
CONTINUOUS
 66
     1
 40
0.000000
 41
0.000000
  0
VERTEX
  8
0
  6
CONTINUOUS
 10
3.440800
 20
1.823360
  0
VERTEX
  8
0
  6
CONTINUOUS
 10
3.442120
 20
2.562560
  0
VERTEX
  8
0
  6
CONTINUOUS
 10
3.479080
 20
2.544080
  0
VERTEX
  8
0
  6
CONTINUOUS
 10
3.478200
 20
1.804880
  0
VERTEX
  8
0
  6
CONTINUOUS
 10
3.440800
 20
1.823360
  0
SEQEND
  8
0
  0
SOLID
  8
0
 62
    15
 10
3.478200
 20
1.804880
 11
3.479080
 21
2.544080
 12
3.517360
 22
1.782000
 13
3.518240
 23
2.520760
  0
POLYLINE
  8
0
  6
CONTINUOUS
 66
     1
 40
0.000000
 41
0.000000
  0
VERTEX
  8
0
  6
CONTINUOUS
 10
3.478200
 20
1.804880
  0
VERTEX
  8
0
  6
CONTINUOUS
 10
3.479080
 20
2.544080
  0
VERTEX
  8
0
  6
CONTINUOUS
 10
3.518240
 20
2.520760
  0
VERTEX
  8
0
  6
CONTINUOUS
 10
3.517360
 20
1.782000
  0
VERTEX
  8
0
  6
CONTINUOUS
 10
3.478200
 20
1.804880
  0
SEQEND
  8
0
  0
SOLID
  8
0
 62
    15
 10
3.517360
 20
1.782000
 11
3.518240
 21
2.520760
 12
3.556520
 22
1.759120
 13
3.557840
 23
2.497880
  0
POLYLINE
  8
0
  6
CONTINUOUS
 66
     1
 40
0.000000
 41
0.000000
  0
VERTEX
  8
0
  6
CONTINUOUS
 10
3.517360
 20
1.782000
  0
VERTEX
  8
0
  6
CONTINUOUS
 10
3.518240
 20
2.520760
  0
VERTEX
  8
0
  6
CONTINUOUS
 10
3.557840
 20
2.497880
  0
VERTEX
  8
0
  6
CONTINUOUS
 10
3.556520
 20
1.759120
  0
VERTEX
  8
0
  6
CONTINUOUS
 10
3.517360
 20
1.782000
  0
SEQEND
  8
0
  0
SOLID
  8
0
 62
    15
 10
3.556520
 20
1.759120
 11
3.557840
 21
2.497880
 12
3.593920
 22
1.740640
 13
3.595240
 23
2.479840
  0
POLYLINE
  8
0
  6
CONTINUOUS
 66
     1
 40
0.000000
 41
0.000000
  0
VERTEX
  8
0
  6
CONTINUOUS
 10
3.556520
 20
1.759120
  0
VERTEX
  8
0
  6
CONTINUOUS
 10
3.557840
 20
2.497880
  0
VERTEX
  8
0
  6
CONTINUOUS
 10
3.595240
 20
2.479840
  0
VERTEX
  8
0
  6
CONTINUOUS
 10
3.593920
 20
1.740640
  0
VERTEX
  8
0
  6
CONTINUOUS
 10
3.556520
 20
1.759120
  0
SEQEND
  8
0
  0
SOLID
  8
0
 62
    15
 10
3.593920
 20
1.740640
 11
3.595240
 21
2.479840
 12
3.629560
 22
1.727000
 13
3.630880
 23
2.465760
  0
POLYLINE
  8
0
  6
CONTINUOUS
 66
     1
 40
0.000000
 41
0.000000
  0
VERTEX
  8
0
  6
CONTINUOUS
 10
3.593920
 20
1.740640
  0
VERTEX
  8
0
  6
CONTINUOUS
 10
3.595240
 20
2.479840
  0
VERTEX
  8
0
  6
CONTINUOUS
 10
3.630880
 20
2.465760
  0
VERTEX
  8
0
  6
CONTINUOUS
 10
3.629560
 20
1.727000
  0
VERTEX
  8
0
  6
CONTINUOUS
 10
3.593920
 20
1.740640
  0
SEQEND
  8
0
  0
SOLID
  8
0
 62
    15
 10
3.629560
 20
1.727000
 11
3.630880
 21
2.465760
 12
3.663000
 22
1.716440
 13
3.664320
 23
2.455640
  0
POLYLINE
  8
0
  6
CONTINUOUS
 66
     1
 40
0.000000
 41
0.000000
  0
VERTEX
  8
0
  6
CONTINUOUS
 10
3.629560
 20
1.727000
  0
VERTEX
  8
0
  6
CONTINUOUS
 10
3.630880
 20
2.465760
  0
VERTEX
  8
0
  6
CONTINUOUS
 10
3.664320
 20
2.455640
  0
VERTEX
  8
0
  6
CONTINUOUS
 10
3.663000
 20
1.716440
  0
VERTEX
  8
0
  6
CONTINUOUS
 10
3.629560
 20
1.727000
  0
SEQEND
  8
0
  0
SOLID
  8
0
 62
    15
 10
3.663000
 20
1.716440
 11
3.664320
 21
2.455640
 12
3.723720
 22
1.705440
 13
3.725040
 23
2.444640
  0
POLYLINE
  8
0
  6
CONTINUOUS
 66
     1
 40
0.000000
 41
0.000000
  0
VERTEX
  8
0
  6
CONTINUOUS
 10
3.663000
 20
1.716440
  0
VERTEX
  8
0
  6
CONTINUOUS
 10
3.664320
 20
2.455640
  0
VERTEX
  8
0
  6
CONTINUOUS
 10
3.725040
 20
2.444640
  0
VERTEX
  8
0
  6
CONTINUOUS
 10
3.723720
 20
1.705440
  0
VERTEX
  8
0
  6
CONTINUOUS
 10
3.663000
 20
1.716440
  0
SEQEND
  8
0
  0
SOLID
  8
0
 62
    15
 10
3.723720
 20
1.705440
 11
3.725040
 21
2.444640
 12
3.774760
 22
1.704120
 13
3.776080
 23
2.443320
  0
POLYLINE
  8
0
  6
CONTINUOUS
 66
     1
 40
0.000000
 41
0.000000
  0
VERTEX
  8
0
  6
CONTINUOUS
 10
3.723720
 20
1.705440
  0
VERTEX
  8
0
  6
CONTINUOUS
 10
3.725040
 20
2.444640
  0
VERTEX
  8
0
  6
CONTINUOUS
 10
3.776080
 20
2.443320
  0
VERTEX
  8
0
  6
CONTINUOUS
 10
3.774760
 20
1.704120
  0
VERTEX
  8
0
  6
CONTINUOUS
 10
3.723720
 20
1.705440
  0
SEQEND
  8
0
  0
SOLID
  8
0
 62
    15
 10
3.774760
 20
1.704120
 11
3.776080
 21
2.443320
 12
3.816120
 22
1.708960
 13
3.817000
 23
2.448160
  0
POLYLINE
  8
0
  6
CONTINUOUS
 66
     1
 40
0.000000
 41
0.000000
  0
VERTEX
  8
0
  6
CONTINUOUS
 10
3.774760
 20
1.704120
  0
VERTEX
  8
0
  6
CONTINUOUS
 10
3.776080
 20
2.443320
  0
VERTEX
  8
0
  6
CONTINUOUS
 10
3.817000
 20
2.448160
  0
VERTEX
  8
0
  6
CONTINUOUS
 10
3.816120
 20
1.708960
  0
VERTEX
  8
0
  6
CONTINUOUS
 10
3.774760
 20
1.704120
  0
SEQEND
  8
0
  0
SOLID
  8
0
 62
    15
 10
2.376440
 20
1.886280
 11
2.377760
 21
2.625480
 12
2.957680
 22
1.886280
 13
2.959000
 23
2.625480
  0
POLYLINE
  8
0
  6
CONTINUOUS
 66
     1
 40
0.000000
 41
0.000000
  0
VERTEX
  8
0
  6
CONTINUOUS
 10
2.376440
 20
1.886280
  0
VERTEX
  8
0
  6
CONTINUOUS
 10
2.377760
 20
2.625480
  0
VERTEX
  8
0
  6
CONTINUOUS
 10
2.959000
 20
2.625480
  0
VERTEX
  8
0
  6
CONTINUOUS
 10
2.957680
 20
1.886280
  0
VERTEX
  8
0
  6
CONTINUOUS
 10
2.376440
 20
1.886280
  0
SEQEND
  8
0
  0
SOLID
  8
0
 62
    15
 10
3.846040
 20
1.716880
 11
3.847360
 21
2.456080
 12
3.864960
 22
1.724360
 13
3.866280
 23
2.463120
  0
POLYLINE
  8
0
  6
CONTINUOUS
 66
     1
 40
0.000000
 41
0.000000
  0
VERTEX
  8
0
  6
CONTINUOUS
 10
3.846040
 20
1.716880
  0
VERTEX
  8
0
  6
CONTINUOUS
 10
3.847360
 20
2.456080
  0
VERTEX
  8
0
  6
CONTINUOUS
 10
3.866280
 20
2.463120
  0
VERTEX
  8
0
  6
CONTINUOUS
 10
3.864960
 20
1.724360
  0
VERTEX
  8
0
  6
CONTINUOUS
 10
3.846040
 20
1.716880
  0
SEQEND
  8
0
  0
SOLID
  8
0
 62
    15
 10
3.864960
 20
1.724360
 11
3.866280
 21
2.463120
 12
3.871120
 22
1.727440
 13
3.872440
 23
2.466640
  0
POLYLINE
  8
0
  6
CONTINUOUS
 66
     1
 40
0.000000
 41
0.000000
  0
VERTEX
  8
0
  6
CONTINUOUS
 10
3.864960
 20
1.724360
  0
VERTEX
  8
0
  6
CONTINUOUS
 10
3.866280
 20
2.463120
  0
VERTEX
  8
0
  6
CONTINUOUS
 10
3.872440
 20
2.466640
  0
VERTEX
  8
0
  6
CONTINUOUS
 10
3.871120
 20
1.727440
  0
VERTEX
  8
0
  6
CONTINUOUS
 10
3.864960
 20
1.724360
  0
SEQEND
  8
0
  0
SOLID
  8
0
 62
    15
 10
3.871120
 20
1.727440
 11
3.872440
 21
2.466640
 12
3.950320
 22
1.645160
 13
3.951640
 23
2.384360
  0
POLYLINE
  8
0
  6
CONTINUOUS
 66
     1
 40
0.000000
 41
0.000000
  0
VERTEX
  8
0
  6
CONTINUOUS
 10
3.871120
 20
1.727440
  0
VERTEX
  8
0
  6
CONTINUOUS
 10
3.872440
 20
2.466640
  0
VERTEX
  8
0
  6
CONTINUOUS
 10
3.951640
 20
2.384360
  0
VERTEX
  8
0
  6
CONTINUOUS
 10
3.950320
 20
1.645160
  0
VERTEX
  8
0
  6
CONTINUOUS
 10
3.871120
 20
1.727440
  0
SEQEND
  8
0
  0
SOLID
  8
0
 62
    15
 10
3.950320
 20
1.645160
 11
3.951640
 21
2.384360
 12
5.473600
 22
1.645160
 13
5.474480
 23
2.384360
  0
POLYLINE
  8
0
  6
CONTINUOUS
 66
     1
 40
0.000000
 41
0.000000
  0
VERTEX
  8
0
  6
CONTINUOUS
 10
3.950320
 20
1.645160
  0
VERTEX
  8
0
  6
CONTINUOUS
 10
3.951640
 20
2.384360
  0
VERTEX
  8
0
  6
CONTINUOUS
 10
5.474480
 20
2.384360
  0
VERTEX
  8
0
  6
CONTINUOUS
 10
5.473600
 20
1.645160
  0
VERTEX
  8
0
  6
CONTINUOUS
 10
3.950320
 20
1.645160
  0
SEQEND
  8
0
  0
SOLID
  8
0
 62
    15
 10
5.473600
 20
1.645160
 11
5.474480
 21
2.384360
 12
5.578320
 22
1.497760
 13
5.579640
 23
2.236960
  0
POLYLINE
  8
0
  6
CONTINUOUS
 66
     1
 40
0.000000
 41
0.000000
  0
VERTEX
  8
0
  6
CONTINUOUS
 10
5.473600
 20
1.645160
  0
VERTEX
  8
0
  6
CONTINUOUS
 10
5.474480
 20
2.384360
  0
VERTEX
  8
0
  6
CONTINUOUS
 10
5.579640
 20
2.236960
  0
VERTEX
  8
0
  6
CONTINUOUS
 10
5.578320
 20
1.497760
  0
VERTEX
  8
0
  6
CONTINUOUS
 10
5.473600
 20
1.645160
  0
SEQEND
  8
0
  0
SOLID
  8
0
 62
    15
 10
5.578320
 20
1.497760
 11
5.579640
 21
2.236960
 12
5.614840
 22
1.542640
 13
5.616160
 23
2.281840
  0
POLYLINE
  8
0
  6
CONTINUOUS
 66
     1
 40
0.000000
 41
0.000000
  0
VERTEX
  8
0
  6
CONTINUOUS
 10
5.578320
 20
1.497760
  0
VERTEX
  8
0
  6
CONTINUOUS
 10
5.579640
 20
2.236960
  0
VERTEX
  8
0
  6
CONTINUOUS
 10
5.616160
 20
2.281840
  0
VERTEX
  8
0
  6
CONTINUOUS
 10
5.614840
 20
1.542640
  0
VERTEX
  8
0
  6
CONTINUOUS
 10
5.578320
 20
1.497760
  0
SEQEND
  8
0
  0
SOLID
  8
0
 62
    15
 10
5.614840
 20
1.542640
 11
5.616160
 21
2.281840
 12
5.654000
 22
1.577840
 13
5.655320
 23
2.316600
  0
POLYLINE
  8
0
  6
CONTINUOUS
 66
     1
 40
0.000000
 41
0.000000
  0
VERTEX
  8
0
  6
CONTINUOUS
 10
5.614840
 20
1.542640
  0
VERTEX
  8
0
  6
CONTINUOUS
 10
5.616160
 20
2.281840
  0
VERTEX
  8
0
  6
CONTINUOUS
 10
5.655320
 20
2.316600
  0
VERTEX
  8
0
  6
CONTINUOUS
 10
5.654000
 20
1.577840
  0
VERTEX
  8
0
  6
CONTINUOUS
 10
5.614840
 20
1.542640
  0
SEQEND
  8
0
  0
SOLID
  8
0
 62
    15
 10
5.654000
 20
1.577840
 11
5.655320
 21
2.316600
 12
5.695360
 22
1.601160
 13
5.696680
 23
2.339920
  0
POLYLINE
  8
0
  6
CONTINUOUS
 66
     1
 40
0.000000
 41
0.000000
  0
VERTEX
  8
0
  6
CONTINUOUS
 10
5.654000
 20
1.577840
  0
VERTEX
  8
0
  6
CONTINUOUS
 10
5.655320
 20
2.316600
  0
VERTEX
  8
0
  6
CONTINUOUS
 10
5.696680
 20
2.339920
  0
VERTEX
  8
0
  6
CONTINUOUS
 10
5.695360
 20
1.601160
  0
VERTEX
  8
0
  6
CONTINUOUS
 10
5.654000
 20
1.577840
  0
SEQEND
  8
0
  0
SOLID
  8
0
 62
    15
 10
5.695360
 20
1.601160
 11
5.696680
 21
2.339920
 12
5.738920
 22
1.610840
 13
5.740240
 23
2.350040
  0
POLYLINE
  8
0
  6
CONTINUOUS
 66
     1
 40
0.000000
 41
0.000000
  0
VERTEX
  8
0
  6
CONTINUOUS
 10
5.695360
 20
1.601160
  0
VERTEX
  8
0
  6
CONTINUOUS
 10
5.696680
 20
2.339920
  0
VERTEX
  8
0
  6
CONTINUOUS
 10
5.740240
 20
2.350040
  0
VERTEX
  8
0
  6
CONTINUOUS
 10
5.738920
 20
1.610840
  0
VERTEX
  8
0
  6
CONTINUOUS
 10
5.695360
 20
1.601160
  0
SEQEND
  8
0
  0
SOLID
  8
0
 62
    15
 10
5.738920
 20
1.610840
 11
5.740240
 21
2.350040
 12
5.761360
 22
1.610400
 13
5.762240
 23
2.349160
  0
POLYLINE
  8
0
  6
CONTINUOUS
 66
     1
 40
0.000000
 41
0.000000
  0
VERTEX
  8
0
  6
CONTINUOUS
 10
5.738920
 20
1.610840
  0
VERTEX
  8
0
  6
CONTINUOUS
 10
5.740240
 20
2.350040
  0
VERTEX
  8
0
  6
CONTINUOUS
 10
5.762240
 20
2.349160
  0
VERTEX
  8
0
  6
CONTINUOUS
 10
5.761360
 20
1.610400
  0
VERTEX
  8
0
  6
CONTINUOUS
 10
5.738920
 20
1.610840
  0
SEQEND
  8
0
  0
SOLID
  8
0
 62
    15
 10
5.761360
 20
1.610400
 11
5.762240
 21
2.349160
 12
5.783800
 22
1.605560
 13
5.785120
 23
2.344760
  0
POLYLINE
  8
0
  6
CONTINUOUS
 66
     1
 40
0.000000
 41
0.000000
  0
VERTEX
  8
0
  6
CONTINUOUS
 10
5.761360
 20
1.610400
  0
VERTEX
  8
0
  6
CONTINUOUS
 10
5.762240
 20
2.349160
  0
VERTEX
  8
0
  6
CONTINUOUS
 10
5.785120
 20
2.344760
  0
VERTEX
  8
0
  6
CONTINUOUS
 10
5.783800
 20
1.605560
  0
VERTEX
  8
0
  6
CONTINUOUS
 10
5.761360
 20
1.610400
  0
SEQEND
  8
0
  0
SOLID
  8
0
 62
    15
 10
5.783800
 20
1.605560
 11
5.785120
 21
2.344760
 12
5.806680
 22
1.596760
 13
5.808000
 23
2.335520
  0
POLYLINE
  8
0
  6
CONTINUOUS
 66
     1
 40
0.000000
 41
0.000000
  0
VERTEX
  8
0
  6
CONTINUOUS
 10
5.783800
 20
1.605560
  0
VERTEX
  8
0
  6
CONTINUOUS
 10
5.785120
 20
2.344760
  0
VERTEX
  8
0
  6
CONTINUOUS
 10
5.808000
 20
2.335520
  0
VERTEX
  8
0
  6
CONTINUOUS
 10
5.806680
 20
1.596760
  0
VERTEX
  8
0
  6
CONTINUOUS
 10
5.783800
 20
1.605560
  0
SEQEND
  8
0
  0
SOLID
  8
0
 62
    15
 10
5.806680
 20
1.596760
 11
5.808000
 21
2.335520
 12
5.830000
 22
1.583120
 13
5.831320
 23
2.322320
  0
POLYLINE
  8
0
  6
CONTINUOUS
 66
     1
 40
0.000000
 41
0.000000
  0
VERTEX
  8
0
  6
CONTINUOUS
 10
5.806680
 20
1.596760
  0
VERTEX
  8
0
  6
CONTINUOUS
 10
5.808000
 20
2.335520
  0
VERTEX
  8
0
  6
CONTINUOUS
 10
5.831320
 20
2.322320
  0
VERTEX
  8
0
  6
CONTINUOUS
 10
5.830000
 20
1.583120
  0
VERTEX
  8
0
  6
CONTINUOUS
 10
5.806680
 20
1.596760
  0
SEQEND
  8
0
  0
SOLID
  8
0
 62
    15
 10
5.830000
 20
1.583120
 11
5.831320
 21
2.322320
 12
5.853760
 22
1.565520
 13
5.855080
 23
2.304280
  0
POLYLINE
  8
0
  6
CONTINUOUS
 66
     1
 40
0.000000
 41
0.000000
  0
VERTEX
  8
0
  6
CONTINUOUS
 10
5.830000
 20
1.583120
  0
VERTEX
  8
0
  6
CONTINUOUS
 10
5.831320
 20
2.322320
  0
VERTEX
  8
0
  6
CONTINUOUS
 10
5.855080
 20
2.304280
  0
VERTEX
  8
0
  6
CONTINUOUS
 10
5.853760
 20
1.565520
  0
VERTEX
  8
0
  6
CONTINUOUS
 10
5.830000
 20
1.583120
  0
SEQEND
  8
0
  0
SOLID
  8
0
 62
    15
 10
5.853760
 20
1.565520
 11
5.855080
 21
2.304280
 12
5.877080
 22
1.542200
 13
5.878400
 23
2.281400
  0
POLYLINE
  8
0
  6
CONTINUOUS
 66
     1
 40
0.000000
 41
0.000000
  0
VERTEX
  8
0
  6
CONTINUOUS
 10
5.853760
 20
1.565520
  0
VERTEX
  8
0
  6
CONTINUOUS
 10
5.855080
 20
2.304280
  0
VERTEX
  8
0
  6
CONTINUOUS
 10
5.878400
 20
2.281400
  0
VERTEX
  8
0
  6
CONTINUOUS
 10
5.877080
 20
1.542200
  0
VERTEX
  8
0
  6
CONTINUOUS
 10
5.853760
 20
1.565520
  0
SEQEND
  8
0
  0
SOLID
  8
0
 62
    15
 10
5.877080
 20
1.542200
 11
5.878400
 21
2.281400
 12
5.901280
 22
1.514040
 13
5.902160
 23
2.253240
  0
POLYLINE
  8
0
  6
CONTINUOUS
 66
     1
 40
0.000000
 41
0.000000
  0
VERTEX
  8
0
  6
CONTINUOUS
 10
5.877080
 20
1.542200
  0
VERTEX
  8
0
  6
CONTINUOUS
 10
5.878400
 20
2.281400
  0
VERTEX
  8
0
  6
CONTINUOUS
 10
5.902160
 20
2.253240
  0
VERTEX
  8
0
  6
CONTINUOUS
 10
5.901280
 20
1.514040
  0
VERTEX
  8
0
  6
CONTINUOUS
 10
5.877080
 20
1.542200
  0
SEQEND
  8
0
  0
SOLID
  8
0
 62
    15
 10
5.901280
 20
1.514040
 11
5.902160
 21
2.253240
 12
5.925040
 22
1.480600
 13
5.926360
 23
2.219800
  0
POLYLINE
  8
0
  6
CONTINUOUS
 66
     1
 40
0.000000
 41
0.000000
  0
VERTEX
  8
0
  6
CONTINUOUS
 10
5.901280
 20
1.514040
  0
VERTEX
  8
0
  6
CONTINUOUS
 10
5.902160
 20
2.253240
  0
VERTEX
  8
0
  6
CONTINUOUS
 10
5.926360
 20
2.219800
  0
VERTEX
  8
0
  6
CONTINUOUS
 10
5.925040
 20
1.480600
  0
VERTEX
  8
0
  6
CONTINUOUS
 10
5.901280
 20
1.514040
  0
SEQEND
  8
0
  0
SOLID
  8
0
 62
    15
 10
6.010400
 20
1.353440
 11
6.011720
 21
2.092640
 12
6.010400
 22
1.106600
 13
6.011720
 23
1.845800
  0
POLYLINE
  8
0
  6
CONTINUOUS
 66
     1
 40
0.000000
 41
0.000000
  0
VERTEX
  8
0
  6
CONTINUOUS
 10
6.010400
 20
1.353440
  0
VERTEX
  8
0
  6
CONTINUOUS
 10
6.011720
 20
2.092640
  0
VERTEX
  8
0
  6
CONTINUOUS
 10
6.011720
 20
1.845800
  0
VERTEX
  8
0
  6
CONTINUOUS
 10
6.010400
 20
1.106600
  0
VERTEX
  8
0
  6
CONTINUOUS
 10
6.010400
 20
1.353440
  0
SEQEND
  8
0
  0
SOLID
  8
0
 62
    15
 10
5.925040
 20
1.480600
 11
5.926360
 21
2.219800
 12
6.010400
 22
1.353440
 13
6.011720
 23
2.092640
  0
POLYLINE
  8
0
  6
CONTINUOUS
 66
     1
 40
0.000000
 41
0.000000
  0
VERTEX
  8
0
  6
CONTINUOUS
 10
5.925040
 20
1.480600
  0
VERTEX
  8
0
  6
CONTINUOUS
 10
5.926360
 20
2.219800
  0
VERTEX
  8
0
  6
CONTINUOUS
 10
6.011720
 20
2.092640
  0
VERTEX
  8
0
  6
CONTINUOUS
 10
6.010400
 20
1.353440
  0
VERTEX
  8
0
  6
CONTINUOUS
 10
5.925040
 20
1.480600
  0
SEQEND
  8
0
  0
POLYLINE
  8
0
  6
CONTINUOUS
 66
     1
 40
0.000000
 41
0.000000
  0
VERTEX
  8
0
  6
CONTINUOUS
 10
2.559040
 20
1.107040
  0
VERTEX
  8
0
  6
CONTINUOUS
 10
2.376440
 20
1.107040
  0
VERTEX
  8
0
  6
CONTINUOUS
 10
2.376440
 20
1.886280
  0
VERTEX
  8
0
  6
CONTINUOUS
 10
2.957680
 20
1.886280
  0
VERTEX
  8
0
  6
CONTINUOUS
 10
3.058440
 20
1.752960
  0
VERTEX
  8
0
  6
CONTINUOUS
 10
3.104640
 20
1.788160
  0
VERTEX
  8
0
  6
CONTINUOUS
 10
3.152160
 20
1.818520
  0
VERTEX
  8
0
  6
CONTINUOUS
 10
3.201000
 20
1.841400
  0
VERTEX
  8
0
  6
CONTINUOUS
 10
3.253360
 20
1.855480
  0
VERTEX
  8
0
  6
CONTINUOUS
 10
3.310120
 20
1.858120
  0
VERTEX
  8
0
  6
CONTINUOUS
 10
3.340480
 20
1.855040
  0
VERTEX
  8
0
  6
CONTINUOUS
 10
3.372160
 20
1.848440
  0
VERTEX
  8
0
  6
CONTINUOUS
 10
3.405600
 20
1.837880
  0
VERTEX
  8
0
  6
CONTINUOUS
 10
3.440800
 20
1.823360
  0
VERTEX
  8
0
  6
CONTINUOUS
 10
3.478200
 20
1.804880
  0
VERTEX
  8
0
  6
CONTINUOUS
 10
3.517360
 20
1.782000
  0
VERTEX
  8
0
  6
CONTINUOUS
 10
3.556520
 20
1.759120
  0
VERTEX
  8
0
  6
CONTINUOUS
 10
3.593920
 20
1.740640
  0
VERTEX
  8
0
  6
CONTINUOUS
 10
3.629560
 20
1.727000
  0
VERTEX
  8
0
  6
CONTINUOUS
 10
3.663000
 20
1.716440
  0
VERTEX
  8
0
  6
CONTINUOUS
 10
3.723720
 20
1.705440
  0
VERTEX
  8
0
  6
CONTINUOUS
 10
3.774760
 20
1.704120
  0
VERTEX
  8
0
  6
CONTINUOUS
 10
3.816120
 20
1.708960
  0
VERTEX
  8
0
  6
CONTINUOUS
 10
3.846040
 20
1.716880
  0
VERTEX
  8
0
  6
CONTINUOUS
 10
3.864960
 20
1.724360
  0
VERTEX
  8
0
  6
CONTINUOUS
 10
3.871120
 20
1.727440
  0
VERTEX
  8
0
  6
CONTINUOUS
 10
3.950320
 20
1.645160
  0
VERTEX
  8
0
  6
CONTINUOUS
 10
5.473600
 20
1.645160
  0
VERTEX
  8
0
  6
CONTINUOUS
 10
5.578320
 20
1.497760
  0
VERTEX
  8
0
  6
CONTINUOUS
 10
5.614840
 20
1.542640
  0
VERTEX
  8
0
  6
CONTINUOUS
 10
5.654000
 20
1.577840
  0
VERTEX
  8
0
  6
CONTINUOUS
 10
5.695360
 20
1.601160
  0
VERTEX
  8
0
  6
CONTINUOUS
 10
5.738920
 20
1.610840
  0
VERTEX
  8
0
  6
CONTINUOUS
 10
5.761360
 20
1.610400
  0
VERTEX
  8
0
  6
CONTINUOUS
 10
5.783800
 20
1.605560
  0
VERTEX
  8
0
  6
CONTINUOUS
 10
5.806680
 20
1.596760
  0
VERTEX
  8
0
  6
CONTINUOUS
 10
5.830000
 20
1.583120
  0
VERTEX
  8
0
  6
CONTINUOUS
 10
5.853760
 20
1.565520
  0
VERTEX
  8
0
  6
CONTINUOUS
 10
5.877080
 20
1.542200
  0
VERTEX
  8
0
  6
CONTINUOUS
 10
5.901280
 20
1.514040
  0
VERTEX
  8
0
  6
CONTINUOUS
 10
5.925040
 20
1.480600
  0
VERTEX
  8
0
  6
CONTINUOUS
 10
6.010400
 20
1.353440
  0
VERTEX
  8
0
  6
CONTINUOUS
 10
6.010400
 20
1.106600
  0
VERTEX
  8
0
  6
CONTINUOUS
 10
2.559040
 20
1.106600
  0
VERTEX
  8
0
  6
CONTINUOUS
 10
2.559040
 20
1.107040
  0
SEQEND
  8
0
  0
TEXT
  8
0
 10
3.852200
 20
0.871640
 40
0.138252
  1
BA  1081
 41
1.000000
  7
SN0
 71
     0
 72
     5
 11
4.534563
 21
0.871640
  0
TEXT
  8
0
 10
3.742640
 20
0.679800
 40
0.138252
  1
3/4" x 3-5/8"
 41
1.000000
  7
SN0
 71
     0
 72
     5
 11
4.643093
 21
0.679800
  0
POLYLINE
  8
0
  6
CONTINUOUS
 66
     1
 40
0.014080
 41
0.014080
  0
VERTEX
  8
0
  6
CONTINUOUS
 10
2.505360
 20
2.969560
  0
VERTEX
  8
0
  6
CONTINUOUS
 10
2.323200
 20
2.969560
  0
VERTEX
  8
0
  6
CONTINUOUS
 10
2.323200
 20
3.748360
  0
VERTEX
  8
0
  6
CONTINUOUS
 10
2.904000
 20
3.748360
  0
VERTEX
  8
0
  6
CONTINUOUS
 10
3.004760
 20
3.615040
  0
VERTEX
  8
0
  6
CONTINUOUS
 10
3.050960
 20
3.650240
  0
VERTEX
  8
0
  6
CONTINUOUS
 10
3.098480
 20
3.680600
  0
VERTEX
  8
0
  6
CONTINUOUS
 10
3.122680
 20
3.692920
  0
VERTEX
  8
0
  6
CONTINUOUS
 10
3.160520
 20
3.707880
  0
VERTEX
  8
0
  6
CONTINUOUS
 10
3.186480
 20
3.714920
  0
VERTEX
  8
0
  6
CONTINUOUS
 10
3.213760
 20
3.719320
  0
VERTEX
  8
0
  6
CONTINUOUS
 10
3.241920
 20
3.720640
  0
VERTEX
  8
0
  6
CONTINUOUS
 10
3.271840
 20
3.718880
  0
VERTEX
  8
0
  6
CONTINUOUS
 10
3.302640
 20
3.714040
  0
VERTEX
  8
0
  6
CONTINUOUS
 10
3.335200
 20
3.705680
  0
VERTEX
  8
0
  6
CONTINUOUS
 10
3.369520
 20
3.693360
  0
VERTEX
  8
0
  6
CONTINUOUS
 10
3.424520
 20
3.666960
  0
VERTEX
  8
0
  6
CONTINUOUS
 10
3.502840
 20
3.621200
  0
VERTEX
  8
0
  6
CONTINUOUS
 10
3.558720
 20
3.595680
  0
VERTEX
  8
0
  6
CONTINUOUS
 10
3.593040
 20
3.583360
  0
VERTEX
  8
0
  6
CONTINUOUS
 10
3.641000
 20
3.571920
  0
VERTEX
  8
0
  6
CONTINUOUS
 10
3.670040
 20
3.567520
  0
VERTEX
  8
0
  6
CONTINUOUS
 10
3.709200
 20
3.565760
  0
VERTEX
  8
0
  6
CONTINUOUS
 10
3.743080
 20
3.568400
  0
VERTEX
  8
0
  6
CONTINUOUS
 10
3.779160
 20
3.575000
  0
VERTEX
  8
0
  6
CONTINUOUS
 10
3.807760
 20
3.584680
  0
VERTEX
  8
0
  6
CONTINUOUS
 10
3.817880
 20
3.589520
  0
VERTEX
  8
0
  6
CONTINUOUS
 10
3.896640
 20
3.507240
  0
VERTEX
  8
0
  6
CONTINUOUS
 10
5.419920
 20
3.507240
  0
VERTEX
  8
0
  6
CONTINUOUS
 10
5.525080
 20
3.359840
  0
VERTEX
  8
0
  6
CONTINUOUS
 10
5.551920
 20
3.394160
  0
VERTEX
  8
0
  6
CONTINUOUS
 10
5.580520
 20
3.423640
  0
VERTEX
  8
0
  6
CONTINUOUS
 10
5.610440
 20
3.446520
  0
VERTEX
  8
0
  6
CONTINUOUS
 10
5.631560
 20
3.458400
  0
VERTEX
  8
0
  6
CONTINUOUS
 10
5.663240
 20
3.469840
  0
VERTEX
  8
0
  6
CONTINUOUS
 10
5.685240
 20
3.472920
  0
VERTEX
  8
0
  6
CONTINUOUS
 10
5.707680
 20
3.472480
  0
VERTEX
  8
0
  6
CONTINUOUS
 10
5.730560
 20
3.467640
  0
VERTEX
  8
0
  6
CONTINUOUS
 10
5.753440
 20
3.458840
  0
VERTEX
  8
0
  6
CONTINUOUS
 10
5.776760
 20
3.445640
  0
VERTEX
  8
0
  6
CONTINUOUS
 10
5.811960
 20
3.416600
  0
VERTEX
  8
0
  6
CONTINUOUS
 10
5.835720
 20
3.391080
  0
VERTEX
  8
0
  6
CONTINUOUS
 10
5.871360
 20
3.343120
  0
VERTEX
  8
0
  6
CONTINUOUS
 10
5.956720
 20
3.215520
  0
VERTEX
  8
0
  6
CONTINUOUS
 10
5.956720
 20
2.969120
  0
VERTEX
  8
0
  6
CONTINUOUS
 10
2.505360
 20
2.969560
  0
SEQEND
  8
0
  0
TEXT
  8
0
 10
2.819080
 20
3.272280
 40
0.138252
  1
BA  1081
 41
1.000000
  7
SN0
 71
     0
 72
     5
 11
3.501443
 21
3.272280
  0
TEXT
  8
0
 10
2.709520
 20
3.080880
 40
0.138252
  1
3/4" x 3-5/8"
 41
1.000000
  7
SN0
 71
     0
 72
     5
 11
3.609973
 21
3.080880
  0
ENDSEC
  0
EOF
