  0
SECTION
  2
HEADER
  9
$ACADVER
  1
AC1006
  9
$EXTMIN
 10
2.286240
 20
0.619520
  9
$EXTMAX
 10
7.545120
 20
2.550240
  9
$LTSCALE
 40
0.044000
  9
$PDMODE
 70
    35
  9
$PDSIZE
 40
0.035200
  0
ENDSEC
  0
SECTION
  2
TABLES
  0
TABLE
  2
LTYPE
 70
     9
  0
LTYPE
  2
CONTINUOUS
 70
    64
  3
Solid line
 72
    65
 73
     0
 40
0.000000
  0
LTYPE
  2
DASHED
 70
    64
  3
__ __ __ __ __ __ __ __ __ __ __ __ __ __ __
 72
    65
 73
     2
 40
0.000330
 49
0.000220
 49
-0.000110
  0
LTYPE
  2
HIDDEN
 70
    64
  3
 _ _ _ _ _ _ _ _ _ _ _ _ _ _ _ _ _ _ _ _ _ _
 72
    65
 73
     2
 40
0.000165
 49
0.000110
 49
-0.000055
  0
LTYPE
  2
CENTER
 70
    64
  3
____ _ ____ _ ____ _ ____ _ ____ _ ____ _ ____
 72
    65
 73
     4
 40
0.000880
 49
0.000550
 49
-0.000110
 49
0.000110
 49
-0.000110
  0
LTYPE
  2
PHANTOM
 70
    64
  3
_____ _ _ _____ _ _ _____ _ _ _____ _ _ ____
 72
    65
 73
     6
 40
0.001100
 49
0.000550
 49
-0.000110
 49
0.000110
 49
-0.000110
 49
0.000110
 49
-0.000110
  0
LTYPE
  2
DOT
 70
    64
  3
...............................................
 72
    65
 73
     2
 40
0.000110
 49
0.000000
 49
-0.000110
  0
LTYPE
  2
DASHDOT
 70
    64
  3
__ . __ . __ . __ . __ . __ . __ . __ . __ . __
 72
    65
 73
     4
 40
0.000440
 49
0.000220
 49
-0.000110
 49
0.000000
 49
-0.000110
  0
LTYPE
  2
BORDER
 70
    64
  3
__ __ . __ __ . __ __ . __ __ . __ __ . __ __
 72
    65
 73
     6
 40
0.000770
 49
0.000220
 49
-0.000110
 49
0.000220
 49
-0.000110
 49
0.000000
 49
-0.000110
  0
LTYPE
  2
DIVIDE
 70
    64
  3
__ . . __ . . __ . . __ . . __ . . __ . . __
 72
    65
 73
     6
 40
0.000550
 49
0.000220
 49
-0.000110
 49
0.000000
 49
-0.000110
 49
0.000000
 49
-0.000110
  0
LTYPE
  2
DOTDOT
 70
    64
  3
 . .  . .  . .  . .  . .  . . 
 72
    65
 73
     5
 40
0.000242
 49
-0.000110
 49
0.000000
 49
-0.000110
 49
0.000000
 49
-0.000110
  0
ENDTAB
  0
TABLE
  2
STYLE
 70
     2
  0
STYLE
 70
     0
  2
SN0
 40
0.000000
 41
0.000440
 50
0.000000
 71
     0
 42
0.000000
  3
ROMAND
  0
STYLE
 70
    68
  2
SV0
 40
0.000000
 41
0.000440
 50
0.000000
 71
     0
 42
0.000000
  3
ROMAND
  0
ENDTAB
  0
TABLE
  2
LAYER
 70
     3
  0
LAYER
  2
FOREGROUND
 70
    64
 62
     7
  6
CONTINUOUS
  0
LAYER
  2
BACKGROUND
 70
    65
 62
    -7
  6
CONTINUOUS
  0
LAYER
  2
0
 70
    64
 62
     7
  6
CONTINUOUS
  0
ENDTAB
  0
ENDSEC
  0
SECTION
  2
ENTITIES
  0
POLYLINE
  8
FOREGROUND
  6
CONTINUOUS
 66
     1
 40
0.000000
 41
0.000000
  0
VERTEX
  8
FOREGROUND
  6
CONTINUOUS
 10
0.000000
 20
3.169760
  0
VERTEX
  8
FOREGROUND
  6
CONTINUOUS
 10
8.499920
 20
3.169760
  0
VERTEX
  8
FOREGROUND
  6
CONTINUOUS
 10
8.499920
 20
-7.830240
  0
VERTEX
  8
FOREGROUND
  6
CONTINUOUS
 10
0.000000
 20
-7.830240
  0
VERTEX
  8
FOREGROUND
  6
CONTINUOUS
 10
0.000000
 20
3.169760
  0
SEQEND
  8
0
  0
POLYLINE
  8
FOREGROUND
  6
CONTINUOUS
 66
     1
 40
0.000000
 41
0.000000
  0
VERTEX
  8
FOREGROUND
  6
CONTINUOUS
 10
0.000000
 20
3.169760
  0
VERTEX
  8
FOREGROUND
  6
CONTINUOUS
 10
8.499920
 20
3.169760
  0
VERTEX
  8
FOREGROUND
  6
CONTINUOUS
 10
8.499920
 20
-7.830240
  0
VERTEX
  8
FOREGROUND
  6
CONTINUOUS
 10
0.000000
 20
-7.830240
  0
VERTEX
  8
FOREGROUND
  6
CONTINUOUS
 10
0.000000
 20
3.169760
  0
SEQEND
  8
0
  0
SOLID
  8
0
 62
    15
 10
3.718000
 20
1.610840
 11
4.347200
 21
1.976040
 12
3.860120
 22
1.530320
 13
4.489320
 23
1.895520
  0
POLYLINE
  8
0
  6
CONTINUOUS
 66
     1
 40
0.000000
 41
0.000000
  0
VERTEX
  8
0
  6
CONTINUOUS
 10
3.718000
 20
1.610840
  0
VERTEX
  8
0
  6
CONTINUOUS
 10
4.347200
 20
1.976040
  0
VERTEX
  8
0
  6
CONTINUOUS
 10
4.489320
 20
1.895520
  0
VERTEX
  8
0
  6
CONTINUOUS
 10
3.860120
 20
1.530320
  0
VERTEX
  8
0
  6
CONTINUOUS
 10
3.718000
 20
1.610840
  0
SEQEND
  8
0
  0
SOLID
  8
0
 62
    15
 10
2.999040
 20
2.143240
 11
3.628680
 21
2.508440
 12
3.006520
 22
2.108920
 13
3.636160
 23
2.474120
  0
POLYLINE
  8
0
  6
CONTINUOUS
 66
     1
 40
0.000000
 41
0.000000
  0
VERTEX
  8
0
  6
CONTINUOUS
 10
2.999040
 20
2.143240
  0
VERTEX
  8
0
  6
CONTINUOUS
 10
3.628680
 20
2.508440
  0
VERTEX
  8
0
  6
CONTINUOUS
 10
3.636160
 20
2.474120
  0
VERTEX
  8
0
  6
CONTINUOUS
 10
3.006520
 20
2.108920
  0
VERTEX
  8
0
  6
CONTINUOUS
 10
2.999040
 20
2.143240
  0
SEQEND
  8
0
  0
SOLID
  8
0
 62
     7
 10
3.006520
 20
2.108920
 11
3.636160
 21
2.474120
 12
3.019280
 22
2.076800
 13
3.648480
 23
2.441560
  0
POLYLINE
  8
0
  6
CONTINUOUS
 66
     1
 40
0.000000
 41
0.000000
  0
VERTEX
  8
0
  6
CONTINUOUS
 10
3.006520
 20
2.108920
  0
VERTEX
  8
0
  6
CONTINUOUS
 10
3.636160
 20
2.474120
  0
VERTEX
  8
0
  6
CONTINUOUS
 10
3.648480
 20
2.441560
  0
VERTEX
  8
0
  6
CONTINUOUS
 10
3.019280
 20
2.076800
  0
VERTEX
  8
0
  6
CONTINUOUS
 10
3.006520
 20
2.108920
  0
SEQEND
  8
0
  0
SOLID
  8
0
 62
     7
 10
3.019280
 20
2.076800
 11
3.648480
 21
2.441560
 12
3.036880
 22
2.046000
 13
3.666080
 23
2.411200
  0
POLYLINE
  8
0
  6
CONTINUOUS
 66
     1
 40
0.000000
 41
0.000000
  0
VERTEX
  8
0
  6
CONTINUOUS
 10
3.019280
 20
2.076800
  0
VERTEX
  8
0
  6
CONTINUOUS
 10
3.648480
 20
2.441560
  0
VERTEX
  8
0
  6
CONTINUOUS
 10
3.666080
 20
2.411200
  0
VERTEX
  8
0
  6
CONTINUOUS
 10
3.036880
 20
2.046000
  0
VERTEX
  8
0
  6
CONTINUOUS
 10
3.019280
 20
2.076800
  0
SEQEND
  8
0
  0
SOLID
  8
0
 62
    15
 10
3.036880
 20
2.046000
 11
3.666080
 21
2.411200
 12
3.059320
 22
2.016960
 13
3.688960
 23
2.382160
  0
POLYLINE
  8
0
  6
CONTINUOUS
 66
     1
 40
0.000000
 41
0.000000
  0
VERTEX
  8
0
  6
CONTINUOUS
 10
3.036880
 20
2.046000
  0
VERTEX
  8
0
  6
CONTINUOUS
 10
3.666080
 20
2.411200
  0
VERTEX
  8
0
  6
CONTINUOUS
 10
3.688960
 20
2.382160
  0
VERTEX
  8
0
  6
CONTINUOUS
 10
3.059320
 20
2.016960
  0
VERTEX
  8
0
  6
CONTINUOUS
 10
3.036880
 20
2.046000
  0
SEQEND
  8
0
  0
SOLID
  8
0
 62
    15
 10
3.059320
 20
2.016960
 11
3.688960
 21
2.382160
 12
3.087040
 22
1.988800
 13
3.716680
 23
2.354000
  0
POLYLINE
  8
0
  6
CONTINUOUS
 66
     1
 40
0.000000
 41
0.000000
  0
VERTEX
  8
0
  6
CONTINUOUS
 10
3.059320
 20
2.016960
  0
VERTEX
  8
0
  6
CONTINUOUS
 10
3.688960
 20
2.382160
  0
VERTEX
  8
0
  6
CONTINUOUS
 10
3.716680
 20
2.354000
  0
VERTEX
  8
0
  6
CONTINUOUS
 10
3.087040
 20
1.988800
  0
VERTEX
  8
0
  6
CONTINUOUS
 10
3.059320
 20
2.016960
  0
SEQEND
  8
0
  0
SOLID
  8
0
 62
    15
 10
3.087040
 20
1.988800
 11
3.716680
 21
2.354000
 12
3.157440
 22
1.933360
 13
3.786640
 23
2.298560
  0
POLYLINE
  8
0
  6
CONTINUOUS
 66
     1
 40
0.000000
 41
0.000000
  0
VERTEX
  8
0
  6
CONTINUOUS
 10
3.087040
 20
1.988800
  0
VERTEX
  8
0
  6
CONTINUOUS
 10
3.716680
 20
2.354000
  0
VERTEX
  8
0
  6
CONTINUOUS
 10
3.786640
 20
2.298560
  0
VERTEX
  8
0
  6
CONTINUOUS
 10
3.157440
 20
1.933360
  0
VERTEX
  8
0
  6
CONTINUOUS
 10
3.087040
 20
1.988800
  0
SEQEND
  8
0
  0
SOLID
  8
0
 62
    15
 10
3.157440
 20
1.933360
 11
3.786640
 21
2.298560
 12
3.200120
 22
1.905200
 13
3.829760
 23
2.270400
  0
POLYLINE
  8
0
  6
CONTINUOUS
 66
     1
 40
0.000000
 41
0.000000
  0
VERTEX
  8
0
  6
CONTINUOUS
 10
3.157440
 20
1.933360
  0
VERTEX
  8
0
  6
CONTINUOUS
 10
3.786640
 20
2.298560
  0
VERTEX
  8
0
  6
CONTINUOUS
 10
3.829760
 20
2.270400
  0
VERTEX
  8
0
  6
CONTINUOUS
 10
3.200120
 20
1.905200
  0
VERTEX
  8
0
  6
CONTINUOUS
 10
3.157440
 20
1.933360
  0
SEQEND
  8
0
  0
SOLID
  8
0
 62
    15
 10
3.200120
 20
1.905200
 11
3.829760
 21
2.270400
 12
3.248080
 22
1.876160
 13
3.877280
 23
2.241360
  0
POLYLINE
  8
0
  6
CONTINUOUS
 66
     1
 40
0.000000
 41
0.000000
  0
VERTEX
  8
0
  6
CONTINUOUS
 10
3.200120
 20
1.905200
  0
VERTEX
  8
0
  6
CONTINUOUS
 10
3.829760
 20
2.270400
  0
VERTEX
  8
0
  6
CONTINUOUS
 10
3.877280
 20
2.241360
  0
VERTEX
  8
0
  6
CONTINUOUS
 10
3.248080
 20
1.876160
  0
VERTEX
  8
0
  6
CONTINUOUS
 10
3.200120
 20
1.905200
  0
SEQEND
  8
0
  0
SOLID
  8
0
 62
    15
 10
3.248080
 20
1.876160
 11
3.877280
 21
2.241360
 12
3.300880
 22
1.845360
 13
3.930080
 23
2.210560
  0
POLYLINE
  8
0
  6
CONTINUOUS
 66
     1
 40
0.000000
 41
0.000000
  0
VERTEX
  8
0
  6
CONTINUOUS
 10
3.248080
 20
1.876160
  0
VERTEX
  8
0
  6
CONTINUOUS
 10
3.877280
 20
2.241360
  0
VERTEX
  8
0
  6
CONTINUOUS
 10
3.930080
 20
2.210560
  0
VERTEX
  8
0
  6
CONTINUOUS
 10
3.300880
 20
1.845360
  0
VERTEX
  8
0
  6
CONTINUOUS
 10
3.248080
 20
1.876160
  0
SEQEND
  8
0
  0
SOLID
  8
0
 62
    15
 10
3.300880
 20
1.845360
 11
3.930080
 21
2.210560
 12
3.358520
 22
1.813240
 13
3.987720
 23
2.178440
  0
POLYLINE
  8
0
  6
CONTINUOUS
 66
     1
 40
0.000000
 41
0.000000
  0
VERTEX
  8
0
  6
CONTINUOUS
 10
3.300880
 20
1.845360
  0
VERTEX
  8
0
  6
CONTINUOUS
 10
3.930080
 20
2.210560
  0
VERTEX
  8
0
  6
CONTINUOUS
 10
3.987720
 20
2.178440
  0
VERTEX
  8
0
  6
CONTINUOUS
 10
3.358520
 20
1.813240
  0
VERTEX
  8
0
  6
CONTINUOUS
 10
3.300880
 20
1.845360
  0
SEQEND
  8
0
  0
SOLID
  8
0
 62
    15
 10
3.358520
 20
1.813240
 11
3.987720
 21
2.178440
 12
3.489200
 22
1.741080
 13
4.118400
 23
2.105840
  0
POLYLINE
  8
0
  6
CONTINUOUS
 66
     1
 40
0.000000
 41
0.000000
  0
VERTEX
  8
0
  6
CONTINUOUS
 10
3.358520
 20
1.813240
  0
VERTEX
  8
0
  6
CONTINUOUS
 10
3.987720
 20
2.178440
  0
VERTEX
  8
0
  6
CONTINUOUS
 10
4.118400
 20
2.105840
  0
VERTEX
  8
0
  6
CONTINUOUS
 10
3.489200
 20
1.741080
  0
VERTEX
  8
0
  6
CONTINUOUS
 10
3.358520
 20
1.813240
  0
SEQEND
  8
0
  0
SOLID
  8
0
 62
    15
 10
3.489200
 20
1.741080
 11
4.118400
 21
2.105840
 12
3.562240
 22
1.700160
 13
4.191440
 23
2.065360
  0
POLYLINE
  8
0
  6
CONTINUOUS
 66
     1
 40
0.000000
 41
0.000000
  0
VERTEX
  8
0
  6
CONTINUOUS
 10
3.489200
 20
1.741080
  0
VERTEX
  8
0
  6
CONTINUOUS
 10
4.118400
 20
2.105840
  0
VERTEX
  8
0
  6
CONTINUOUS
 10
4.191440
 20
2.065360
  0
VERTEX
  8
0
  6
CONTINUOUS
 10
3.562240
 20
1.700160
  0
VERTEX
  8
0
  6
CONTINUOUS
 10
3.489200
 20
1.741080
  0
SEQEND
  8
0
  0
SOLID
  8
0
 62
    15
 10
3.562240
 20
1.700160
 11
4.191440
 21
2.065360
 12
3.640120
 22
1.655720
 13
4.269320
 23
2.020920
  0
POLYLINE
  8
0
  6
CONTINUOUS
 66
     1
 40
0.000000
 41
0.000000
  0
VERTEX
  8
0
  6
CONTINUOUS
 10
3.562240
 20
1.700160
  0
VERTEX
  8
0
  6
CONTINUOUS
 10
4.191440
 20
2.065360
  0
VERTEX
  8
0
  6
CONTINUOUS
 10
4.269320
 20
2.020920
  0
VERTEX
  8
0
  6
CONTINUOUS
 10
3.640120
 20
1.655720
  0
VERTEX
  8
0
  6
CONTINUOUS
 10
3.562240
 20
1.700160
  0
SEQEND
  8
0
  0
SOLID
  8
0
 62
    15
 10
3.640120
 20
1.655720
 11
4.269320
 21
2.020920
 12
3.718000
 22
1.610840
 13
4.347200
 23
1.976040
  0
POLYLINE
  8
0
  6
CONTINUOUS
 66
     1
 40
0.000000
 41
0.000000
  0
VERTEX
  8
0
  6
CONTINUOUS
 10
3.640120
 20
1.655720
  0
VERTEX
  8
0
  6
CONTINUOUS
 10
4.269320
 20
2.020920
  0
VERTEX
  8
0
  6
CONTINUOUS
 10
4.347200
 20
1.976040
  0
VERTEX
  8
0
  6
CONTINUOUS
 10
3.718000
 20
1.610840
  0
VERTEX
  8
0
  6
CONTINUOUS
 10
3.640120
 20
1.655720
  0
SEQEND
  8
0
  0
SOLID
  8
0
 62
    15
 10
2.996840
 20
2.180640
 11
3.626040
 21
2.545840
 12
2.999040
 22
2.143240
 13
3.628680
 23
2.508440
  0
POLYLINE
  8
0
  6
CONTINUOUS
 66
     1
 40
0.000000
 41
0.000000
  0
VERTEX
  8
0
  6
CONTINUOUS
 10
2.996840
 20
2.180640
  0
VERTEX
  8
0
  6
CONTINUOUS
 10
3.626040
 20
2.545840
  0
VERTEX
  8
0
  6
CONTINUOUS
 10
3.628680
 20
2.508440
  0
VERTEX
  8
0
  6
CONTINUOUS
 10
2.999040
 20
2.143240
  0
VERTEX
  8
0
  6
CONTINUOUS
 10
2.996840
 20
2.180640
  0
SEQEND
  8
0
  0
SOLID
  8
0
 62
    15
 10
3.860120
 20
1.530320
 11
4.489320
 21
1.895520
 12
3.923480
 22
1.493800
 13
4.553120
 23
1.859000
  0
POLYLINE
  8
0
  6
CONTINUOUS
 66
     1
 40
0.000000
 41
0.000000
  0
VERTEX
  8
0
  6
CONTINUOUS
 10
3.860120
 20
1.530320
  0
VERTEX
  8
0
  6
CONTINUOUS
 10
4.489320
 20
1.895520
  0
VERTEX
  8
0
  6
CONTINUOUS
 10
4.553120
 20
1.859000
  0
VERTEX
  8
0
  6
CONTINUOUS
 10
3.923480
 20
1.493800
  0
VERTEX
  8
0
  6
CONTINUOUS
 10
3.860120
 20
1.530320
  0
SEQEND
  8
0
  0
SOLID
  8
0
 62
    15
 10
3.923480
 20
1.493800
 11
4.553120
 21
1.859000
 12
3.982440
 22
1.459040
 13
4.611640
 23
1.824240
  0
POLYLINE
  8
0
  6
CONTINUOUS
 66
     1
 40
0.000000
 41
0.000000
  0
VERTEX
  8
0
  6
CONTINUOUS
 10
3.923480
 20
1.493800
  0
VERTEX
  8
0
  6
CONTINUOUS
 10
4.553120
 20
1.859000
  0
VERTEX
  8
0
  6
CONTINUOUS
 10
4.611640
 20
1.824240
  0
VERTEX
  8
0
  6
CONTINUOUS
 10
3.982440
 20
1.459040
  0
VERTEX
  8
0
  6
CONTINUOUS
 10
3.923480
 20
1.493800
  0
SEQEND
  8
0
  0
SOLID
  8
0
 62
    15
 10
3.982440
 20
1.459040
 11
4.611640
 21
1.824240
 12
4.036120
 22
1.426040
 13
4.665760
 23
1.791240
  0
POLYLINE
  8
0
  6
CONTINUOUS
 66
     1
 40
0.000000
 41
0.000000
  0
VERTEX
  8
0
  6
CONTINUOUS
 10
3.982440
 20
1.459040
  0
VERTEX
  8
0
  6
CONTINUOUS
 10
4.611640
 20
1.824240
  0
VERTEX
  8
0
  6
CONTINUOUS
 10
4.665760
 20
1.791240
  0
VERTEX
  8
0
  6
CONTINUOUS
 10
4.036120
 20
1.426040
  0
VERTEX
  8
0
  6
CONTINUOUS
 10
3.982440
 20
1.459040
  0
SEQEND
  8
0
  0
SOLID
  8
0
 62
    15
 10
4.036120
 20
1.426040
 11
4.665760
 21
1.791240
 12
4.084960
 22
1.394360
 13
4.714600
 23
1.759120
  0
POLYLINE
  8
0
  6
CONTINUOUS
 66
     1
 40
0.000000
 41
0.000000
  0
VERTEX
  8
0
  6
CONTINUOUS
 10
4.036120
 20
1.426040
  0
VERTEX
  8
0
  6
CONTINUOUS
 10
4.665760
 20
1.791240
  0
VERTEX
  8
0
  6
CONTINUOUS
 10
4.714600
 20
1.759120
  0
VERTEX
  8
0
  6
CONTINUOUS
 10
4.084960
 20
1.394360
  0
VERTEX
  8
0
  6
CONTINUOUS
 10
4.036120
 20
1.426040
  0
SEQEND
  8
0
  0
SOLID
  8
0
 62
    15
 10
4.084960
 20
1.394360
 11
4.714600
 21
1.759120
 12
4.128960
 22
1.363120
 13
4.758160
 23
1.728320
  0
POLYLINE
  8
0
  6
CONTINUOUS
 66
     1
 40
0.000000
 41
0.000000
  0
VERTEX
  8
0
  6
CONTINUOUS
 10
4.084960
 20
1.394360
  0
VERTEX
  8
0
  6
CONTINUOUS
 10
4.714600
 20
1.759120
  0
VERTEX
  8
0
  6
CONTINUOUS
 10
4.758160
 20
1.728320
  0
VERTEX
  8
0
  6
CONTINUOUS
 10
4.128960
 20
1.363120
  0
VERTEX
  8
0
  6
CONTINUOUS
 10
4.084960
 20
1.394360
  0
SEQEND
  8
0
  0
SOLID
  8
0
 62
    15
 10
4.128960
 20
1.363120
 11
4.758160
 21
1.728320
 12
4.201120
 22
1.302400
 13
4.830320
 23
1.667600
  0
POLYLINE
  8
0
  6
CONTINUOUS
 66
     1
 40
0.000000
 41
0.000000
  0
VERTEX
  8
0
  6
CONTINUOUS
 10
4.128960
 20
1.363120
  0
VERTEX
  8
0
  6
CONTINUOUS
 10
4.758160
 20
1.728320
  0
VERTEX
  8
0
  6
CONTINUOUS
 10
4.830320
 20
1.667600
  0
VERTEX
  8
0
  6
CONTINUOUS
 10
4.201120
 20
1.302400
  0
VERTEX
  8
0
  6
CONTINUOUS
 10
4.128960
 20
1.363120
  0
SEQEND
  8
0
  0
SOLID
  8
0
 62
    15
 10
4.201120
 20
1.302400
 11
4.830320
 21
1.667600
 12
4.229280
 22
1.271600
 13
4.858920
 23
1.636800
  0
POLYLINE
  8
0
  6
CONTINUOUS
 66
     1
 40
0.000000
 41
0.000000
  0
VERTEX
  8
0
  6
CONTINUOUS
 10
4.201120
 20
1.302400
  0
VERTEX
  8
0
  6
CONTINUOUS
 10
4.830320
 20
1.667600
  0
VERTEX
  8
0
  6
CONTINUOUS
 10
4.858920
 20
1.636800
  0
VERTEX
  8
0
  6
CONTINUOUS
 10
4.229280
 20
1.271600
  0
VERTEX
  8
0
  6
CONTINUOUS
 10
4.201120
 20
1.302400
  0
SEQEND
  8
0
  0
SOLID
  8
0
 62
    15
 10
4.229280
 20
1.271600
 11
4.858920
 21
1.636800
 12
4.252600
 22
1.240360
 13
4.881800
 23
1.605560
  0
POLYLINE
  8
0
  6
CONTINUOUS
 66
     1
 40
0.000000
 41
0.000000
  0
VERTEX
  8
0
  6
CONTINUOUS
 10
4.229280
 20
1.271600
  0
VERTEX
  8
0
  6
CONTINUOUS
 10
4.858920
 20
1.636800
  0
VERTEX
  8
0
  6
CONTINUOUS
 10
4.881800
 20
1.605560
  0
VERTEX
  8
0
  6
CONTINUOUS
 10
4.252600
 20
1.240360
  0
VERTEX
  8
0
  6
CONTINUOUS
 10
4.229280
 20
1.271600
  0
SEQEND
  8
0
  0
SOLID
  8
0
 62
    15
 10
4.252600
 20
1.240360
 11
4.881800
 21
1.605560
 12
4.270200
 22
1.207800
 13
4.899400
 23
1.573000
  0
POLYLINE
  8
0
  6
CONTINUOUS
 66
     1
 40
0.000000
 41
0.000000
  0
VERTEX
  8
0
  6
CONTINUOUS
 10
4.252600
 20
1.240360
  0
VERTEX
  8
0
  6
CONTINUOUS
 10
4.881800
 20
1.605560
  0
VERTEX
  8
0
  6
CONTINUOUS
 10
4.899400
 20
1.573000
  0
VERTEX
  8
0
  6
CONTINUOUS
 10
4.270200
 20
1.207800
  0
VERTEX
  8
0
  6
CONTINUOUS
 10
4.252600
 20
1.240360
  0
SEQEND
  8
0
  0
SOLID
  8
0
 62
    15
 10
4.270200
 20
1.207800
 11
4.899400
 21
1.573000
 12
4.282520
 22
1.174360
 13
4.911720
 23
1.539560
  0
POLYLINE
  8
0
  6
CONTINUOUS
 66
     1
 40
0.000000
 41
0.000000
  0
VERTEX
  8
0
  6
CONTINUOUS
 10
4.270200
 20
1.207800
  0
VERTEX
  8
0
  6
CONTINUOUS
 10
4.899400
 20
1.573000
  0
VERTEX
  8
0
  6
CONTINUOUS
 10
4.911720
 20
1.539560
  0
VERTEX
  8
0
  6
CONTINUOUS
 10
4.282520
 20
1.174360
  0
VERTEX
  8
0
  6
CONTINUOUS
 10
4.270200
 20
1.207800
  0
SEQEND
  8
0
  0
SOLID
  8
0
 62
    15
 10
4.282520
 20
1.174360
 11
4.911720
 21
1.539560
 12
4.289120
 22
1.138720
 13
4.918760
 23
1.503920
  0
POLYLINE
  8
0
  6
CONTINUOUS
 66
     1
 40
0.000000
 41
0.000000
  0
VERTEX
  8
0
  6
CONTINUOUS
 10
4.282520
 20
1.174360
  0
VERTEX
  8
0
  6
CONTINUOUS
 10
4.911720
 20
1.539560
  0
VERTEX
  8
0
  6
CONTINUOUS
 10
4.918760
 20
1.503920
  0
VERTEX
  8
0
  6
CONTINUOUS
 10
4.289120
 20
1.138720
  0
VERTEX
  8
0
  6
CONTINUOUS
 10
4.282520
 20
1.174360
  0
SEQEND
  8
0
  0
SOLID
  8
0
 62
    15
 10
4.289120
 20
1.138720
 11
4.918760
 21
1.503920
 12
4.290880
 22
1.101320
 13
4.920080
 23
1.466080
  0
POLYLINE
  8
0
  6
CONTINUOUS
 66
     1
 40
0.000000
 41
0.000000
  0
VERTEX
  8
0
  6
CONTINUOUS
 10
4.289120
 20
1.138720
  0
VERTEX
  8
0
  6
CONTINUOUS
 10
4.918760
 20
1.503920
  0
VERTEX
  8
0
  6
CONTINUOUS
 10
4.920080
 20
1.466080
  0
VERTEX
  8
0
  6
CONTINUOUS
 10
4.290880
 20
1.101320
  0
VERTEX
  8
0
  6
CONTINUOUS
 10
4.289120
 20
1.138720
  0
SEQEND
  8
0
  0
SOLID
  8
0
 62
    15
 10
2.286680
 20
2.184160
 11
2.916320
 21
2.549360
 12
2.996840
 22
2.184160
 13
3.626040
 23
2.549360
  0
POLYLINE
  8
0
  6
CONTINUOUS
 66
     1
 40
0.000000
 41
0.000000
  0
VERTEX
  8
0
  6
CONTINUOUS
 10
2.286680
 20
2.184160
  0
VERTEX
  8
0
  6
CONTINUOUS
 10
2.916320
 20
2.549360
  0
VERTEX
  8
0
  6
CONTINUOUS
 10
3.626040
 20
2.549360
  0
VERTEX
  8
0
  6
CONTINUOUS
 10
2.996840
 20
2.184160
  0
VERTEX
  8
0
  6
CONTINUOUS
 10
2.286680
 20
2.184160
  0
SEQEND
  8
0
  0
SOLID
  8
0
 62
    15
 10
2.996840
 20
2.184160
 11
3.626040
 21
2.549360
 12
2.996840
 22
2.180640
 13
3.626040
 23
2.545840
  0
POLYLINE
  8
0
  6
CONTINUOUS
 66
     1
 40
0.000000
 41
0.000000
  0
VERTEX
  8
0
  6
CONTINUOUS
 10
2.996840
 20
2.184160
  0
VERTEX
  8
0
  6
CONTINUOUS
 10
3.626040
 20
2.549360
  0
VERTEX
  8
0
  6
CONTINUOUS
 10
3.626040
 20
2.545840
  0
VERTEX
  8
0
  6
CONTINUOUS
 10
2.996840
 20
2.180640
  0
VERTEX
  8
0
  6
CONTINUOUS
 10
2.996840
 20
2.184160
  0
SEQEND
  8
0
  0
POLYLINE
  8
0
  6
CONTINUOUS
 66
     1
 40
0.000000
 41
0.000000
  0
VERTEX
  8
0
  6
CONTINUOUS
 10
2.996840
 20
2.180640
  0
VERTEX
  8
0
  6
CONTINUOUS
 10
2.999040
 20
2.143240
  0
VERTEX
  8
0
  6
CONTINUOUS
 10
3.006520
 20
2.108920
  0
VERTEX
  8
0
  6
CONTINUOUS
 10
3.019280
 20
2.076800
  0
VERTEX
  8
0
  6
CONTINUOUS
 10
3.036880
 20
2.046000
  0
VERTEX
  8
0
  6
CONTINUOUS
 10
3.059320
 20
2.016960
  0
VERTEX
  8
0
  6
CONTINUOUS
 10
3.087040
 20
1.988800
  0
VERTEX
  8
0
  6
CONTINUOUS
 10
3.157440
 20
1.933360
  0
VERTEX
  8
0
  6
CONTINUOUS
 10
3.200120
 20
1.905200
  0
VERTEX
  8
0
  6
CONTINUOUS
 10
3.248080
 20
1.876160
  0
VERTEX
  8
0
  6
CONTINUOUS
 10
3.300880
 20
1.845360
  0
VERTEX
  8
0
  6
CONTINUOUS
 10
3.358520
 20
1.813240
  0
VERTEX
  8
0
  6
CONTINUOUS
 10
3.489200
 20
1.741080
  0
VERTEX
  8
0
  6
CONTINUOUS
 10
3.562240
 20
1.700160
  0
VERTEX
  8
0
  6
CONTINUOUS
 10
3.640120
 20
1.655720
  0
VERTEX
  8
0
  6
CONTINUOUS
 10
3.718000
 20
1.610840
  0
VERTEX
  8
0
  6
CONTINUOUS
 10
3.860120
 20
1.530320
  0
VERTEX
  8
0
  6
CONTINUOUS
 10
3.923480
 20
1.493800
  0
VERTEX
  8
0
  6
CONTINUOUS
 10
3.982440
 20
1.459040
  0
VERTEX
  8
0
  6
CONTINUOUS
 10
4.036120
 20
1.426040
  0
VERTEX
  8
0
  6
CONTINUOUS
 10
4.084960
 20
1.394360
  0
VERTEX
  8
0
  6
CONTINUOUS
 10
4.128960
 20
1.363120
  0
VERTEX
  8
0
  6
CONTINUOUS
 10
4.201120
 20
1.302400
  0
VERTEX
  8
0
  6
CONTINUOUS
 10
4.229280
 20
1.271600
  0
VERTEX
  8
0
  6
CONTINUOUS
 10
4.252600
 20
1.240360
  0
VERTEX
  8
0
  6
CONTINUOUS
 10
4.270200
 20
1.207800
  0
VERTEX
  8
0
  6
CONTINUOUS
 10
4.282520
 20
1.174360
  0
VERTEX
  8
0
  6
CONTINUOUS
 10
4.289120
 20
1.138720
  0
VERTEX
  8
0
  6
CONTINUOUS
 10
4.290880
 20
1.101320
  0
VERTEX
  8
0
  6
CONTINUOUS
 10
2.286680
 20
1.101320
  0
VERTEX
  8
0
  6
CONTINUOUS
 10
2.286680
 20
2.184160
  0
VERTEX
  8
0
  6
CONTINUOUS
 10
2.996840
 20
2.184160
  0
VERTEX
  8
0
  6
CONTINUOUS
 10
2.996840
 20
2.180640
  0
SEQEND
  8
0
  0
TEXT
  8
0
 10
3.260840
 20
0.855360
 40
0.138116
  1
BA  1080
 41
1.000000
  7
SN0
 71
     0
 72
     5
 11
3.943706
 21
0.855360
  0
TEXT
  8
0
 10
3.220360
 20
0.663960
 40
0.138116
  1
1-1/8" x 2"
 41
1.000000
  7
SN0
 71
     0
 72
     5
 11
3.983949
 21
0.663960
  0
POLYLINE
  8
0
  6
CONTINUOUS
 66
     1
 40
0.014080
 41
0.014080
  0
VERTEX
  8
0
  6
CONTINUOUS
 10
6.244040
 20
2.522960
  0
VERTEX
  8
0
  6
CONTINUOUS
 10
5.534320
 20
2.522960
  0
VERTEX
  8
0
  6
CONTINUOUS
 10
5.534320
 20
1.439680
  0
VERTEX
  8
0
  6
CONTINUOUS
 10
7.538080
 20
1.439680
  0
VERTEX
  8
0
  6
CONTINUOUS
 10
7.536760
 20
1.477520
  0
VERTEX
  8
0
  6
CONTINUOUS
 10
7.534120
 20
1.495560
  0
VERTEX
  8
0
  6
CONTINUOUS
 10
7.524440
 20
1.529880
  0
VERTEX
  8
0
  6
CONTINUOUS
 10
7.509480
 20
1.562880
  0
VERTEX
  8
0
  6
CONTINUOUS
 10
7.489240
 20
1.594560
  0
VERTEX
  8
0
  6
CONTINUOUS
 10
7.463280
 20
1.625800
  0
VERTEX
  8
0
  6
CONTINUOUS
 10
7.432480
 20
1.656160
  0
VERTEX
  8
0
  6
CONTINUOUS
 10
7.376600
 20
1.701920
  0
VERTEX
  8
0
  6
CONTINUOUS
 10
7.283760
 20
1.764840
  0
VERTEX
  8
0
  6
CONTINUOUS
 10
7.139880
 20
1.850640
  0
VERTEX
  8
0
  6
CONTINUOUS
 10
6.736400
 20
2.079880
  0
VERTEX
  8
0
  6
CONTINUOUS
 10
6.520800
 20
2.199560
  0
VERTEX
  8
0
  6
CONTINUOUS
 10
6.425320
 20
2.258080
  0
VERTEX
  8
0
  6
CONTINUOUS
 10
6.367240
 20
2.299880
  0
VERTEX
  8
0
  6
CONTINUOUS
 10
6.334680
 20
2.327600
  0
VERTEX
  8
0
  6
CONTINUOUS
 10
6.306960
 20
2.355760
  0
VERTEX
  8
0
  6
CONTINUOUS
 10
6.284080
 20
2.384800
  0
VERTEX
  8
0
  6
CONTINUOUS
 10
6.266480
 20
2.415160
  0
VERTEX
  8
0
  6
CONTINUOUS
 10
6.254160
 20
2.447720
  0
VERTEX
  8
0
  6
CONTINUOUS
 10
6.246680
 20
2.482040
  0
VERTEX
  8
0
  6
CONTINUOUS
 10
6.244480
 20
2.500520
  0
VERTEX
  8
0
  6
CONTINUOUS
 10
6.244040
 20
2.519440
  0
SEQEND
  8
0
  0
TEXT
  8
0
 10
5.715160
 20
1.743720
 40
0.138116
  1
BA  1080
 41
1.000000
  7
SN0
 71
     0
 72
     5
 11
6.398026
 21
1.743720
  0
TEXT
  8
0
 10
5.674680
 20
1.551880
 40
0.138116
  1
1-1/8" x 2"
 41
1.000000
  7
SN0
 71
     0
 72
     5
 11
6.438269
 21
1.551880
  0
ENDSEC
  0
EOF
