  0
SECTION
  2
HEADER
  9
$ACADVER
  1
AC1006
  9
$EXTMIN
 10
4.612080
 20
0.620400
  9
$EXTMAX
 10
7.458880
 20
2.339480
  9
$LTSCALE
 40
0.044000
  9
$PDMODE
 70
    35
  9
$PDSIZE
 40
0.035200
  0
ENDSEC
  0
SECTION
  2
TABLES
  0
TABLE
  2
LTYPE
 70
     9
  0
LTYPE
  2
CONTINUOUS
 70
    64
  3
Solid line
 72
    65
 73
     0
 40
0.000000
  0
LTYPE
  2
DASHED
 70
    64
  3
__ __ __ __ __ __ __ __ __ __ __ __ __ __ __
 72
    65
 73
     2
 40
0.000330
 49
0.000220
 49
-0.000110
  0
LTYPE
  2
HIDDEN
 70
    64
  3
 _ _ _ _ _ _ _ _ _ _ _ _ _ _ _ _ _ _ _ _ _ _
 72
    65
 73
     2
 40
0.000165
 49
0.000110
 49
-0.000055
  0
LTYPE
  2
CENTER
 70
    64
  3
____ _ ____ _ ____ _ ____ _ ____ _ ____ _ ____
 72
    65
 73
     4
 40
0.000880
 49
0.000550
 49
-0.000110
 49
0.000110
 49
-0.000110
  0
LTYPE
  2
PHANTOM
 70
    64
  3
_____ _ _ _____ _ _ _____ _ _ _____ _ _ ____
 72
    65
 73
     6
 40
0.001100
 49
0.000550
 49
-0.000110
 49
0.000110
 49
-0.000110
 49
0.000110
 49
-0.000110
  0
LTYPE
  2
DOT
 70
    64
  3
...............................................
 72
    65
 73
     2
 40
0.000110
 49
0.000000
 49
-0.000110
  0
LTYPE
  2
DASHDOT
 70
    64
  3
__ . __ . __ . __ . __ . __ . __ . __ . __ . __
 72
    65
 73
     4
 40
0.000440
 49
0.000220
 49
-0.000110
 49
0.000000
 49
-0.000110
  0
LTYPE
  2
BORDER
 70
    64
  3
__ __ . __ __ . __ __ . __ __ . __ __ . __ __
 72
    65
 73
     6
 40
0.000770
 49
0.000220
 49
-0.000110
 49
0.000220
 49
-0.000110
 49
0.000000
 49
-0.000110
  0
LTYPE
  2
DIVIDE
 70
    64
  3
__ . . __ . . __ . . __ . . __ . . __ . . __
 72
    65
 73
     6
 40
0.000550
 49
0.000220
 49
-0.000110
 49
0.000000
 49
-0.000110
 49
0.000000
 49
-0.000110
  0
LTYPE
  2
DOTDOT
 70
    64
  3
 . .  . .  . .  . .  . .  . . 
 72
    65
 73
     5
 40
0.000242
 49
-0.000110
 49
0.000000
 49
-0.000110
 49
0.000000
 49
-0.000110
  0
ENDTAB
  0
TABLE
  2
STYLE
 70
     2
  0
STYLE
 70
     0
  2
SN0
 40
0.000000
 41
0.000440
 50
0.000000
 71
     0
 42
0.000000
  3
ROMAND
  0
STYLE
 70
    68
  2
SV0
 40
0.000000
 41
0.000440
 50
0.000000
 71
     0
 42
0.000000
  3
ROMAND
  0
ENDTAB
  0
TABLE
  2
LAYER
 70
     3
  0
LAYER
  2
FOREGROUND
 70
    64
 62
     7
  6
CONTINUOUS
  0
LAYER
  2
BACKGROUND
 70
    65
 62
    -7
  6
CONTINUOUS
  0
LAYER
  2
0
 70
    64
 62
     7
  6
CONTINUOUS
  0
ENDTAB
  0
ENDSEC
  0
SECTION
  2
ENTITIES
  0
POLYLINE
  8
FOREGROUND
  6
CONTINUOUS
 66
     1
 40
0.000000
 41
0.000000
  0
VERTEX
  8
FOREGROUND
  6
CONTINUOUS
 10
0.000000
 20
2.959880
  0
VERTEX
  8
FOREGROUND
  6
CONTINUOUS
 10
8.499920
 20
2.959880
  0
VERTEX
  8
FOREGROUND
  6
CONTINUOUS
 10
8.499920
 20
-8.040120
  0
VERTEX
  8
FOREGROUND
  6
CONTINUOUS
 10
0.000000
 20
-8.040120
  0
VERTEX
  8
FOREGROUND
  6
CONTINUOUS
 10
0.000000
 20
2.959880
  0
SEQEND
  8
0
  0
POLYLINE
  8
FOREGROUND
  6
CONTINUOUS
 66
     1
 40
0.000000
 41
0.000000
  0
VERTEX
  8
FOREGROUND
  6
CONTINUOUS
 10
0.000000
 20
2.959880
  0
VERTEX
  8
FOREGROUND
  6
CONTINUOUS
 10
8.499920
 20
2.959880
  0
VERTEX
  8
FOREGROUND
  6
CONTINUOUS
 10
8.499920
 20
-8.040120
  0
VERTEX
  8
FOREGROUND
  6
CONTINUOUS
 10
0.000000
 20
-8.040120
  0
VERTEX
  8
FOREGROUND
  6
CONTINUOUS
 10
0.000000
 20
2.959880
  0
SEQEND
  8
0
  0
SOLID
  8
0
 62
    15
 10
5.504840
 20
1.962840
 11
6.153400
 21
2.338600
 12
5.602080
 22
1.866040
 13
6.250640
 23
2.241360
  0
POLYLINE
  8
0
  6
CONTINUOUS
 66
     1
 40
0.000000
 41
0.000000
  0
VERTEX
  8
0
  6
CONTINUOUS
 10
5.504840
 20
1.962840
  0
VERTEX
  8
0
  6
CONTINUOUS
 10
6.153400
 20
2.338600
  0
VERTEX
  8
0
  6
CONTINUOUS
 10
6.250640
 20
2.241360
  0
VERTEX
  8
0
  6
CONTINUOUS
 10
5.602080
 20
1.866040
  0
VERTEX
  8
0
  6
CONTINUOUS
 10
5.504840
 20
1.962840
  0
SEQEND
  8
0
  0
SOLID
  8
0
 62
    15
 10
5.289680
 20
1.441880
 11
5.938240
 21
1.817640
 12
5.289680
 22
1.141800
 13
5.938240
 23
1.517120
  0
POLYLINE
  8
0
  6
CONTINUOUS
 66
     1
 40
0.000000
 41
0.000000
  0
VERTEX
  8
0
  6
CONTINUOUS
 10
5.289680
 20
1.441880
  0
VERTEX
  8
0
  6
CONTINUOUS
 10
5.938240
 20
1.817640
  0
VERTEX
  8
0
  6
CONTINUOUS
 10
5.938240
 20
1.517120
  0
VERTEX
  8
0
  6
CONTINUOUS
 10
5.289680
 20
1.141800
  0
VERTEX
  8
0
  6
CONTINUOUS
 10
5.289680
 20
1.441880
  0
SEQEND
  8
0
  0
SOLID
  8
0
 62
    15
 10
5.602080
 20
1.866040
 11
6.250640
 21
2.241360
 12
5.602080
 22
1.441880
 13
6.250640
 23
1.817640
  0
POLYLINE
  8
0
  6
CONTINUOUS
 66
     1
 40
0.000000
 41
0.000000
  0
VERTEX
  8
0
  6
CONTINUOUS
 10
5.602080
 20
1.866040
  0
VERTEX
  8
0
  6
CONTINUOUS
 10
6.250640
 20
2.241360
  0
VERTEX
  8
0
  6
CONTINUOUS
 10
6.250640
 20
1.817640
  0
VERTEX
  8
0
  6
CONTINUOUS
 10
5.602080
 20
1.441880
  0
VERTEX
  8
0
  6
CONTINUOUS
 10
5.602080
 20
1.866040
  0
SEQEND
  8
0
  0
SOLID
  8
0
 62
    15
 10
4.612520
 20
1.962840
 11
5.261080
 21
2.338600
 12
5.504840
 22
1.962840
 13
6.153400
 23
2.338600
  0
POLYLINE
  8
0
  6
CONTINUOUS
 66
     1
 40
0.000000
 41
0.000000
  0
VERTEX
  8
0
  6
CONTINUOUS
 10
4.612520
 20
1.962840
  0
VERTEX
  8
0
  6
CONTINUOUS
 10
5.261080
 20
2.338600
  0
VERTEX
  8
0
  6
CONTINUOUS
 10
6.153400
 20
2.338600
  0
VERTEX
  8
0
  6
CONTINUOUS
 10
5.504840
 20
1.962840
  0
VERTEX
  8
0
  6
CONTINUOUS
 10
4.612520
 20
1.962840
  0
SEQEND
  8
0
  0
POLYLINE
  8
0
  6
CONTINUOUS
 66
     1
 40
0.000000
 41
0.000000
  0
VERTEX
  8
0
  6
CONTINUOUS
 10
4.612520
 20
1.962840
  0
VERTEX
  8
0
  6
CONTINUOUS
 10
5.504840
 20
1.962840
  0
VERTEX
  8
0
  6
CONTINUOUS
 10
5.602080
 20
1.866040
  0
VERTEX
  8
0
  6
CONTINUOUS
 10
5.602080
 20
1.441880
  0
VERTEX
  8
0
  6
CONTINUOUS
 10
5.289680
 20
1.441880
  0
VERTEX
  8
0
  6
CONTINUOUS
 10
5.289680
 20
1.141800
  0
VERTEX
  8
0
  6
CONTINUOUS
 10
4.612520
 20
1.141800
  0
VERTEX
  8
0
  6
CONTINUOUS
 10
4.612520
 20
1.962840
  0
SEQEND
  8
0
  0
TEXT
  8
0
 10
5.089480
 20
0.855360
 40
0.138051
  1
BA  1078
 41
1.000000
  7
SN0
 71
     0
 72
     5
 11
5.771146
 21
0.855360
  0
TEXT
  8
0
 10
5.030520
 20
0.663960
 40
0.138051
  1
13/16" x 1"
 41
1.000000
  7
SN0
 71
     0
 72
     5
 11
5.829047
 21
0.663960
  0
POLYLINE
  8
0
  6
CONTINUOUS
 66
     1
 40
0.014080
 41
0.014080
  0
VERTEX
  8
0
  6
CONTINUOUS
 10
6.462280
 20
1.464760
  0
VERTEX
  8
0
  6
CONTINUOUS
 10
7.139440
 20
1.464760
  0
VERTEX
  8
0
  6
CONTINUOUS
 10
7.139440
 20
1.765280
  0
VERTEX
  8
0
  6
CONTINUOUS
 10
7.451840
 20
1.765280
  0
VERTEX
  8
0
  6
CONTINUOUS
 10
7.451840
 20
2.189000
  0
VERTEX
  8
0
  6
CONTINUOUS
 10
7.354600
 20
2.286240
  0
VERTEX
  8
0
  6
CONTINUOUS
 10
6.462280
 20
2.286240
  0
VERTEX
  8
0
  6
CONTINUOUS
 10
6.462280
 20
1.464760
  0
SEQEND
  8
0
  0
TEXT
  8
0
 10
6.592080
 20
1.188880
 40
0.138051
  1
BA  1078
 41
1.000000
  7
SN0
 71
     0
 72
     5
 11
7.273746
 21
1.188880
  0
TEXT
  8
0
 10
6.533120
 20
0.997040
 40
0.138051
  1
13/16" x 1"
 41
1.000000
  7
SN0
 71
     0
 72
     5
 11
7.331647
 21
0.997040
  0
ENDSEC
  0
EOF
