  0
SECTION
  2
HEADER
  9
$ACADVER
  1
AC1006
  9
$EXTMIN
 10
4.703160
 20
0.809160
  9
$EXTMAX
 10
7.645880
 20
2.140160
  9
$LTSCALE
 40
0.044000
  9
$PDMODE
 70
    35
  9
$PDSIZE
 40
0.035200
  0
ENDSEC
  0
SECTION
  2
TABLES
  0
TABLE
  2
LTYPE
 70
     9
  0
LTYPE
  2
CONTINUOUS
 70
    64
  3
Solid line
 72
    65
 73
     0
 40
0.000000
  0
LTYPE
  2
DASHED
 70
    64
  3
__ __ __ __ __ __ __ __ __ __ __ __ __ __ __
 72
    65
 73
     2
 40
0.000330
 49
0.000220
 49
-0.000110
  0
LTYPE
  2
HIDDEN
 70
    64
  3
 _ _ _ _ _ _ _ _ _ _ _ _ _ _ _ _ _ _ _ _ _ _
 72
    65
 73
     2
 40
0.000165
 49
0.000110
 49
-0.000055
  0
LTYPE
  2
CENTER
 70
    64
  3
____ _ ____ _ ____ _ ____ _ ____ _ ____ _ ____
 72
    65
 73
     4
 40
0.000880
 49
0.000550
 49
-0.000110
 49
0.000110
 49
-0.000110
  0
LTYPE
  2
PHANTOM
 70
    64
  3
_____ _ _ _____ _ _ _____ _ _ _____ _ _ ____
 72
    65
 73
     6
 40
0.001100
 49
0.000550
 49
-0.000110
 49
0.000110
 49
-0.000110
 49
0.000110
 49
-0.000110
  0
LTYPE
  2
DOT
 70
    64
  3
...............................................
 72
    65
 73
     2
 40
0.000110
 49
0.000000
 49
-0.000110
  0
LTYPE
  2
DASHDOT
 70
    64
  3
__ . __ . __ . __ . __ . __ . __ . __ . __ . __
 72
    65
 73
     4
 40
0.000440
 49
0.000220
 49
-0.000110
 49
0.000000
 49
-0.000110
  0
LTYPE
  2
BORDER
 70
    64
  3
__ __ . __ __ . __ __ . __ __ . __ __ . __ __
 72
    65
 73
     6
 40
0.000770
 49
0.000220
 49
-0.000110
 49
0.000220
 49
-0.000110
 49
0.000000
 49
-0.000110
  0
LTYPE
  2
DIVIDE
 70
    64
  3
__ . . __ . . __ . . __ . . __ . . __ . . __
 72
    65
 73
     6
 40
0.000550
 49
0.000220
 49
-0.000110
 49
0.000000
 49
-0.000110
 49
0.000000
 49
-0.000110
  0
LTYPE
  2
DOTDOT
 70
    64
  3
 . .  . .  . .  . .  . .  . . 
 72
    65
 73
     5
 40
0.000242
 49
-0.000110
 49
0.000000
 49
-0.000110
 49
0.000000
 49
-0.000110
  0
ENDTAB
  0
TABLE
  2
STYLE
 70
     2
  0
STYLE
 70
     0
  2
SN0
 40
0.000000
 41
0.000440
 50
0.000000
 71
     0
 42
0.000000
  3
ROMAND
  0
STYLE
 70
    68
  2
SV0
 40
0.000000
 41
0.000440
 50
0.000000
 71
     0
 42
0.000000
  3
ROMAND
  0
ENDTAB
  0
TABLE
  2
LAYER
 70
     3
  0
LAYER
  2
FOREGROUND
 70
    64
 62
     7
  6
CONTINUOUS
  0
LAYER
  2
BACKGROUND
 70
    65
 62
    -7
  6
CONTINUOUS
  0
LAYER
  2
0
 70
    64
 62
     7
  6
CONTINUOUS
  0
ENDTAB
  0
ENDSEC
  0
SECTION
  2
ENTITIES
  0
POLYLINE
  8
FOREGROUND
  6
CONTINUOUS
 66
     1
 40
0.000000
 41
0.000000
  0
VERTEX
  8
FOREGROUND
  6
CONTINUOUS
 10
0.000000
 20
2.949320
  0
VERTEX
  8
FOREGROUND
  6
CONTINUOUS
 10
8.499920
 20
2.949320
  0
VERTEX
  8
FOREGROUND
  6
CONTINUOUS
 10
8.499920
 20
-8.050680
  0
VERTEX
  8
FOREGROUND
  6
CONTINUOUS
 10
0.000000
 20
-8.050680
  0
VERTEX
  8
FOREGROUND
  6
CONTINUOUS
 10
0.000000
 20
2.949320
  0
SEQEND
  8
0
  0
POLYLINE
  8
FOREGROUND
  6
CONTINUOUS
 66
     1
 40
0.000000
 41
0.000000
  0
VERTEX
  8
FOREGROUND
  6
CONTINUOUS
 10
0.000000
 20
2.949320
  0
VERTEX
  8
FOREGROUND
  6
CONTINUOUS
 10
8.499920
 20
2.949320
  0
VERTEX
  8
FOREGROUND
  6
CONTINUOUS
 10
8.499920
 20
-8.050680
  0
VERTEX
  8
FOREGROUND
  6
CONTINUOUS
 10
0.000000
 20
-8.050680
  0
VERTEX
  8
FOREGROUND
  6
CONTINUOUS
 10
0.000000
 20
2.949320
  0
SEQEND
  8
0
  0
SOLID
  8
0
 62
     7
 10
5.677760
 20
1.586640
 11
6.324120
 21
1.963720
 12
5.683920
 22
1.562440
 13
6.330280
 23
1.939960
  0
POLYLINE
  8
0
  6
CONTINUOUS
 66
     1
 40
0.000000
 41
0.000000
  0
VERTEX
  8
0
  6
CONTINUOUS
 10
5.677760
 20
1.586640
  0
VERTEX
  8
0
  6
CONTINUOUS
 10
6.324120
 20
1.963720
  0
VERTEX
  8
0
  6
CONTINUOUS
 10
6.330280
 20
1.939960
  0
VERTEX
  8
0
  6
CONTINUOUS
 10
5.683920
 20
1.562440
  0
VERTEX
  8
0
  6
CONTINUOUS
 10
5.677760
 20
1.586640
  0
SEQEND
  8
0
  0
SOLID
  8
0
 62
    15
 10
5.438400
 20
1.762640
 11
6.085200
 21
2.139720
 12
5.463920
 22
1.761320
 13
6.110720
 23
2.138400
  0
POLYLINE
  8
0
  6
CONTINUOUS
 66
     1
 40
0.000000
 41
0.000000
  0
VERTEX
  8
0
  6
CONTINUOUS
 10
5.438400
 20
1.762640
  0
VERTEX
  8
0
  6
CONTINUOUS
 10
6.085200
 20
2.139720
  0
VERTEX
  8
0
  6
CONTINUOUS
 10
6.110720
 20
2.138400
  0
VERTEX
  8
0
  6
CONTINUOUS
 10
5.463920
 20
1.761320
  0
VERTEX
  8
0
  6
CONTINUOUS
 10
5.438400
 20
1.762640
  0
SEQEND
  8
0
  0
SOLID
  8
0
 62
    15
 10
5.463920
 20
1.761320
 11
6.110720
 21
2.138400
 12
5.489000
 22
1.757360
 13
6.135360
 23
2.134440
  0
POLYLINE
  8
0
  6
CONTINUOUS
 66
     1
 40
0.000000
 41
0.000000
  0
VERTEX
  8
0
  6
CONTINUOUS
 10
5.463920
 20
1.761320
  0
VERTEX
  8
0
  6
CONTINUOUS
 10
6.110720
 20
2.138400
  0
VERTEX
  8
0
  6
CONTINUOUS
 10
6.135360
 20
2.134440
  0
VERTEX
  8
0
  6
CONTINUOUS
 10
5.489000
 20
1.757360
  0
VERTEX
  8
0
  6
CONTINUOUS
 10
5.463920
 20
1.761320
  0
SEQEND
  8
0
  0
SOLID
  8
0
 62
    15
 10
5.489000
 20
1.757360
 11
6.135360
 21
2.134440
 12
5.512760
 22
1.751200
 13
6.159560
 23
2.128280
  0
POLYLINE
  8
0
  6
CONTINUOUS
 66
     1
 40
0.000000
 41
0.000000
  0
VERTEX
  8
0
  6
CONTINUOUS
 10
5.489000
 20
1.757360
  0
VERTEX
  8
0
  6
CONTINUOUS
 10
6.135360
 20
2.134440
  0
VERTEX
  8
0
  6
CONTINUOUS
 10
6.159560
 20
2.128280
  0
VERTEX
  8
0
  6
CONTINUOUS
 10
5.512760
 20
1.751200
  0
VERTEX
  8
0
  6
CONTINUOUS
 10
5.489000
 20
1.757360
  0
SEQEND
  8
0
  0
SOLID
  8
0
 62
    15
 10
5.512760
 20
1.751200
 11
6.159560
 21
2.128280
 12
5.536080
 22
1.742840
 13
6.182440
 23
2.119920
  0
POLYLINE
  8
0
  6
CONTINUOUS
 66
     1
 40
0.000000
 41
0.000000
  0
VERTEX
  8
0
  6
CONTINUOUS
 10
5.512760
 20
1.751200
  0
VERTEX
  8
0
  6
CONTINUOUS
 10
6.159560
 20
2.128280
  0
VERTEX
  8
0
  6
CONTINUOUS
 10
6.182440
 20
2.119920
  0
VERTEX
  8
0
  6
CONTINUOUS
 10
5.536080
 20
1.742840
  0
VERTEX
  8
0
  6
CONTINUOUS
 10
5.512760
 20
1.751200
  0
SEQEND
  8
0
  0
SOLID
  8
0
 62
     7
 10
5.536080
 20
1.742840
 11
6.182440
 21
2.119920
 12
5.557640
 22
1.732280
 13
6.204440
 23
2.109360
  0
POLYLINE
  8
0
  6
CONTINUOUS
 66
     1
 40
0.000000
 41
0.000000
  0
VERTEX
  8
0
  6
CONTINUOUS
 10
5.536080
 20
1.742840
  0
VERTEX
  8
0
  6
CONTINUOUS
 10
6.182440
 20
2.119920
  0
VERTEX
  8
0
  6
CONTINUOUS
 10
6.204440
 20
2.109360
  0
VERTEX
  8
0
  6
CONTINUOUS
 10
5.557640
 20
1.732280
  0
VERTEX
  8
0
  6
CONTINUOUS
 10
5.536080
 20
1.742840
  0
SEQEND
  8
0
  0
SOLID
  8
0
 62
     7
 10
5.557640
 20
1.732280
 11
6.204440
 21
2.109360
 12
5.578320
 22
1.719520
 13
6.225120
 23
2.097040
  0
POLYLINE
  8
0
  6
CONTINUOUS
 66
     1
 40
0.000000
 41
0.000000
  0
VERTEX
  8
0
  6
CONTINUOUS
 10
5.557640
 20
1.732280
  0
VERTEX
  8
0
  6
CONTINUOUS
 10
6.204440
 20
2.109360
  0
VERTEX
  8
0
  6
CONTINUOUS
 10
6.225120
 20
2.097040
  0
VERTEX
  8
0
  6
CONTINUOUS
 10
5.578320
 20
1.719520
  0
VERTEX
  8
0
  6
CONTINUOUS
 10
5.557640
 20
1.732280
  0
SEQEND
  8
0
  0
SOLID
  8
0
 62
     7
 10
5.578320
 20
1.719520
 11
6.225120
 21
2.097040
 12
5.615720
 22
1.689160
 13
6.262080
 23
2.066240
  0
POLYLINE
  8
0
  6
CONTINUOUS
 66
     1
 40
0.000000
 41
0.000000
  0
VERTEX
  8
0
  6
CONTINUOUS
 10
5.578320
 20
1.719520
  0
VERTEX
  8
0
  6
CONTINUOUS
 10
6.225120
 20
2.097040
  0
VERTEX
  8
0
  6
CONTINUOUS
 10
6.262080
 20
2.066240
  0
VERTEX
  8
0
  6
CONTINUOUS
 10
5.615720
 20
1.689160
  0
VERTEX
  8
0
  6
CONTINUOUS
 10
5.578320
 20
1.719520
  0
SEQEND
  8
0
  0
SOLID
  8
0
 62
     7
 10
5.615720
 20
1.689160
 11
6.262080
 21
2.066240
 12
5.646080
 22
1.652200
 13
6.292880
 23
2.029280
  0
POLYLINE
  8
0
  6
CONTINUOUS
 66
     1
 40
0.000000
 41
0.000000
  0
VERTEX
  8
0
  6
CONTINUOUS
 10
5.615720
 20
1.689160
  0
VERTEX
  8
0
  6
CONTINUOUS
 10
6.262080
 20
2.066240
  0
VERTEX
  8
0
  6
CONTINUOUS
 10
6.292880
 20
2.029280
  0
VERTEX
  8
0
  6
CONTINUOUS
 10
5.646080
 20
1.652200
  0
VERTEX
  8
0
  6
CONTINUOUS
 10
5.615720
 20
1.689160
  0
SEQEND
  8
0
  0
SOLID
  8
0
 62
     7
 10
5.646080
 20
1.652200
 11
6.292880
 21
2.029280
 12
5.658840
 22
1.631520
 13
6.305200
 23
2.008600
  0
POLYLINE
  8
0
  6
CONTINUOUS
 66
     1
 40
0.000000
 41
0.000000
  0
VERTEX
  8
0
  6
CONTINUOUS
 10
5.646080
 20
1.652200
  0
VERTEX
  8
0
  6
CONTINUOUS
 10
6.292880
 20
2.029280
  0
VERTEX
  8
0
  6
CONTINUOUS
 10
6.305200
 20
2.008600
  0
VERTEX
  8
0
  6
CONTINUOUS
 10
5.658840
 20
1.631520
  0
VERTEX
  8
0
  6
CONTINUOUS
 10
5.646080
 20
1.652200
  0
SEQEND
  8
0
  0
SOLID
  8
0
 62
     7
 10
5.658840
 20
1.631520
 11
6.305200
 21
2.008600
 12
5.668960
 22
1.609520
 13
6.315760
 23
1.986600
  0
POLYLINE
  8
0
  6
CONTINUOUS
 66
     1
 40
0.000000
 41
0.000000
  0
VERTEX
  8
0
  6
CONTINUOUS
 10
5.658840
 20
1.631520
  0
VERTEX
  8
0
  6
CONTINUOUS
 10
6.305200
 20
2.008600
  0
VERTEX
  8
0
  6
CONTINUOUS
 10
6.315760
 20
1.986600
  0
VERTEX
  8
0
  6
CONTINUOUS
 10
5.668960
 20
1.609520
  0
VERTEX
  8
0
  6
CONTINUOUS
 10
5.658840
 20
1.631520
  0
SEQEND
  8
0
  0
SOLID
  8
0
 62
     7
 10
5.668960
 20
1.609520
 11
6.315760
 21
1.986600
 12
5.677760
 22
1.586640
 13
6.324120
 23
1.963720
  0
POLYLINE
  8
0
  6
CONTINUOUS
 66
     1
 40
0.000000
 41
0.000000
  0
VERTEX
  8
0
  6
CONTINUOUS
 10
5.668960
 20
1.609520
  0
VERTEX
  8
0
  6
CONTINUOUS
 10
6.315760
 20
1.986600
  0
VERTEX
  8
0
  6
CONTINUOUS
 10
6.324120
 20
1.963720
  0
VERTEX
  8
0
  6
CONTINUOUS
 10
5.677760
 20
1.586640
  0
VERTEX
  8
0
  6
CONTINUOUS
 10
5.668960
 20
1.609520
  0
SEQEND
  8
0
  0
SOLID
  8
0
 62
    15
 10
4.703600
 20
1.762640
 11
5.350400
 21
2.139720
 12
5.438400
 22
1.762640
 13
6.085200
 23
2.139720
  0
POLYLINE
  8
0
  6
CONTINUOUS
 66
     1
 40
0.000000
 41
0.000000
  0
VERTEX
  8
0
  6
CONTINUOUS
 10
4.703600
 20
1.762640
  0
VERTEX
  8
0
  6
CONTINUOUS
 10
5.350400
 20
2.139720
  0
VERTEX
  8
0
  6
CONTINUOUS
 10
6.085200
 20
2.139720
  0
VERTEX
  8
0
  6
CONTINUOUS
 10
5.438400
 20
1.762640
  0
VERTEX
  8
0
  6
CONTINUOUS
 10
4.703600
 20
1.762640
  0
SEQEND
  8
0
  0
SOLID
  8
0
 62
     7
 10
5.683920
 20
1.562440
 11
6.330280
 21
1.939960
 12
5.687440
 22
1.537800
 13
6.334240
 23
1.914880
  0
POLYLINE
  8
0
  6
CONTINUOUS
 66
     1
 40
0.000000
 41
0.000000
  0
VERTEX
  8
0
  6
CONTINUOUS
 10
5.683920
 20
1.562440
  0
VERTEX
  8
0
  6
CONTINUOUS
 10
6.330280
 20
1.939960
  0
VERTEX
  8
0
  6
CONTINUOUS
 10
6.334240
 20
1.914880
  0
VERTEX
  8
0
  6
CONTINUOUS
 10
5.687440
 20
1.537800
  0
VERTEX
  8
0
  6
CONTINUOUS
 10
5.683920
 20
1.562440
  0
SEQEND
  8
0
  0
SOLID
  8
0
 62
     7
 10
5.687440
 20
1.537800
 11
6.334240
 21
1.914880
 12
5.688760
 22
1.511840
 13
6.335560
 23
1.889360
  0
POLYLINE
  8
0
  6
CONTINUOUS
 66
     1
 40
0.000000
 41
0.000000
  0
VERTEX
  8
0
  6
CONTINUOUS
 10
5.687440
 20
1.537800
  0
VERTEX
  8
0
  6
CONTINUOUS
 10
6.334240
 20
1.914880
  0
VERTEX
  8
0
  6
CONTINUOUS
 10
6.335560
 20
1.889360
  0
VERTEX
  8
0
  6
CONTINUOUS
 10
5.688760
 20
1.511840
  0
VERTEX
  8
0
  6
CONTINUOUS
 10
5.687440
 20
1.537800
  0
SEQEND
  8
0
  0
SOLID
  8
0
 62
     7
 10
5.688760
 20
1.511840
 11
6.335560
 21
1.889360
 12
5.687440
 22
1.486320
 13
6.334240
 23
1.863840
  0
POLYLINE
  8
0
  6
CONTINUOUS
 66
     1
 40
0.000000
 41
0.000000
  0
VERTEX
  8
0
  6
CONTINUOUS
 10
5.688760
 20
1.511840
  0
VERTEX
  8
0
  6
CONTINUOUS
 10
6.335560
 20
1.889360
  0
VERTEX
  8
0
  6
CONTINUOUS
 10
6.334240
 20
1.863840
  0
VERTEX
  8
0
  6
CONTINUOUS
 10
5.687440
 20
1.486320
  0
VERTEX
  8
0
  6
CONTINUOUS
 10
5.688760
 20
1.511840
  0
SEQEND
  8
0
  0
SOLID
  8
0
 62
     7
 10
5.687440
 20
1.486320
 11
6.334240
 21
1.863840
 12
5.683920
 22
1.461680
 13
6.330280
 23
1.838760
  0
POLYLINE
  8
0
  6
CONTINUOUS
 66
     1
 40
0.000000
 41
0.000000
  0
VERTEX
  8
0
  6
CONTINUOUS
 10
5.687440
 20
1.486320
  0
VERTEX
  8
0
  6
CONTINUOUS
 10
6.334240
 20
1.863840
  0
VERTEX
  8
0
  6
CONTINUOUS
 10
6.330280
 20
1.838760
  0
VERTEX
  8
0
  6
CONTINUOUS
 10
5.683920
 20
1.461680
  0
VERTEX
  8
0
  6
CONTINUOUS
 10
5.687440
 20
1.486320
  0
SEQEND
  8
0
  0
SOLID
  8
0
 62
    15
 10
5.683920
 20
1.461680
 11
6.330280
 21
1.838760
 12
5.677760
 22
1.437480
 13
6.324120
 23
1.815000
  0
POLYLINE
  8
0
  6
CONTINUOUS
 66
     1
 40
0.000000
 41
0.000000
  0
VERTEX
  8
0
  6
CONTINUOUS
 10
5.683920
 20
1.461680
  0
VERTEX
  8
0
  6
CONTINUOUS
 10
6.330280
 20
1.838760
  0
VERTEX
  8
0
  6
CONTINUOUS
 10
6.324120
 20
1.815000
  0
VERTEX
  8
0
  6
CONTINUOUS
 10
5.677760
 20
1.437480
  0
VERTEX
  8
0
  6
CONTINUOUS
 10
5.683920
 20
1.461680
  0
SEQEND
  8
0
  0
SOLID
  8
0
 62
    15
 10
5.677760
 20
1.437480
 11
6.324120
 21
1.815000
 12
5.668960
 22
1.414600
 13
6.315760
 23
1.791680
  0
POLYLINE
  8
0
  6
CONTINUOUS
 66
     1
 40
0.000000
 41
0.000000
  0
VERTEX
  8
0
  6
CONTINUOUS
 10
5.677760
 20
1.437480
  0
VERTEX
  8
0
  6
CONTINUOUS
 10
6.324120
 20
1.815000
  0
VERTEX
  8
0
  6
CONTINUOUS
 10
6.315760
 20
1.791680
  0
VERTEX
  8
0
  6
CONTINUOUS
 10
5.668960
 20
1.414600
  0
VERTEX
  8
0
  6
CONTINUOUS
 10
5.677760
 20
1.437480
  0
SEQEND
  8
0
  0
SOLID
  8
0
 62
    15
 10
5.668960
 20
1.414600
 11
6.315760
 21
1.791680
 12
5.658840
 22
1.392600
 13
6.305200
 23
1.770120
  0
POLYLINE
  8
0
  6
CONTINUOUS
 66
     1
 40
0.000000
 41
0.000000
  0
VERTEX
  8
0
  6
CONTINUOUS
 10
5.668960
 20
1.414600
  0
VERTEX
  8
0
  6
CONTINUOUS
 10
6.315760
 20
1.791680
  0
VERTEX
  8
0
  6
CONTINUOUS
 10
6.305200
 20
1.770120
  0
VERTEX
  8
0
  6
CONTINUOUS
 10
5.658840
 20
1.392600
  0
VERTEX
  8
0
  6
CONTINUOUS
 10
5.668960
 20
1.414600
  0
SEQEND
  8
0
  0
POLYLINE
  8
0
  6
CONTINUOUS
 66
     1
 40
0.000000
 41
0.000000
  0
VERTEX
  8
0
  6
CONTINUOUS
 10
5.438400
 20
1.261480
  0
VERTEX
  8
0
  6
CONTINUOUS
 10
6.085200
 20
1.639000
  0
VERTEX
  8
0
  6
CONTINUOUS
 10
5.438400
 20
1.261480
  0
SEQEND
  8
0
  0
SOLID
  8
0
 62
    15
 10
5.646080
 20
1.371920
 11
6.292880
 21
1.749440
 12
5.615720
 22
1.334960
 13
6.262080
 23
1.712480
  0
POLYLINE
  8
0
  6
CONTINUOUS
 66
     1
 40
0.000000
 41
0.000000
  0
VERTEX
  8
0
  6
CONTINUOUS
 10
5.646080
 20
1.371920
  0
VERTEX
  8
0
  6
CONTINUOUS
 10
6.292880
 20
1.749440
  0
VERTEX
  8
0
  6
CONTINUOUS
 10
6.262080
 20
1.712480
  0
VERTEX
  8
0
  6
CONTINUOUS
 10
5.615720
 20
1.334960
  0
VERTEX
  8
0
  6
CONTINUOUS
 10
5.646080
 20
1.371920
  0
SEQEND
  8
0
  0
SOLID
  8
0
 62
    15
 10
5.615720
 20
1.334960
 11
6.262080
 21
1.712480
 12
5.578320
 22
1.304600
 13
6.225120
 23
1.681680
  0
POLYLINE
  8
0
  6
CONTINUOUS
 66
     1
 40
0.000000
 41
0.000000
  0
VERTEX
  8
0
  6
CONTINUOUS
 10
5.615720
 20
1.334960
  0
VERTEX
  8
0
  6
CONTINUOUS
 10
6.262080
 20
1.712480
  0
VERTEX
  8
0
  6
CONTINUOUS
 10
6.225120
 20
1.681680
  0
VERTEX
  8
0
  6
CONTINUOUS
 10
5.578320
 20
1.304600
  0
VERTEX
  8
0
  6
CONTINUOUS
 10
5.615720
 20
1.334960
  0
SEQEND
  8
0
  0
SOLID
  8
0
 62
    15
 10
5.578320
 20
1.304600
 11
6.225120
 21
1.681680
 12
5.557640
 22
1.291840
 13
6.204440
 23
1.669360
  0
POLYLINE
  8
0
  6
CONTINUOUS
 66
     1
 40
0.000000
 41
0.000000
  0
VERTEX
  8
0
  6
CONTINUOUS
 10
5.578320
 20
1.304600
  0
VERTEX
  8
0
  6
CONTINUOUS
 10
6.225120
 20
1.681680
  0
VERTEX
  8
0
  6
CONTINUOUS
 10
6.204440
 20
1.669360
  0
VERTEX
  8
0
  6
CONTINUOUS
 10
5.557640
 20
1.291840
  0
VERTEX
  8
0
  6
CONTINUOUS
 10
5.578320
 20
1.304600
  0
SEQEND
  8
0
  0
SOLID
  8
0
 62
    15
 10
5.658840
 20
1.392600
 11
6.305200
 21
1.770120
 12
5.646080
 22
1.371920
 13
6.292880
 23
1.749440
  0
POLYLINE
  8
0
  6
CONTINUOUS
 66
     1
 40
0.000000
 41
0.000000
  0
VERTEX
  8
0
  6
CONTINUOUS
 10
5.658840
 20
1.392600
  0
VERTEX
  8
0
  6
CONTINUOUS
 10
6.305200
 20
1.770120
  0
VERTEX
  8
0
  6
CONTINUOUS
 10
6.292880
 20
1.749440
  0
VERTEX
  8
0
  6
CONTINUOUS
 10
5.646080
 20
1.371920
  0
VERTEX
  8
0
  6
CONTINUOUS
 10
5.658840
 20
1.392600
  0
SEQEND
  8
0
  0
POLYLINE
  8
0
  6
CONTINUOUS
 66
     1
 40
0.000000
 41
0.000000
  0
VERTEX
  8
0
  6
CONTINUOUS
 10
5.438400
 20
1.261480
  0
VERTEX
  8
0
  6
CONTINUOUS
 10
4.703600
 20
1.261480
  0
VERTEX
  8
0
  6
CONTINUOUS
 10
4.703600
 20
1.762640
  0
VERTEX
  8
0
  6
CONTINUOUS
 10
5.438400
 20
1.762640
  0
VERTEX
  8
0
  6
CONTINUOUS
 10
5.463920
 20
1.761320
  0
VERTEX
  8
0
  6
CONTINUOUS
 10
5.489000
 20
1.757360
  0
VERTEX
  8
0
  6
CONTINUOUS
 10
5.512760
 20
1.751200
  0
VERTEX
  8
0
  6
CONTINUOUS
 10
5.536080
 20
1.742840
  0
VERTEX
  8
0
  6
CONTINUOUS
 10
5.557640
 20
1.732280
  0
VERTEX
  8
0
  6
CONTINUOUS
 10
5.578320
 20
1.719520
  0
VERTEX
  8
0
  6
CONTINUOUS
 10
5.615720
 20
1.689160
  0
VERTEX
  8
0
  6
CONTINUOUS
 10
5.646080
 20
1.652200
  0
VERTEX
  8
0
  6
CONTINUOUS
 10
5.658840
 20
1.631520
  0
VERTEX
  8
0
  6
CONTINUOUS
 10
5.668960
 20
1.609520
  0
VERTEX
  8
0
  6
CONTINUOUS
 10
5.677760
 20
1.586640
  0
VERTEX
  8
0
  6
CONTINUOUS
 10
5.683920
 20
1.562440
  0
VERTEX
  8
0
  6
CONTINUOUS
 10
5.687440
 20
1.537800
  0
VERTEX
  8
0
  6
CONTINUOUS
 10
5.688760
 20
1.511840
  0
VERTEX
  8
0
  6
CONTINUOUS
 10
5.687440
 20
1.486320
  0
VERTEX
  8
0
  6
CONTINUOUS
 10
5.683920
 20
1.461680
  0
VERTEX
  8
0
  6
CONTINUOUS
 10
5.677760
 20
1.437480
  0
VERTEX
  8
0
  6
CONTINUOUS
 10
5.668960
 20
1.414600
  0
VERTEX
  8
0
  6
CONTINUOUS
 10
5.658840
 20
1.392600
  0
VERTEX
  8
0
  6
CONTINUOUS
 10
5.646080
 20
1.371920
  0
VERTEX
  8
0
  6
CONTINUOUS
 10
5.615720
 20
1.334960
  0
VERTEX
  8
0
  6
CONTINUOUS
 10
5.578320
 20
1.304600
  0
VERTEX
  8
0
  6
CONTINUOUS
 10
5.557640
 20
1.291840
  0
VERTEX
  8
0
  6
CONTINUOUS
 10
5.536080
 20
1.281280
  0
VERTEX
  8
0
  6
CONTINUOUS
 10
5.512760
 20
1.272920
  0
VERTEX
  8
0
  6
CONTINUOUS
 10
5.489000
 20
1.266760
  0
VERTEX
  8
0
  6
CONTINUOUS
 10
5.463920
 20
1.262800
  0
VERTEX
  8
0
  6
CONTINUOUS
 10
5.438400
 20
1.261480
  0
SEQEND
  8
0
  0
TEXT
  8
0
 10
5.178800
 20
1.044560
 40
0.138117
  1
BA  1077
 41
1.000000
  7
SN0
 71
     0
 72
     5
 11
5.861217
 21
1.044560
  0
TEXT
  8
0
 10
5.212240
 20
0.853160
 40
0.138117
  1
1/2" x 1"
 41
1.000000
  7
SN0
 71
     0
 72
     5
 11
5.827416
 21
0.853160
  0
POLYLINE
  8
0
  6
CONTINUOUS
 66
     1
 40
0.014080
 41
0.014080
  0
VERTEX
  8
0
  6
CONTINUOUS
 10
7.388480
 20
1.591920
  0
VERTEX
  8
0
  6
CONTINUOUS
 10
7.414000
 20
1.593240
  0
VERTEX
  8
0
  6
CONTINUOUS
 10
7.450960
 20
1.599840
  0
VERTEX
  8
0
  6
CONTINUOUS
 10
7.474720
 20
1.606880
  0
VERTEX
  8
0
  6
CONTINUOUS
 10
7.507720
 20
1.622280
  0
VERTEX
  8
0
  6
CONTINUOUS
 10
7.528400
 20
1.634600
  0
VERTEX
  8
0
  6
CONTINUOUS
 10
7.547760
 20
1.649120
  0
VERTEX
  8
0
  6
CONTINUOUS
 10
7.565360
 20
1.664960
  0
VERTEX
  8
0
  6
CONTINUOUS
 10
7.581640
 20
1.683000
  0
VERTEX
  8
0
  6
CONTINUOUS
 10
7.596160
 20
1.702360
  0
VERTEX
  8
0
  6
CONTINUOUS
 10
7.608480
 20
1.722600
  0
VERTEX
  8
0
  6
CONTINUOUS
 10
7.623440
 20
1.756040
  0
VERTEX
  8
0
  6
CONTINUOUS
 10
7.633560
 20
1.791680
  0
VERTEX
  8
0
  6
CONTINUOUS
 10
7.637520
 20
1.816760
  0
VERTEX
  8
0
  6
CONTINUOUS
 10
7.638840
 20
1.842280
  0
VERTEX
  8
0
  6
CONTINUOUS
 10
7.637520
 20
1.867800
  0
VERTEX
  8
0
  6
CONTINUOUS
 10
7.630920
 20
1.904760
  0
VERTEX
  8
0
  6
CONTINUOUS
 10
7.619040
 20
1.939520
  0
VERTEX
  8
0
  6
CONTINUOUS
 10
7.608480
 20
1.961520
  0
VERTEX
  8
0
  6
CONTINUOUS
 10
7.596160
 20
1.982200
  0
VERTEX
  8
0
  6
CONTINUOUS
 10
7.581640
 20
2.001560
  0
VERTEX
  8
0
  6
CONTINUOUS
 10
7.547760
 20
2.035440
  0
VERTEX
  8
0
  6
CONTINUOUS
 10
7.528400
 20
2.049960
  0
VERTEX
  8
0
  6
CONTINUOUS
 10
7.507720
 20
2.062280
  0
VERTEX
  8
0
  6
CONTINUOUS
 10
7.474720
 20
2.077240
  0
VERTEX
  8
0
  6
CONTINUOUS
 10
7.439080
 20
2.087360
  0
VERTEX
  8
0
  6
CONTINUOUS
 10
7.414000
 20
2.091320
  0
VERTEX
  8
0
  6
CONTINUOUS
 10
7.388480
 20
2.092640
  0
VERTEX
  8
0
  6
CONTINUOUS
 10
6.653680
 20
2.092640
  0
VERTEX
  8
0
  6
CONTINUOUS
 10
6.653680
 20
1.591480
  0
VERTEX
  8
0
  6
CONTINUOUS
 10
7.388480
 20
1.591920
  0
SEQEND
  8
0
  0
TEXT
  8
0
 10
6.756200
 20
1.883640
 40
0.138117
  1
BA  1077
 41
1.000000
  7
SN0
 71
     0
 72
     5
 11
7.438617
 21
1.883640
  0
TEXT
  8
0
 10
6.789640
 20
1.691800
 40
0.138117
  1
1/2" x 1"
 41
1.000000
  7
SN0
 71
     0
 72
     5
 11
7.404816
 21
1.691800
  0
ENDSEC
  0
EOF
