  0
SECTION
  2
HEADER
  9
$ACADVER
  1
AC1006
  9
$EXTMIN
 10
2.853400
 20
0.702680
  9
$EXTMAX
 10
7.959600
 20
4.241160
  9
$LTSCALE
 40
0.044000
  9
$PDMODE
 70
    35
  9
$PDSIZE
 40
0.035200
  0
ENDSEC
  0
SECTION
  2
TABLES
  0
TABLE
  2
LTYPE
 70
     9
  0
LTYPE
  2
CONTINUOUS
 70
    64
  3
Solid line
 72
    65
 73
     0
 40
0.000000
  0
LTYPE
  2
DASHED
 70
    64
  3
__ __ __ __ __ __ __ __ __ __ __ __ __ __ __
 72
    65
 73
     2
 40
0.000330
 49
0.000220
 49
-0.000110
  0
LTYPE
  2
HIDDEN
 70
    64
  3
 _ _ _ _ _ _ _ _ _ _ _ _ _ _ _ _ _ _ _ _ _ _
 72
    65
 73
     2
 40
0.000165
 49
0.000110
 49
-0.000055
  0
LTYPE
  2
CENTER
 70
    64
  3
____ _ ____ _ ____ _ ____ _ ____ _ ____ _ ____
 72
    65
 73
     4
 40
0.000880
 49
0.000550
 49
-0.000110
 49
0.000110
 49
-0.000110
  0
LTYPE
  2
PHANTOM
 70
    64
  3
_____ _ _ _____ _ _ _____ _ _ _____ _ _ ____
 72
    65
 73
     6
 40
0.001100
 49
0.000550
 49
-0.000110
 49
0.000110
 49
-0.000110
 49
0.000110
 49
-0.000110
  0
LTYPE
  2
DOT
 70
    64
  3
...............................................
 72
    65
 73
     2
 40
0.000110
 49
0.000000
 49
-0.000110
  0
LTYPE
  2
DASHDOT
 70
    64
  3
__ . __ . __ . __ . __ . __ . __ . __ . __ . __
 72
    65
 73
     4
 40
0.000440
 49
0.000220
 49
-0.000110
 49
0.000000
 49
-0.000110
  0
LTYPE
  2
BORDER
 70
    64
  3
__ __ . __ __ . __ __ . __ __ . __ __ . __ __
 72
    65
 73
     6
 40
0.000770
 49
0.000220
 49
-0.000110
 49
0.000220
 49
-0.000110
 49
0.000000
 49
-0.000110
  0
LTYPE
  2
DIVIDE
 70
    64
  3
__ . . __ . . __ . . __ . . __ . . __ . . __
 72
    65
 73
     6
 40
0.000550
 49
0.000220
 49
-0.000110
 49
0.000000
 49
-0.000110
 49
0.000000
 49
-0.000110
  0
LTYPE
  2
DOTDOT
 70
    64
  3
 . .  . .  . .  . .  . .  . . 
 72
    65
 73
     5
 40
0.000242
 49
-0.000110
 49
0.000000
 49
-0.000110
 49
0.000000
 49
-0.000110
  0
ENDTAB
  0
TABLE
  2
STYLE
 70
     2
  0
STYLE
 70
     0
  2
SN0
 40
0.000000
 41
0.000440
 50
0.000000
 71
     0
 42
0.000000
  3
ROMAND
  0
STYLE
 70
    68
  2
SV0
 40
0.000000
 41
0.000440
 50
0.000000
 71
     0
 42
0.000000
  3
ROMAND
  0
ENDTAB
  0
TABLE
  2
LAYER
 70
     3
  0
LAYER
  2
FOREGROUND
 70
    64
 62
     7
  6
CONTINUOUS
  0
LAYER
  2
BACKGROUND
 70
    65
 62
    -7
  6
CONTINUOUS
  0
LAYER
  2
0
 70
    64
 62
     7
  6
CONTINUOUS
  0
ENDTAB
  0
ENDSEC
  0
SECTION
  2
ENTITIES
  0
POLYLINE
  8
FOREGROUND
  6
CONTINUOUS
 66
     1
 40
0.000000
 41
0.000000
  0
VERTEX
  8
FOREGROUND
  6
CONTINUOUS
 10
0.000000
 20
4.943840
  0
VERTEX
  8
FOREGROUND
  6
CONTINUOUS
 10
8.499920
 20
4.943840
  0
VERTEX
  8
FOREGROUND
  6
CONTINUOUS
 10
8.499920
 20
-6.056160
  0
VERTEX
  8
FOREGROUND
  6
CONTINUOUS
 10
0.000000
 20
-6.056160
  0
VERTEX
  8
FOREGROUND
  6
CONTINUOUS
 10
0.000000
 20
4.943840
  0
SEQEND
  8
0
  0
POLYLINE
  8
FOREGROUND
  6
CONTINUOUS
 66
     1
 40
0.000000
 41
0.000000
  0
VERTEX
  8
FOREGROUND
  6
CONTINUOUS
 10
0.000000
 20
4.943840
  0
VERTEX
  8
FOREGROUND
  6
CONTINUOUS
 10
8.499920
 20
4.943840
  0
VERTEX
  8
FOREGROUND
  6
CONTINUOUS
 10
8.499920
 20
-6.056160
  0
VERTEX
  8
FOREGROUND
  6
CONTINUOUS
 10
0.000000
 20
-6.056160
  0
VERTEX
  8
FOREGROUND
  6
CONTINUOUS
 10
0.000000
 20
4.943840
  0
SEQEND
  8
0
  0
SOLID
  8
0
 62
    15
 10
4.675000
 20
1.716000
 11
4.670160
 21
2.447280
 12
4.784120
 22
1.705000
 13
4.779280
 23
2.436720
  0
POLYLINE
  8
0
  6
CONTINUOUS
 66
     1
 40
0.000000
 41
0.000000
  0
VERTEX
  8
0
  6
CONTINUOUS
 10
4.675000
 20
1.716000
  0
VERTEX
  8
0
  6
CONTINUOUS
 10
4.670160
 20
2.447280
  0
VERTEX
  8
0
  6
CONTINUOUS
 10
4.779280
 20
2.436720
  0
VERTEX
  8
0
  6
CONTINUOUS
 10
4.784120
 20
1.705000
  0
VERTEX
  8
0
  6
CONTINUOUS
 10
4.675000
 20
1.716000
  0
SEQEND
  8
0
  0
SOLID
  8
0
 62
    15
 10
3.601840
 20
2.044240
 11
3.597000
 21
2.775520
 12
3.608000
 22
1.899480
 13
3.603160
 23
2.630760
  0
POLYLINE
  8
0
  6
CONTINUOUS
 66
     1
 40
0.000000
 41
0.000000
  0
VERTEX
  8
0
  6
CONTINUOUS
 10
3.601840
 20
2.044240
  0
VERTEX
  8
0
  6
CONTINUOUS
 10
3.597000
 20
2.775520
  0
VERTEX
  8
0
  6
CONTINUOUS
 10
3.603160
 20
2.630760
  0
VERTEX
  8
0
  6
CONTINUOUS
 10
3.608000
 20
1.899480
  0
VERTEX
  8
0
  6
CONTINUOUS
 10
3.601840
 20
2.044240
  0
SEQEND
  8
0
  0
SOLID
  8
0
 62
    15
 10
3.608000
 20
1.899480
 11
3.603160
 21
2.630760
 12
3.691160
 22
1.899480
 13
3.686320
 23
2.630760
  0
POLYLINE
  8
0
  6
CONTINUOUS
 66
     1
 40
0.000000
 41
0.000000
  0
VERTEX
  8
0
  6
CONTINUOUS
 10
3.608000
 20
1.899480
  0
VERTEX
  8
0
  6
CONTINUOUS
 10
3.603160
 20
2.630760
  0
VERTEX
  8
0
  6
CONTINUOUS
 10
3.686320
 20
2.630760
  0
VERTEX
  8
0
  6
CONTINUOUS
 10
3.691160
 20
1.899480
  0
VERTEX
  8
0
  6
CONTINUOUS
 10
3.608000
 20
1.899480
  0
SEQEND
  8
0
  0
SOLID
  8
0
 62
    15
 10
3.691160
 20
1.899480
 11
3.686320
 21
2.630760
 12
3.709640
 22
1.929840
 13
3.704800
 23
2.661560
  0
POLYLINE
  8
0
  6
CONTINUOUS
 66
     1
 40
0.000000
 41
0.000000
  0
VERTEX
  8
0
  6
CONTINUOUS
 10
3.691160
 20
1.899480
  0
VERTEX
  8
0
  6
CONTINUOUS
 10
3.686320
 20
2.630760
  0
VERTEX
  8
0
  6
CONTINUOUS
 10
3.704800
 20
2.661560
  0
VERTEX
  8
0
  6
CONTINUOUS
 10
3.709640
 20
1.929840
  0
VERTEX
  8
0
  6
CONTINUOUS
 10
3.691160
 20
1.899480
  0
SEQEND
  8
0
  0
SOLID
  8
0
 62
    15
 10
3.709640
 20
1.929840
 11
3.704800
 21
2.661560
 12
3.730320
 22
1.955360
 13
3.725480
 23
2.686640
  0
POLYLINE
  8
0
  6
CONTINUOUS
 66
     1
 40
0.000000
 41
0.000000
  0
VERTEX
  8
0
  6
CONTINUOUS
 10
3.709640
 20
1.929840
  0
VERTEX
  8
0
  6
CONTINUOUS
 10
3.704800
 20
2.661560
  0
VERTEX
  8
0
  6
CONTINUOUS
 10
3.725480
 20
2.686640
  0
VERTEX
  8
0
  6
CONTINUOUS
 10
3.730320
 20
1.955360
  0
VERTEX
  8
0
  6
CONTINUOUS
 10
3.709640
 20
1.929840
  0
SEQEND
  8
0
  0
SOLID
  8
0
 62
    15
 10
3.730320
 20
1.955360
 11
3.725480
 21
2.686640
 12
3.752760
 22
1.975600
 13
3.747920
 23
2.706880
  0
POLYLINE
  8
0
  6
CONTINUOUS
 66
     1
 40
0.000000
 41
0.000000
  0
VERTEX
  8
0
  6
CONTINUOUS
 10
3.730320
 20
1.955360
  0
VERTEX
  8
0
  6
CONTINUOUS
 10
3.725480
 20
2.686640
  0
VERTEX
  8
0
  6
CONTINUOUS
 10
3.747920
 20
2.706880
  0
VERTEX
  8
0
  6
CONTINUOUS
 10
3.752760
 20
1.975600
  0
VERTEX
  8
0
  6
CONTINUOUS
 10
3.730320
 20
1.955360
  0
SEQEND
  8
0
  0
SOLID
  8
0
 62
    15
 10
3.752760
 20
1.975600
 11
3.747920
 21
2.706880
 12
3.776520
 22
1.991000
 13
3.771680
 23
2.722280
  0
POLYLINE
  8
0
  6
CONTINUOUS
 66
     1
 40
0.000000
 41
0.000000
  0
VERTEX
  8
0
  6
CONTINUOUS
 10
3.752760
 20
1.975600
  0
VERTEX
  8
0
  6
CONTINUOUS
 10
3.747920
 20
2.706880
  0
VERTEX
  8
0
  6
CONTINUOUS
 10
3.771680
 20
2.722280
  0
VERTEX
  8
0
  6
CONTINUOUS
 10
3.776520
 20
1.991000
  0
VERTEX
  8
0
  6
CONTINUOUS
 10
3.752760
 20
1.975600
  0
SEQEND
  8
0
  0
SOLID
  8
0
 62
    15
 10
3.776520
 20
1.991000
 11
3.771680
 21
2.722280
 12
3.802040
 22
2.002000
 13
3.797200
 23
2.733280
  0
POLYLINE
  8
0
  6
CONTINUOUS
 66
     1
 40
0.000000
 41
0.000000
  0
VERTEX
  8
0
  6
CONTINUOUS
 10
3.776520
 20
1.991000
  0
VERTEX
  8
0
  6
CONTINUOUS
 10
3.771680
 20
2.722280
  0
VERTEX
  8
0
  6
CONTINUOUS
 10
3.797200
 20
2.733280
  0
VERTEX
  8
0
  6
CONTINUOUS
 10
3.802040
 20
2.002000
  0
VERTEX
  8
0
  6
CONTINUOUS
 10
3.776520
 20
1.991000
  0
SEQEND
  8
0
  0
SOLID
  8
0
 62
    15
 10
3.802040
 20
2.002000
 11
3.797200
 21
2.733280
 12
3.828880
 22
2.008600
 13
3.824040
 23
2.739880
  0
POLYLINE
  8
0
  6
CONTINUOUS
 66
     1
 40
0.000000
 41
0.000000
  0
VERTEX
  8
0
  6
CONTINUOUS
 10
3.802040
 20
2.002000
  0
VERTEX
  8
0
  6
CONTINUOUS
 10
3.797200
 20
2.733280
  0
VERTEX
  8
0
  6
CONTINUOUS
 10
3.824040
 20
2.739880
  0
VERTEX
  8
0
  6
CONTINUOUS
 10
3.828880
 20
2.008600
  0
VERTEX
  8
0
  6
CONTINUOUS
 10
3.802040
 20
2.002000
  0
SEQEND
  8
0
  0
SOLID
  8
0
 62
    15
 10
3.828880
 20
2.008600
 11
3.824040
 21
2.739880
 12
3.885200
 22
2.010800
 13
3.880360
 23
2.742520
  0
POLYLINE
  8
0
  6
CONTINUOUS
 66
     1
 40
0.000000
 41
0.000000
  0
VERTEX
  8
0
  6
CONTINUOUS
 10
3.828880
 20
2.008600
  0
VERTEX
  8
0
  6
CONTINUOUS
 10
3.824040
 20
2.739880
  0
VERTEX
  8
0
  6
CONTINUOUS
 10
3.880360
 20
2.742520
  0
VERTEX
  8
0
  6
CONTINUOUS
 10
3.885200
 20
2.010800
  0
VERTEX
  8
0
  6
CONTINUOUS
 10
3.828880
 20
2.008600
  0
SEQEND
  8
0
  0
SOLID
  8
0
 62
    15
 10
3.885200
 20
2.010800
 11
3.880360
 21
2.742520
 12
3.944160
 22
2.000240
 13
3.939320
 23
2.731520
  0
POLYLINE
  8
0
  6
CONTINUOUS
 66
     1
 40
0.000000
 41
0.000000
  0
VERTEX
  8
0
  6
CONTINUOUS
 10
3.885200
 20
2.010800
  0
VERTEX
  8
0
  6
CONTINUOUS
 10
3.880360
 20
2.742520
  0
VERTEX
  8
0
  6
CONTINUOUS
 10
3.939320
 20
2.731520
  0
VERTEX
  8
0
  6
CONTINUOUS
 10
3.944160
 20
2.000240
  0
VERTEX
  8
0
  6
CONTINUOUS
 10
3.885200
 20
2.010800
  0
SEQEND
  8
0
  0
SOLID
  8
0
 62
    15
 10
3.944160
 20
2.000240
 11
3.939320
 21
2.731520
 12
4.004000
 22
1.979120
 13
3.999160
 23
2.710400
  0
POLYLINE
  8
0
  6
CONTINUOUS
 66
     1
 40
0.000000
 41
0.000000
  0
VERTEX
  8
0
  6
CONTINUOUS
 10
3.944160
 20
2.000240
  0
VERTEX
  8
0
  6
CONTINUOUS
 10
3.939320
 20
2.731520
  0
VERTEX
  8
0
  6
CONTINUOUS
 10
3.999160
 20
2.710400
  0
VERTEX
  8
0
  6
CONTINUOUS
 10
4.004000
 20
1.979120
  0
VERTEX
  8
0
  6
CONTINUOUS
 10
3.944160
 20
2.000240
  0
SEQEND
  8
0
  0
SOLID
  8
0
 62
    15
 10
4.004000
 20
1.979120
 11
3.999160
 21
2.710400
 12
4.062960
 22
1.949640
 13
4.058560
 23
2.680920
  0
POLYLINE
  8
0
  6
CONTINUOUS
 66
     1
 40
0.000000
 41
0.000000
  0
VERTEX
  8
0
  6
CONTINUOUS
 10
4.004000
 20
1.979120
  0
VERTEX
  8
0
  6
CONTINUOUS
 10
3.999160
 20
2.710400
  0
VERTEX
  8
0
  6
CONTINUOUS
 10
4.058560
 20
2.680920
  0
VERTEX
  8
0
  6
CONTINUOUS
 10
4.062960
 20
1.949640
  0
VERTEX
  8
0
  6
CONTINUOUS
 10
4.004000
 20
1.979120
  0
SEQEND
  8
0
  0
SOLID
  8
0
 62
    15
 10
4.062960
 20
1.949640
 11
4.058560
 21
2.680920
 12
4.120160
 22
1.914880
 13
4.115320
 23
2.646160
  0
POLYLINE
  8
0
  6
CONTINUOUS
 66
     1
 40
0.000000
 41
0.000000
  0
VERTEX
  8
0
  6
CONTINUOUS
 10
4.062960
 20
1.949640
  0
VERTEX
  8
0
  6
CONTINUOUS
 10
4.058560
 20
2.680920
  0
VERTEX
  8
0
  6
CONTINUOUS
 10
4.115320
 20
2.646160
  0
VERTEX
  8
0
  6
CONTINUOUS
 10
4.120160
 20
1.914880
  0
VERTEX
  8
0
  6
CONTINUOUS
 10
4.062960
 20
1.949640
  0
SEQEND
  8
0
  0
SOLID
  8
0
 62
    15
 10
4.120160
 20
1.914880
 11
4.115320
 21
2.646160
 12
4.178680
 22
1.878360
 13
4.173840
 23
2.609640
  0
POLYLINE
  8
0
  6
CONTINUOUS
 66
     1
 40
0.000000
 41
0.000000
  0
VERTEX
  8
0
  6
CONTINUOUS
 10
4.120160
 20
1.914880
  0
VERTEX
  8
0
  6
CONTINUOUS
 10
4.115320
 20
2.646160
  0
VERTEX
  8
0
  6
CONTINUOUS
 10
4.173840
 20
2.609640
  0
VERTEX
  8
0
  6
CONTINUOUS
 10
4.178680
 20
1.878360
  0
VERTEX
  8
0
  6
CONTINUOUS
 10
4.120160
 20
1.914880
  0
SEQEND
  8
0
  0
SOLID
  8
0
 62
    15
 10
4.178680
 20
1.878360
 11
4.173840
 21
2.609640
 12
4.243800
 22
1.843160
 13
4.238960
 23
2.574440
  0
POLYLINE
  8
0
  6
CONTINUOUS
 66
     1
 40
0.000000
 41
0.000000
  0
VERTEX
  8
0
  6
CONTINUOUS
 10
4.178680
 20
1.878360
  0
VERTEX
  8
0
  6
CONTINUOUS
 10
4.173840
 20
2.609640
  0
VERTEX
  8
0
  6
CONTINUOUS
 10
4.238960
 20
2.574440
  0
VERTEX
  8
0
  6
CONTINUOUS
 10
4.243800
 20
1.843160
  0
VERTEX
  8
0
  6
CONTINUOUS
 10
4.178680
 20
1.878360
  0
SEQEND
  8
0
  0
SOLID
  8
0
 62
    15
 10
4.243800
 20
1.843160
 11
4.238960
 21
2.574440
 12
4.315520
 22
1.810600
 13
4.311120
 23
2.541880
  0
POLYLINE
  8
0
  6
CONTINUOUS
 66
     1
 40
0.000000
 41
0.000000
  0
VERTEX
  8
0
  6
CONTINUOUS
 10
4.243800
 20
1.843160
  0
VERTEX
  8
0
  6
CONTINUOUS
 10
4.238960
 20
2.574440
  0
VERTEX
  8
0
  6
CONTINUOUS
 10
4.311120
 20
2.541880
  0
VERTEX
  8
0
  6
CONTINUOUS
 10
4.315520
 20
1.810600
  0
VERTEX
  8
0
  6
CONTINUOUS
 10
4.243800
 20
1.843160
  0
SEQEND
  8
0
  0
SOLID
  8
0
 62
    15
 10
4.315520
 20
1.810600
 11
4.311120
 21
2.541880
 12
4.394280
 22
1.780680
 13
4.389440
 23
2.511960
  0
POLYLINE
  8
0
  6
CONTINUOUS
 66
     1
 40
0.000000
 41
0.000000
  0
VERTEX
  8
0
  6
CONTINUOUS
 10
4.315520
 20
1.810600
  0
VERTEX
  8
0
  6
CONTINUOUS
 10
4.311120
 20
2.541880
  0
VERTEX
  8
0
  6
CONTINUOUS
 10
4.389440
 20
2.511960
  0
VERTEX
  8
0
  6
CONTINUOUS
 10
4.394280
 20
1.780680
  0
VERTEX
  8
0
  6
CONTINUOUS
 10
4.315520
 20
1.810600
  0
SEQEND
  8
0
  0
SOLID
  8
0
 62
    15
 10
4.394280
 20
1.780680
 11
4.389440
 21
2.511960
 12
4.480520
 22
1.754720
 13
4.475680
 23
2.486000
  0
POLYLINE
  8
0
  6
CONTINUOUS
 66
     1
 40
0.000000
 41
0.000000
  0
VERTEX
  8
0
  6
CONTINUOUS
 10
4.394280
 20
1.780680
  0
VERTEX
  8
0
  6
CONTINUOUS
 10
4.389440
 20
2.511960
  0
VERTEX
  8
0
  6
CONTINUOUS
 10
4.475680
 20
2.486000
  0
VERTEX
  8
0
  6
CONTINUOUS
 10
4.480520
 20
1.754720
  0
VERTEX
  8
0
  6
CONTINUOUS
 10
4.394280
 20
1.780680
  0
SEQEND
  8
0
  0
SOLID
  8
0
 62
    15
 10
4.480520
 20
1.754720
 11
4.475680
 21
2.486000
 12
4.573800
 22
1.732720
 13
4.568960
 23
2.464000
  0
POLYLINE
  8
0
  6
CONTINUOUS
 66
     1
 40
0.000000
 41
0.000000
  0
VERTEX
  8
0
  6
CONTINUOUS
 10
4.480520
 20
1.754720
  0
VERTEX
  8
0
  6
CONTINUOUS
 10
4.475680
 20
2.486000
  0
VERTEX
  8
0
  6
CONTINUOUS
 10
4.568960
 20
2.464000
  0
VERTEX
  8
0
  6
CONTINUOUS
 10
4.573800
 20
1.732720
  0
VERTEX
  8
0
  6
CONTINUOUS
 10
4.480520
 20
1.754720
  0
SEQEND
  8
0
  0
SOLID
  8
0
 62
    15
 10
4.573800
 20
1.732720
 11
4.568960
 21
2.464000
 12
4.675000
 22
1.716000
 13
4.670160
 23
2.447280
  0
POLYLINE
  8
0
  6
CONTINUOUS
 66
     1
 40
0.000000
 41
0.000000
  0
VERTEX
  8
0
  6
CONTINUOUS
 10
4.573800
 20
1.732720
  0
VERTEX
  8
0
  6
CONTINUOUS
 10
4.568960
 20
2.464000
  0
VERTEX
  8
0
  6
CONTINUOUS
 10
4.670160
 20
2.447280
  0
VERTEX
  8
0
  6
CONTINUOUS
 10
4.675000
 20
1.716000
  0
VERTEX
  8
0
  6
CONTINUOUS
 10
4.573800
 20
1.732720
  0
SEQEND
  8
0
  0
SOLID
  8
0
 62
    15
 10
2.859120
 20
2.044240
 11
2.854280
 21
2.775520
 12
3.601840
 22
2.044240
 13
3.597000
 23
2.775520
  0
POLYLINE
  8
0
  6
CONTINUOUS
 66
     1
 40
0.000000
 41
0.000000
  0
VERTEX
  8
0
  6
CONTINUOUS
 10
2.859120
 20
2.044240
  0
VERTEX
  8
0
  6
CONTINUOUS
 10
2.854280
 20
2.775520
  0
VERTEX
  8
0
  6
CONTINUOUS
 10
3.597000
 20
2.775520
  0
VERTEX
  8
0
  6
CONTINUOUS
 10
3.601840
 20
2.044240
  0
VERTEX
  8
0
  6
CONTINUOUS
 10
2.859120
 20
2.044240
  0
SEQEND
  8
0
  0
SOLID
  8
0
 62
    15
 10
4.784120
 20
1.705000
 11
4.779280
 21
2.436720
 12
4.787200
 22
1.738440
 13
4.782360
 23
2.469720
  0
POLYLINE
  8
0
  6
CONTINUOUS
 66
     1
 40
0.000000
 41
0.000000
  0
VERTEX
  8
0
  6
CONTINUOUS
 10
4.784120
 20
1.705000
  0
VERTEX
  8
0
  6
CONTINUOUS
 10
4.779280
 20
2.436720
  0
VERTEX
  8
0
  6
CONTINUOUS
 10
4.782360
 20
2.469720
  0
VERTEX
  8
0
  6
CONTINUOUS
 10
4.787200
 20
1.738440
  0
VERTEX
  8
0
  6
CONTINUOUS
 10
4.784120
 20
1.705000
  0
SEQEND
  8
0
  0
SOLID
  8
0
 62
    15
 10
4.787200
 20
1.738440
 11
4.782360
 21
2.469720
 12
4.796000
 22
1.767480
 13
4.791160
 23
2.498760
  0
POLYLINE
  8
0
  6
CONTINUOUS
 66
     1
 40
0.000000
 41
0.000000
  0
VERTEX
  8
0
  6
CONTINUOUS
 10
4.787200
 20
1.738440
  0
VERTEX
  8
0
  6
CONTINUOUS
 10
4.782360
 20
2.469720
  0
VERTEX
  8
0
  6
CONTINUOUS
 10
4.791160
 20
2.498760
  0
VERTEX
  8
0
  6
CONTINUOUS
 10
4.796000
 20
1.767480
  0
VERTEX
  8
0
  6
CONTINUOUS
 10
4.787200
 20
1.738440
  0
SEQEND
  8
0
  0
SOLID
  8
0
 62
    15
 10
4.796000
 20
1.767480
 11
4.791160
 21
2.498760
 12
4.809640
 22
1.792120
 13
4.804800
 23
2.523400
  0
POLYLINE
  8
0
  6
CONTINUOUS
 66
     1
 40
0.000000
 41
0.000000
  0
VERTEX
  8
0
  6
CONTINUOUS
 10
4.796000
 20
1.767480
  0
VERTEX
  8
0
  6
CONTINUOUS
 10
4.791160
 20
2.498760
  0
VERTEX
  8
0
  6
CONTINUOUS
 10
4.804800
 20
2.523400
  0
VERTEX
  8
0
  6
CONTINUOUS
 10
4.809640
 20
1.792120
  0
VERTEX
  8
0
  6
CONTINUOUS
 10
4.796000
 20
1.767480
  0
SEQEND
  8
0
  0
SOLID
  8
0
 62
    15
 10
4.809640
 20
1.792120
 11
4.804800
 21
2.523400
 12
4.827240
 22
1.812800
 13
4.822400
 23
2.544080
  0
POLYLINE
  8
0
  6
CONTINUOUS
 66
     1
 40
0.000000
 41
0.000000
  0
VERTEX
  8
0
  6
CONTINUOUS
 10
4.809640
 20
1.792120
  0
VERTEX
  8
0
  6
CONTINUOUS
 10
4.804800
 20
2.523400
  0
VERTEX
  8
0
  6
CONTINUOUS
 10
4.822400
 20
2.544080
  0
VERTEX
  8
0
  6
CONTINUOUS
 10
4.827240
 20
1.812800
  0
VERTEX
  8
0
  6
CONTINUOUS
 10
4.809640
 20
1.792120
  0
SEQEND
  8
0
  0
SOLID
  8
0
 62
    15
 10
4.827240
 20
1.812800
 11
4.822400
 21
2.544080
 12
4.848360
 22
1.829080
 13
4.843520
 23
2.560800
  0
POLYLINE
  8
0
  6
CONTINUOUS
 66
     1
 40
0.000000
 41
0.000000
  0
VERTEX
  8
0
  6
CONTINUOUS
 10
4.827240
 20
1.812800
  0
VERTEX
  8
0
  6
CONTINUOUS
 10
4.822400
 20
2.544080
  0
VERTEX
  8
0
  6
CONTINUOUS
 10
4.843520
 20
2.560800
  0
VERTEX
  8
0
  6
CONTINUOUS
 10
4.848360
 20
1.829080
  0
VERTEX
  8
0
  6
CONTINUOUS
 10
4.827240
 20
1.812800
  0
SEQEND
  8
0
  0
SOLID
  8
0
 62
    15
 10
4.848360
 20
1.829080
 11
4.843520
 21
2.560800
 12
4.871680
 22
1.841400
 13
4.866840
 23
2.572680
  0
POLYLINE
  8
0
  6
CONTINUOUS
 66
     1
 40
0.000000
 41
0.000000
  0
VERTEX
  8
0
  6
CONTINUOUS
 10
4.848360
 20
1.829080
  0
VERTEX
  8
0
  6
CONTINUOUS
 10
4.843520
 20
2.560800
  0
VERTEX
  8
0
  6
CONTINUOUS
 10
4.866840
 20
2.572680
  0
VERTEX
  8
0
  6
CONTINUOUS
 10
4.871680
 20
1.841400
  0
VERTEX
  8
0
  6
CONTINUOUS
 10
4.848360
 20
1.829080
  0
SEQEND
  8
0
  0
SOLID
  8
0
 62
    15
 10
4.871680
 20
1.841400
 11
4.866840
 21
2.572680
 12
4.896760
 22
1.849320
 13
4.891920
 23
2.580600
  0
POLYLINE
  8
0
  6
CONTINUOUS
 66
     1
 40
0.000000
 41
0.000000
  0
VERTEX
  8
0
  6
CONTINUOUS
 10
4.871680
 20
1.841400
  0
VERTEX
  8
0
  6
CONTINUOUS
 10
4.866840
 20
2.572680
  0
VERTEX
  8
0
  6
CONTINUOUS
 10
4.891920
 20
2.580600
  0
VERTEX
  8
0
  6
CONTINUOUS
 10
4.896760
 20
1.849320
  0
VERTEX
  8
0
  6
CONTINUOUS
 10
4.871680
 20
1.841400
  0
SEQEND
  8
0
  0
SOLID
  8
0
 62
    15
 10
4.896760
 20
1.849320
 11
4.891920
 21
2.580600
 12
4.922720
 22
1.852840
 13
4.917880
 23
2.584120
  0
POLYLINE
  8
0
  6
CONTINUOUS
 66
     1
 40
0.000000
 41
0.000000
  0
VERTEX
  8
0
  6
CONTINUOUS
 10
4.896760
 20
1.849320
  0
VERTEX
  8
0
  6
CONTINUOUS
 10
4.891920
 20
2.580600
  0
VERTEX
  8
0
  6
CONTINUOUS
 10
4.917880
 20
2.584120
  0
VERTEX
  8
0
  6
CONTINUOUS
 10
4.922720
 20
1.852840
  0
VERTEX
  8
0
  6
CONTINUOUS
 10
4.896760
 20
1.849320
  0
SEQEND
  8
0
  0
SOLID
  8
0
 62
    15
 10
4.922720
 20
1.852840
 11
4.917880
 21
2.584120
 12
4.949120
 22
1.851960
 13
4.944280
 23
2.583240
  0
POLYLINE
  8
0
  6
CONTINUOUS
 66
     1
 40
0.000000
 41
0.000000
  0
VERTEX
  8
0
  6
CONTINUOUS
 10
4.922720
 20
1.852840
  0
VERTEX
  8
0
  6
CONTINUOUS
 10
4.917880
 20
2.584120
  0
VERTEX
  8
0
  6
CONTINUOUS
 10
4.944280
 20
2.583240
  0
VERTEX
  8
0
  6
CONTINUOUS
 10
4.949120
 20
1.851960
  0
VERTEX
  8
0
  6
CONTINUOUS
 10
4.922720
 20
1.852840
  0
SEQEND
  8
0
  0
SOLID
  8
0
 62
    15
 10
4.949120
 20
1.851960
 11
4.944280
 21
2.583240
 12
4.975080
 22
1.846680
 13
4.970240
 23
2.577960
  0
POLYLINE
  8
0
  6
CONTINUOUS
 66
     1
 40
0.000000
 41
0.000000
  0
VERTEX
  8
0
  6
CONTINUOUS
 10
4.949120
 20
1.851960
  0
VERTEX
  8
0
  6
CONTINUOUS
 10
4.944280
 20
2.583240
  0
VERTEX
  8
0
  6
CONTINUOUS
 10
4.970240
 20
2.577960
  0
VERTEX
  8
0
  6
CONTINUOUS
 10
4.975080
 20
1.846680
  0
VERTEX
  8
0
  6
CONTINUOUS
 10
4.949120
 20
1.851960
  0
SEQEND
  8
0
  0
SOLID
  8
0
 62
    15
 10
4.975080
 20
1.846680
 11
4.970240
 21
2.577960
 12
4.999720
 22
1.836560
 13
4.994880
 23
2.568280
  0
POLYLINE
  8
0
  6
CONTINUOUS
 66
     1
 40
0.000000
 41
0.000000
  0
VERTEX
  8
0
  6
CONTINUOUS
 10
4.975080
 20
1.846680
  0
VERTEX
  8
0
  6
CONTINUOUS
 10
4.970240
 20
2.577960
  0
VERTEX
  8
0
  6
CONTINUOUS
 10
4.994880
 20
2.568280
  0
VERTEX
  8
0
  6
CONTINUOUS
 10
4.999720
 20
1.836560
  0
VERTEX
  8
0
  6
CONTINUOUS
 10
4.975080
 20
1.846680
  0
SEQEND
  8
0
  0
SOLID
  8
0
 62
    15
 10
4.999720
 20
1.836560
 11
4.994880
 21
2.568280
 12
5.022160
 22
1.822480
 13
5.017320
 23
2.553760
  0
POLYLINE
  8
0
  6
CONTINUOUS
 66
     1
 40
0.000000
 41
0.000000
  0
VERTEX
  8
0
  6
CONTINUOUS
 10
4.999720
 20
1.836560
  0
VERTEX
  8
0
  6
CONTINUOUS
 10
4.994880
 20
2.568280
  0
VERTEX
  8
0
  6
CONTINUOUS
 10
5.017320
 20
2.553760
  0
VERTEX
  8
0
  6
CONTINUOUS
 10
5.022160
 20
1.822480
  0
VERTEX
  8
0
  6
CONTINUOUS
 10
4.999720
 20
1.836560
  0
SEQEND
  8
0
  0
SOLID
  8
0
 62
    15
 10
5.022160
 20
1.822480
 11
5.017320
 21
2.553760
 12
5.041960
 22
1.804000
 13
5.037120
 23
2.535280
  0
POLYLINE
  8
0
  6
CONTINUOUS
 66
     1
 40
0.000000
 41
0.000000
  0
VERTEX
  8
0
  6
CONTINUOUS
 10
5.022160
 20
1.822480
  0
VERTEX
  8
0
  6
CONTINUOUS
 10
5.017320
 20
2.553760
  0
VERTEX
  8
0
  6
CONTINUOUS
 10
5.037120
 20
2.535280
  0
VERTEX
  8
0
  6
CONTINUOUS
 10
5.041960
 20
1.804000
  0
VERTEX
  8
0
  6
CONTINUOUS
 10
5.022160
 20
1.822480
  0
SEQEND
  8
0
  0
SOLID
  8
0
 62
    15
 10
5.041960
 20
1.804000
 11
5.037120
 21
2.535280
 12
5.057800
 22
1.780680
 13
5.052960
 23
2.511960
  0
POLYLINE
  8
0
  6
CONTINUOUS
 66
     1
 40
0.000000
 41
0.000000
  0
VERTEX
  8
0
  6
CONTINUOUS
 10
5.041960
 20
1.804000
  0
VERTEX
  8
0
  6
CONTINUOUS
 10
5.037120
 20
2.535280
  0
VERTEX
  8
0
  6
CONTINUOUS
 10
5.052960
 20
2.511960
  0
VERTEX
  8
0
  6
CONTINUOUS
 10
5.057800
 20
1.780680
  0
VERTEX
  8
0
  6
CONTINUOUS
 10
5.041960
 20
1.804000
  0
SEQEND
  8
0
  0
SOLID
  8
0
 62
    15
 10
5.057800
 20
1.780680
 11
5.052960
 21
2.511960
 12
5.069680
 22
1.752960
 13
5.064840
 23
2.484240
  0
POLYLINE
  8
0
  6
CONTINUOUS
 66
     1
 40
0.000000
 41
0.000000
  0
VERTEX
  8
0
  6
CONTINUOUS
 10
5.057800
 20
1.780680
  0
VERTEX
  8
0
  6
CONTINUOUS
 10
5.052960
 20
2.511960
  0
VERTEX
  8
0
  6
CONTINUOUS
 10
5.064840
 20
2.484240
  0
VERTEX
  8
0
  6
CONTINUOUS
 10
5.069680
 20
1.752960
  0
VERTEX
  8
0
  6
CONTINUOUS
 10
5.057800
 20
1.780680
  0
SEQEND
  8
0
  0
SOLID
  8
0
 62
    15
 10
5.069680
 20
1.752960
 11
5.064840
 21
2.484240
 12
5.076720
 22
1.720400
 13
5.071880
 23
2.452120
  0
POLYLINE
  8
0
  6
CONTINUOUS
 66
     1
 40
0.000000
 41
0.000000
  0
VERTEX
  8
0
  6
CONTINUOUS
 10
5.069680
 20
1.752960
  0
VERTEX
  8
0
  6
CONTINUOUS
 10
5.064840
 20
2.484240
  0
VERTEX
  8
0
  6
CONTINUOUS
 10
5.071880
 20
2.452120
  0
VERTEX
  8
0
  6
CONTINUOUS
 10
5.076720
 20
1.720400
  0
VERTEX
  8
0
  6
CONTINUOUS
 10
5.069680
 20
1.752960
  0
SEQEND
  8
0
  0
SOLID
  8
0
 62
    15
 10
6.759720
 20
1.628000
 11
6.754880
 21
2.359720
 12
7.892280
 22
1.628000
 13
7.887440
 23
2.359720
  0
POLYLINE
  8
0
  6
CONTINUOUS
 66
     1
 40
0.000000
 41
0.000000
  0
VERTEX
  8
0
  6
CONTINUOUS
 10
6.759720
 20
1.628000
  0
VERTEX
  8
0
  6
CONTINUOUS
 10
6.754880
 20
2.359720
  0
VERTEX
  8
0
  6
CONTINUOUS
 10
7.887440
 20
2.359720
  0
VERTEX
  8
0
  6
CONTINUOUS
 10
7.892280
 20
1.628000
  0
VERTEX
  8
0
  6
CONTINUOUS
 10
6.759720
 20
1.628000
  0
SEQEND
  8
0
  0
SOLID
  8
0
 62
    15
 10
5.076720
 20
1.720400
 11
5.071880
 21
2.452120
 12
6.759720
 22
1.720400
 13
6.754880
 23
2.452120
  0
POLYLINE
  8
0
  6
CONTINUOUS
 66
     1
 40
0.000000
 41
0.000000
  0
VERTEX
  8
0
  6
CONTINUOUS
 10
5.076720
 20
1.720400
  0
VERTEX
  8
0
  6
CONTINUOUS
 10
5.071880
 20
2.452120
  0
VERTEX
  8
0
  6
CONTINUOUS
 10
6.754880
 20
2.452120
  0
VERTEX
  8
0
  6
CONTINUOUS
 10
6.759720
 20
1.720400
  0
VERTEX
  8
0
  6
CONTINUOUS
 10
5.076720
 20
1.720400
  0
SEQEND
  8
0
  0
SOLID
  8
0
 62
    15
 10
2.858680
 20
1.221440
 11
2.853840
 21
1.952720
 12
2.858680
 22
2.044240
 13
2.853840
 23
2.775520
  0
POLYLINE
  8
0
  6
CONTINUOUS
 66
     1
 40
0.000000
 41
0.000000
  0
VERTEX
  8
0
  6
CONTINUOUS
 10
2.858680
 20
1.221440
  0
VERTEX
  8
0
  6
CONTINUOUS
 10
2.853840
 20
1.952720
  0
VERTEX
  8
0
  6
CONTINUOUS
 10
2.853840
 20
2.775520
  0
VERTEX
  8
0
  6
CONTINUOUS
 10
2.858680
 20
2.044240
  0
VERTEX
  8
0
  6
CONTINUOUS
 10
2.858680
 20
1.221440
  0
SEQEND
  8
0
  0
SOLID
  8
0
 62
    15
 10
2.858680
 20
2.044240
 11
2.853840
 21
2.775520
 12
2.859120
 22
2.044240
 13
2.854280
 23
2.775520
  0
POLYLINE
  8
0
  6
CONTINUOUS
 66
     1
 40
0.000000
 41
0.000000
  0
VERTEX
  8
0
  6
CONTINUOUS
 10
2.858680
 20
2.044240
  0
VERTEX
  8
0
  6
CONTINUOUS
 10
2.853840
 20
2.775520
  0
VERTEX
  8
0
  6
CONTINUOUS
 10
2.854280
 20
2.775520
  0
VERTEX
  8
0
  6
CONTINUOUS
 10
2.859120
 20
2.044240
  0
VERTEX
  8
0
  6
CONTINUOUS
 10
2.858680
 20
2.044240
  0
SEQEND
  8
0
  0
POLYLINE
  8
0
  6
CONTINUOUS
 66
     1
 40
0.000000
 41
0.000000
  0
VERTEX
  8
0
  6
CONTINUOUS
 10
2.859120
 20
2.044240
  0
VERTEX
  8
0
  6
CONTINUOUS
 10
3.601840
 20
2.044240
  0
VERTEX
  8
0
  6
CONTINUOUS
 10
3.608000
 20
1.899480
  0
VERTEX
  8
0
  6
CONTINUOUS
 10
3.691160
 20
1.899480
  0
VERTEX
  8
0
  6
CONTINUOUS
 10
3.709640
 20
1.929840
  0
VERTEX
  8
0
  6
CONTINUOUS
 10
3.730320
 20
1.955360
  0
VERTEX
  8
0
  6
CONTINUOUS
 10
3.752760
 20
1.975600
  0
VERTEX
  8
0
  6
CONTINUOUS
 10
3.776520
 20
1.991000
  0
VERTEX
  8
0
  6
CONTINUOUS
 10
3.802040
 20
2.002000
  0
VERTEX
  8
0
  6
CONTINUOUS
 10
3.828880
 20
2.008600
  0
VERTEX
  8
0
  6
CONTINUOUS
 10
3.885200
 20
2.010800
  0
VERTEX
  8
0
  6
CONTINUOUS
 10
3.944160
 20
2.000240
  0
VERTEX
  8
0
  6
CONTINUOUS
 10
4.004000
 20
1.979120
  0
VERTEX
  8
0
  6
CONTINUOUS
 10
4.062960
 20
1.949640
  0
VERTEX
  8
0
  6
CONTINUOUS
 10
4.120160
 20
1.914880
  0
VERTEX
  8
0
  6
CONTINUOUS
 10
4.178680
 20
1.878360
  0
VERTEX
  8
0
  6
CONTINUOUS
 10
4.243800
 20
1.843160
  0
VERTEX
  8
0
  6
CONTINUOUS
 10
4.315520
 20
1.810600
  0
VERTEX
  8
0
  6
CONTINUOUS
 10
4.394280
 20
1.780680
  0
VERTEX
  8
0
  6
CONTINUOUS
 10
4.480520
 20
1.754720
  0
VERTEX
  8
0
  6
CONTINUOUS
 10
4.573800
 20
1.732720
  0
VERTEX
  8
0
  6
CONTINUOUS
 10
4.675000
 20
1.716000
  0
VERTEX
  8
0
  6
CONTINUOUS
 10
4.784120
 20
1.705000
  0
VERTEX
  8
0
  6
CONTINUOUS
 10
4.787200
 20
1.738440
  0
VERTEX
  8
0
  6
CONTINUOUS
 10
4.796000
 20
1.767480
  0
VERTEX
  8
0
  6
CONTINUOUS
 10
4.809640
 20
1.792120
  0
VERTEX
  8
0
  6
CONTINUOUS
 10
4.827240
 20
1.812800
  0
VERTEX
  8
0
  6
CONTINUOUS
 10
4.848360
 20
1.829080
  0
VERTEX
  8
0
  6
CONTINUOUS
 10
4.871680
 20
1.841400
  0
VERTEX
  8
0
  6
CONTINUOUS
 10
4.896760
 20
1.849320
  0
VERTEX
  8
0
  6
CONTINUOUS
 10
4.922720
 20
1.852840
  0
VERTEX
  8
0
  6
CONTINUOUS
 10
4.949120
 20
1.851960
  0
VERTEX
  8
0
  6
CONTINUOUS
 10
4.975080
 20
1.846680
  0
VERTEX
  8
0
  6
CONTINUOUS
 10
4.999720
 20
1.836560
  0
VERTEX
  8
0
  6
CONTINUOUS
 10
5.022160
 20
1.822480
  0
VERTEX
  8
0
  6
CONTINUOUS
 10
5.041960
 20
1.804000
  0
VERTEX
  8
0
  6
CONTINUOUS
 10
5.057800
 20
1.780680
  0
VERTEX
  8
0
  6
CONTINUOUS
 10
5.069680
 20
1.752960
  0
VERTEX
  8
0
  6
CONTINUOUS
 10
5.076720
 20
1.720400
  0
VERTEX
  8
0
  6
CONTINUOUS
 10
6.759720
 20
1.720400
  0
VERTEX
  8
0
  6
CONTINUOUS
 10
6.759720
 20
1.628000
  0
VERTEX
  8
0
  6
CONTINUOUS
 10
7.892280
 20
1.628000
  0
VERTEX
  8
0
  6
CONTINUOUS
 10
7.892280
 20
1.221440
  0
VERTEX
  8
0
  6
CONTINUOUS
 10
2.858680
 20
1.221440
  0
VERTEX
  8
0
  6
CONTINUOUS
 10
2.858680
 20
2.044240
  0
VERTEX
  8
0
  6
CONTINUOUS
 10
2.859120
 20
2.044240
  0
SEQEND
  8
0
  0
TEXT
  8
0
 10
5.030960
 20
0.938520
 40
0.138085
  1
BA  1076
 41
1.000000
  7
SN0
 71
     0
 72
     5
 11
5.714425
 21
0.938520
  0
TEXT
  8
0
 10
4.782800
 20
0.747120
 40
0.138085
  1
13/16" x 5-1/16"
 41
1.000000
  7
SN0
 71
     0
 72
     5
 11
5.961822
 21
0.747120
  0
POLYLINE
  8
0
  6
CONTINUOUS
 66
     1
 40
0.014080
 41
0.014080
  0
VERTEX
  8
0
  6
CONTINUOUS
 10
2.918960
 20
4.233680
  0
VERTEX
  8
0
  6
CONTINUOUS
 10
3.661680
 20
4.233680
  0
VERTEX
  8
0
  6
CONTINUOUS
 10
3.667840
 20
4.088920
  0
VERTEX
  8
0
  6
CONTINUOUS
 10
3.751000
 20
4.088920
  0
VERTEX
  8
0
  6
CONTINUOUS
 10
3.769480
 20
4.119720
  0
VERTEX
  8
0
  6
CONTINUOUS
 10
3.790160
 20
4.144800
  0
VERTEX
  8
0
  6
CONTINUOUS
 10
3.812600
 20
4.165040
  0
VERTEX
  8
0
  6
CONTINUOUS
 10
3.836800
 20
4.180440
  0
VERTEX
  8
0
  6
CONTINUOUS
 10
3.861880
 20
4.191440
  0
VERTEX
  8
0
  6
CONTINUOUS
 10
3.888720
 20
4.198480
  0
VERTEX
  8
0
  6
CONTINUOUS
 10
3.916440
 20
4.201120
  0
VERTEX
  8
0
  6
CONTINUOUS
 10
3.945040
 20
4.200680
  0
VERTEX
  8
0
  6
CONTINUOUS
 10
3.989040
 20
4.193640
  0
VERTEX
  8
0
  6
CONTINUOUS
 10
4.033920
 20
4.180440
  0
VERTEX
  8
0
  6
CONTINUOUS
 10
4.063840
 20
4.168560
  0
VERTEX
  8
0
  6
CONTINUOUS
 10
4.093320
 20
4.154920
  0
VERTEX
  8
0
  6
CONTINUOUS
 10
4.151840
 20
4.122360
  0
VERTEX
  8
0
  6
CONTINUOUS
 10
4.238520
 20
4.067800
  0
VERTEX
  8
0
  6
CONTINUOUS
 10
4.303640
 20
4.033040
  0
VERTEX
  8
0
  6
CONTINUOUS
 10
4.375360
 20
4.000040
  0
VERTEX
  8
0
  6
CONTINUOUS
 10
4.454120
 20
3.970560
  0
VERTEX
  8
0
  6
CONTINUOUS
 10
4.540360
 20
3.944160
  0
VERTEX
  8
0
  6
CONTINUOUS
 10
4.586120
 20
3.932720
  0
VERTEX
  8
0
  6
CONTINUOUS
 10
4.683360
 20
3.913360
  0
VERTEX
  8
0
  6
CONTINUOUS
 10
4.761240
 20
3.902360
  0
VERTEX
  8
0
  6
CONTINUOUS
 10
4.843960
 20
3.894880
  0
VERTEX
  8
0
  6
CONTINUOUS
 10
4.844840
 20
3.912040
  0
VERTEX
  8
0
  6
CONTINUOUS
 10
4.847040
 20
3.927880
  0
VERTEX
  8
0
  6
CONTINUOUS
 10
4.855840
 20
3.956920
  0
VERTEX
  8
0
  6
CONTINUOUS
 10
4.869480
 20
3.982000
  0
VERTEX
  8
0
  6
CONTINUOUS
 10
4.887080
 20
4.002680
  0
VERTEX
  8
0
  6
CONTINUOUS
 10
4.908200
 20
4.018960
  0
VERTEX
  8
0
  6
CONTINUOUS
 10
4.931520
 20
4.030840
  0
VERTEX
  8
0
  6
CONTINUOUS
 10
4.943840
 20
4.035680
  0
VERTEX
  8
0
  6
CONTINUOUS
 10
4.969360
 20
4.040960
  0
VERTEX
  8
0
  6
CONTINUOUS
 10
4.995760
 20
4.042280
  0
VERTEX
  8
0
  6
CONTINUOUS
 10
5.022160
 20
4.039200
  0
VERTEX
  8
0
  6
CONTINUOUS
 10
5.047240
 20
4.031720
  0
VERTEX
  8
0
  6
CONTINUOUS
 10
5.071000
 20
4.019840
  0
VERTEX
  8
0
  6
CONTINUOUS
 10
5.092120
 20
4.003560
  0
VERTEX
  8
0
  6
CONTINUOUS
 10
5.110160
 20
3.982440
  0
VERTEX
  8
0
  6
CONTINUOUS
 10
5.124240
 20
3.956920
  0
VERTEX
  8
0
  6
CONTINUOUS
 10
5.133920
 20
3.927000
  0
VERTEX
  8
0
  6
CONTINUOUS
 10
5.136560
 20
3.910280
  0
VERTEX
  8
0
  6
CONTINUOUS
 10
6.819560
 20
3.910280
  0
VERTEX
  8
0
  6
CONTINUOUS
 10
6.819560
 20
3.817880
  0
VERTEX
  8
0
  6
CONTINUOUS
 10
7.952120
 20
3.817880
  0
VERTEX
  8
0
  6
CONTINUOUS
 10
7.952120
 20
3.411320
  0
VERTEX
  8
0
  6
CONTINUOUS
 10
2.918520
 20
3.411320
  0
VERTEX
  8
0
  6
CONTINUOUS
 10
2.918960
 20
4.233680
  0
SEQEND
  8
0
  0
TEXT
  8
0
 10
3.392840
 20
3.715800
 40
0.138085
  1
BA  1076
 41
1.000000
  7
SN0
 71
     0
 72
     5
 11
4.076305
 21
3.715800
  0
TEXT
  8
0
 10
3.144680
 20
3.523960
 40
0.138085
  1
13/16" x 5-1/16"
 41
1.000000
  7
SN0
 71
     0
 72
     5
 11
4.323702
 21
3.523960
  0
ENDSEC
  0
EOF
