  0
SECTION
  2
HEADER
  9
$ACADVER
  1
AC1006
  9
$EXTMIN
 10
2.091320
 20
0.979880
  9
$EXTMAX
 10
6.343920
 20
7.912520
  9
$LTSCALE
 40
0.044000
  9
$PDMODE
 70
    35
  9
$PDSIZE
 40
0.035200
  0
ENDSEC
  0
SECTION
  2
TABLES
  0
TABLE
  2
LTYPE
 70
     9
  0
LTYPE
  2
CONTINUOUS
 70
    64
  3
Solid line
 72
    65
 73
     0
 40
0.000000
  0
LTYPE
  2
DASHED
 70
    64
  3
__ __ __ __ __ __ __ __ __ __ __ __ __ __ __
 72
    65
 73
     2
 40
0.000330
 49
0.000220
 49
-0.000110
  0
LTYPE
  2
HIDDEN
 70
    64
  3
 _ _ _ _ _ _ _ _ _ _ _ _ _ _ _ _ _ _ _ _ _ _
 72
    65
 73
     2
 40
0.000165
 49
0.000110
 49
-0.000055
  0
LTYPE
  2
CENTER
 70
    64
  3
____ _ ____ _ ____ _ ____ _ ____ _ ____ _ ____
 72
    65
 73
     4
 40
0.000880
 49
0.000550
 49
-0.000110
 49
0.000110
 49
-0.000110
  0
LTYPE
  2
PHANTOM
 70
    64
  3
_____ _ _ _____ _ _ _____ _ _ _____ _ _ ____
 72
    65
 73
     6
 40
0.001100
 49
0.000550
 49
-0.000110
 49
0.000110
 49
-0.000110
 49
0.000110
 49
-0.000110
  0
LTYPE
  2
DOT
 70
    64
  3
...............................................
 72
    65
 73
     2
 40
0.000110
 49
0.000000
 49
-0.000110
  0
LTYPE
  2
DASHDOT
 70
    64
  3
__ . __ . __ . __ . __ . __ . __ . __ . __ . __
 72
    65
 73
     4
 40
0.000440
 49
0.000220
 49
-0.000110
 49
0.000000
 49
-0.000110
  0
LTYPE
  2
BORDER
 70
    64
  3
__ __ . __ __ . __ __ . __ __ . __ __ . __ __
 72
    65
 73
     6
 40
0.000770
 49
0.000220
 49
-0.000110
 49
0.000220
 49
-0.000110
 49
0.000000
 49
-0.000110
  0
LTYPE
  2
DIVIDE
 70
    64
  3
__ . . __ . . __ . . __ . . __ . . __ . . __
 72
    65
 73
     6
 40
0.000550
 49
0.000220
 49
-0.000110
 49
0.000000
 49
-0.000110
 49
0.000000
 49
-0.000110
  0
LTYPE
  2
DOTDOT
 70
    64
  3
 . .  . .  . .  . .  . .  . . 
 72
    65
 73
     5
 40
0.000242
 49
-0.000110
 49
0.000000
 49
-0.000110
 49
0.000000
 49
-0.000110
  0
ENDTAB
  0
TABLE
  2
STYLE
 70
     2
  0
STYLE
 70
     0
  2
SN0
 40
0.000000
 41
0.000440
 50
0.000000
 71
     0
 42
0.000000
  3
ROMAND
  0
STYLE
 70
    68
  2
SV0
 40
0.000000
 41
0.000440
 50
0.000000
 71
     0
 42
0.000000
  3
ROMAND
  0
ENDTAB
  0
TABLE
  2
LAYER
 70
     3
  0
LAYER
  2
FOREGROUND
 70
    64
 62
     7
  6
CONTINUOUS
  0
LAYER
  2
BACKGROUND
 70
    65
 62
    -7
  6
CONTINUOUS
  0
LAYER
  2
0
 70
    64
 62
     7
  6
CONTINUOUS
  0
ENDTAB
  0
ENDSEC
  0
SECTION
  2
ENTITIES
  0
POLYLINE
  8
FOREGROUND
  6
CONTINUOUS
 66
     1
 40
0.000000
 41
0.000000
  0
VERTEX
  8
FOREGROUND
  6
CONTINUOUS
 10
0.000000
 20
8.892400
  0
VERTEX
  8
FOREGROUND
  6
CONTINUOUS
 10
8.499920
 20
8.892400
  0
VERTEX
  8
FOREGROUND
  6
CONTINUOUS
 10
8.499920
 20
-2.107600
  0
VERTEX
  8
FOREGROUND
  6
CONTINUOUS
 10
0.000000
 20
-2.107600
  0
VERTEX
  8
FOREGROUND
  6
CONTINUOUS
 10
0.000000
 20
8.892400
  0
SEQEND
  8
0
  0
POLYLINE
  8
FOREGROUND
  6
CONTINUOUS
 66
     1
 40
0.000000
 41
0.000000
  0
VERTEX
  8
FOREGROUND
  6
CONTINUOUS
 10
0.000000
 20
8.892400
  0
VERTEX
  8
FOREGROUND
  6
CONTINUOUS
 10
8.499920
 20
8.892400
  0
VERTEX
  8
FOREGROUND
  6
CONTINUOUS
 10
8.499920
 20
-2.107600
  0
VERTEX
  8
FOREGROUND
  6
CONTINUOUS
 10
0.000000
 20
-2.107600
  0
VERTEX
  8
FOREGROUND
  6
CONTINUOUS
 10
0.000000
 20
8.892400
  0
SEQEND
  8
0
  0
SOLID
  8
0
 62
    15
 10
4.079680
 20
4.150520
 11
4.715920
 21
4.534200
 12
4.103880
 22
4.058560
 13
4.739680
 23
4.442240
  0
POLYLINE
  8
0
  6
CONTINUOUS
 66
     1
 40
0.000000
 41
0.000000
  0
VERTEX
  8
0
  6
CONTINUOUS
 10
4.079680
 20
4.150520
  0
VERTEX
  8
0
  6
CONTINUOUS
 10
4.715920
 20
4.534200
  0
VERTEX
  8
0
  6
CONTINUOUS
 10
4.739680
 20
4.442240
  0
VERTEX
  8
0
  6
CONTINUOUS
 10
4.103880
 20
4.058560
  0
VERTEX
  8
0
  6
CONTINUOUS
 10
4.079680
 20
4.150520
  0
SEQEND
  8
0
  0
SOLID
  8
0
 62
    15
 10
3.836800
 20
5.728360
 11
4.473040
 21
6.112040
 12
3.840760
 22
5.657080
 13
4.477000
 23
6.040760
  0
POLYLINE
  8
0
  6
CONTINUOUS
 66
     1
 40
0.000000
 41
0.000000
  0
VERTEX
  8
0
  6
CONTINUOUS
 10
3.836800
 20
5.728360
  0
VERTEX
  8
0
  6
CONTINUOUS
 10
4.473040
 20
6.112040
  0
VERTEX
  8
0
  6
CONTINUOUS
 10
4.477000
 20
6.040760
  0
VERTEX
  8
0
  6
CONTINUOUS
 10
3.840760
 20
5.657080
  0
VERTEX
  8
0
  6
CONTINUOUS
 10
3.836800
 20
5.728360
  0
SEQEND
  8
0
  0
SOLID
  8
0
 62
    15
 10
3.840760
 20
5.657080
 11
4.477000
 21
6.040760
 12
3.852640
 22
5.593720
 13
4.488880
 23
5.977400
  0
POLYLINE
  8
0
  6
CONTINUOUS
 66
     1
 40
0.000000
 41
0.000000
  0
VERTEX
  8
0
  6
CONTINUOUS
 10
3.840760
 20
5.657080
  0
VERTEX
  8
0
  6
CONTINUOUS
 10
4.477000
 20
6.040760
  0
VERTEX
  8
0
  6
CONTINUOUS
 10
4.488880
 20
5.977400
  0
VERTEX
  8
0
  6
CONTINUOUS
 10
3.852640
 20
5.593720
  0
VERTEX
  8
0
  6
CONTINUOUS
 10
3.840760
 20
5.657080
  0
SEQEND
  8
0
  0
SOLID
  8
0
 62
    15
 10
3.852640
 20
5.593720
 11
4.488880
 21
5.977400
 12
3.871120
 22
5.538280
 13
4.507360
 23
5.921960
  0
POLYLINE
  8
0
  6
CONTINUOUS
 66
     1
 40
0.000000
 41
0.000000
  0
VERTEX
  8
0
  6
CONTINUOUS
 10
3.852640
 20
5.593720
  0
VERTEX
  8
0
  6
CONTINUOUS
 10
4.488880
 20
5.977400
  0
VERTEX
  8
0
  6
CONTINUOUS
 10
4.507360
 20
5.921960
  0
VERTEX
  8
0
  6
CONTINUOUS
 10
3.871120
 20
5.538280
  0
VERTEX
  8
0
  6
CONTINUOUS
 10
3.852640
 20
5.593720
  0
SEQEND
  8
0
  0
SOLID
  8
0
 62
    15
 10
3.871120
 20
5.538280
 11
4.507360
 21
5.921960
 12
3.894880
 22
5.490760
 13
4.531120
 23
5.874880
  0
POLYLINE
  8
0
  6
CONTINUOUS
 66
     1
 40
0.000000
 41
0.000000
  0
VERTEX
  8
0
  6
CONTINUOUS
 10
3.871120
 20
5.538280
  0
VERTEX
  8
0
  6
CONTINUOUS
 10
4.507360
 20
5.921960
  0
VERTEX
  8
0
  6
CONTINUOUS
 10
4.531120
 20
5.874880
  0
VERTEX
  8
0
  6
CONTINUOUS
 10
3.894880
 20
5.490760
  0
VERTEX
  8
0
  6
CONTINUOUS
 10
3.871120
 20
5.538280
  0
SEQEND
  8
0
  0
SOLID
  8
0
 62
    15
 10
3.894880
 20
5.490760
 11
4.531120
 21
5.874880
 12
3.923040
 22
5.452040
 13
4.559280
 23
5.835720
  0
POLYLINE
  8
0
  6
CONTINUOUS
 66
     1
 40
0.000000
 41
0.000000
  0
VERTEX
  8
0
  6
CONTINUOUS
 10
3.894880
 20
5.490760
  0
VERTEX
  8
0
  6
CONTINUOUS
 10
4.531120
 20
5.874880
  0
VERTEX
  8
0
  6
CONTINUOUS
 10
4.559280
 20
5.835720
  0
VERTEX
  8
0
  6
CONTINUOUS
 10
3.923040
 20
5.452040
  0
VERTEX
  8
0
  6
CONTINUOUS
 10
3.894880
 20
5.490760
  0
SEQEND
  8
0
  0
SOLID
  8
0
 62
    15
 10
3.923040
 20
5.452040
 11
4.559280
 21
5.835720
 12
3.954720
 22
5.421240
 13
4.590960
 23
5.804920
  0
POLYLINE
  8
0
  6
CONTINUOUS
 66
     1
 40
0.000000
 41
0.000000
  0
VERTEX
  8
0
  6
CONTINUOUS
 10
3.923040
 20
5.452040
  0
VERTEX
  8
0
  6
CONTINUOUS
 10
4.559280
 20
5.835720
  0
VERTEX
  8
0
  6
CONTINUOUS
 10
4.590960
 20
5.804920
  0
VERTEX
  8
0
  6
CONTINUOUS
 10
3.954720
 20
5.421240
  0
VERTEX
  8
0
  6
CONTINUOUS
 10
3.923040
 20
5.452040
  0
SEQEND
  8
0
  0
SOLID
  8
0
 62
    15
 10
3.954720
 20
5.421240
 11
4.590960
 21
5.804920
 12
3.988160
 22
5.398800
 13
4.624400
 23
5.782920
  0
POLYLINE
  8
0
  6
CONTINUOUS
 66
     1
 40
0.000000
 41
0.000000
  0
VERTEX
  8
0
  6
CONTINUOUS
 10
3.954720
 20
5.421240
  0
VERTEX
  8
0
  6
CONTINUOUS
 10
4.590960
 20
5.804920
  0
VERTEX
  8
0
  6
CONTINUOUS
 10
4.624400
 20
5.782920
  0
VERTEX
  8
0
  6
CONTINUOUS
 10
3.988160
 20
5.398800
  0
VERTEX
  8
0
  6
CONTINUOUS
 10
3.954720
 20
5.421240
  0
SEQEND
  8
0
  0
SOLID
  8
0
 62
    15
 10
3.988160
 20
5.398800
 11
4.624400
 21
5.782920
 12
4.022920
 22
5.385160
 13
4.659160
 23
5.769280
  0
POLYLINE
  8
0
  6
CONTINUOUS
 66
     1
 40
0.000000
 41
0.000000
  0
VERTEX
  8
0
  6
CONTINUOUS
 10
3.988160
 20
5.398800
  0
VERTEX
  8
0
  6
CONTINUOUS
 10
4.624400
 20
5.782920
  0
VERTEX
  8
0
  6
CONTINUOUS
 10
4.659160
 20
5.769280
  0
VERTEX
  8
0
  6
CONTINUOUS
 10
4.022920
 20
5.385160
  0
VERTEX
  8
0
  6
CONTINUOUS
 10
3.988160
 20
5.398800
  0
SEQEND
  8
0
  0
SOLID
  8
0
 62
    15
 10
4.022920
 20
5.385160
 11
4.659160
 21
5.769280
 12
4.022920
 22
5.282200
 13
4.659160
 23
5.666320
  0
POLYLINE
  8
0
  6
CONTINUOUS
 66
     1
 40
0.000000
 41
0.000000
  0
VERTEX
  8
0
  6
CONTINUOUS
 10
4.022920
 20
5.385160
  0
VERTEX
  8
0
  6
CONTINUOUS
 10
4.659160
 20
5.769280
  0
VERTEX
  8
0
  6
CONTINUOUS
 10
4.659160
 20
5.666320
  0
VERTEX
  8
0
  6
CONTINUOUS
 10
4.022920
 20
5.282200
  0
VERTEX
  8
0
  6
CONTINUOUS
 10
4.022920
 20
5.385160
  0
SEQEND
  8
0
  0
SOLID
  8
0
 62
    15
 10
4.022920
 20
5.282200
 11
4.659160
 21
5.666320
 12
4.099480
 22
5.271200
 13
4.735720
 23
5.655320
  0
POLYLINE
  8
0
  6
CONTINUOUS
 66
     1
 40
0.000000
 41
0.000000
  0
VERTEX
  8
0
  6
CONTINUOUS
 10
4.022920
 20
5.282200
  0
VERTEX
  8
0
  6
CONTINUOUS
 10
4.659160
 20
5.666320
  0
VERTEX
  8
0
  6
CONTINUOUS
 10
4.735720
 20
5.655320
  0
VERTEX
  8
0
  6
CONTINUOUS
 10
4.099480
 20
5.271200
  0
VERTEX
  8
0
  6
CONTINUOUS
 10
4.022920
 20
5.282200
  0
SEQEND
  8
0
  0
SOLID
  8
0
 62
    15
 10
4.099480
 20
5.271200
 11
4.735720
 21
5.655320
 12
4.165480
 22
5.250520
 13
4.801720
 23
5.634200
  0
POLYLINE
  8
0
  6
CONTINUOUS
 66
     1
 40
0.000000
 41
0.000000
  0
VERTEX
  8
0
  6
CONTINUOUS
 10
4.099480
 20
5.271200
  0
VERTEX
  8
0
  6
CONTINUOUS
 10
4.735720
 20
5.655320
  0
VERTEX
  8
0
  6
CONTINUOUS
 10
4.801720
 20
5.634200
  0
VERTEX
  8
0
  6
CONTINUOUS
 10
4.165480
 20
5.250520
  0
VERTEX
  8
0
  6
CONTINUOUS
 10
4.099480
 20
5.271200
  0
SEQEND
  8
0
  0
SOLID
  8
0
 62
    15
 10
4.165480
 20
5.250520
 11
4.801720
 21
5.634200
 12
4.220920
 22
5.221040
 13
4.856720
 23
5.604720
  0
POLYLINE
  8
0
  6
CONTINUOUS
 66
     1
 40
0.000000
 41
0.000000
  0
VERTEX
  8
0
  6
CONTINUOUS
 10
4.165480
 20
5.250520
  0
VERTEX
  8
0
  6
CONTINUOUS
 10
4.801720
 20
5.634200
  0
VERTEX
  8
0
  6
CONTINUOUS
 10
4.856720
 20
5.604720
  0
VERTEX
  8
0
  6
CONTINUOUS
 10
4.220920
 20
5.221040
  0
VERTEX
  8
0
  6
CONTINUOUS
 10
4.165480
 20
5.250520
  0
SEQEND
  8
0
  0
SOLID
  8
0
 62
    15
 10
4.220920
 20
5.221040
 11
4.856720
 21
5.604720
 12
4.265800
 22
5.184080
 13
4.901600
 23
5.568200
  0
POLYLINE
  8
0
  6
CONTINUOUS
 66
     1
 40
0.000000
 41
0.000000
  0
VERTEX
  8
0
  6
CONTINUOUS
 10
4.220920
 20
5.221040
  0
VERTEX
  8
0
  6
CONTINUOUS
 10
4.856720
 20
5.604720
  0
VERTEX
  8
0
  6
CONTINUOUS
 10
4.901600
 20
5.568200
  0
VERTEX
  8
0
  6
CONTINUOUS
 10
4.265800
 20
5.184080
  0
VERTEX
  8
0
  6
CONTINUOUS
 10
4.220920
 20
5.221040
  0
SEQEND
  8
0
  0
SOLID
  8
0
 62
    15
 10
4.265800
 20
5.184080
 11
4.901600
 21
5.568200
 12
4.300120
 22
5.142280
 13
4.936360
 23
5.525960
  0
POLYLINE
  8
0
  6
CONTINUOUS
 66
     1
 40
0.000000
 41
0.000000
  0
VERTEX
  8
0
  6
CONTINUOUS
 10
4.265800
 20
5.184080
  0
VERTEX
  8
0
  6
CONTINUOUS
 10
4.901600
 20
5.568200
  0
VERTEX
  8
0
  6
CONTINUOUS
 10
4.936360
 20
5.525960
  0
VERTEX
  8
0
  6
CONTINUOUS
 10
4.300120
 20
5.142280
  0
VERTEX
  8
0
  6
CONTINUOUS
 10
4.265800
 20
5.184080
  0
SEQEND
  8
0
  0
SOLID
  8
0
 62
    15
 10
4.300120
 20
5.142280
 11
4.936360
 21
5.525960
 12
4.324760
 22
5.095640
 13
4.961000
 23
5.479760
  0
POLYLINE
  8
0
  6
CONTINUOUS
 66
     1
 40
0.000000
 41
0.000000
  0
VERTEX
  8
0
  6
CONTINUOUS
 10
4.300120
 20
5.142280
  0
VERTEX
  8
0
  6
CONTINUOUS
 10
4.936360
 20
5.525960
  0
VERTEX
  8
0
  6
CONTINUOUS
 10
4.961000
 20
5.479760
  0
VERTEX
  8
0
  6
CONTINUOUS
 10
4.324760
 20
5.095640
  0
VERTEX
  8
0
  6
CONTINUOUS
 10
4.300120
 20
5.142280
  0
SEQEND
  8
0
  0
SOLID
  8
0
 62
    15
 10
4.324760
 20
5.095640
 11
4.961000
 21
5.479760
 12
4.338840
 22
5.046800
 13
4.975080
 23
5.430920
  0
POLYLINE
  8
0
  6
CONTINUOUS
 66
     1
 40
0.000000
 41
0.000000
  0
VERTEX
  8
0
  6
CONTINUOUS
 10
4.324760
 20
5.095640
  0
VERTEX
  8
0
  6
CONTINUOUS
 10
4.961000
 20
5.479760
  0
VERTEX
  8
0
  6
CONTINUOUS
 10
4.975080
 20
5.430920
  0
VERTEX
  8
0
  6
CONTINUOUS
 10
4.338840
 20
5.046800
  0
VERTEX
  8
0
  6
CONTINUOUS
 10
4.324760
 20
5.095640
  0
SEQEND
  8
0
  0
SOLID
  8
0
 62
    15
 10
4.338840
 20
5.046800
 11
4.975080
 21
5.430920
 12
4.343240
 22
4.997080
 13
4.979040
 23
5.380760
  0
POLYLINE
  8
0
  6
CONTINUOUS
 66
     1
 40
0.000000
 41
0.000000
  0
VERTEX
  8
0
  6
CONTINUOUS
 10
4.338840
 20
5.046800
  0
VERTEX
  8
0
  6
CONTINUOUS
 10
4.975080
 20
5.430920
  0
VERTEX
  8
0
  6
CONTINUOUS
 10
4.979040
 20
5.380760
  0
VERTEX
  8
0
  6
CONTINUOUS
 10
4.343240
 20
4.997080
  0
VERTEX
  8
0
  6
CONTINUOUS
 10
4.338840
 20
5.046800
  0
SEQEND
  8
0
  0
SOLID
  8
0
 62
    15
 10
4.343240
 20
4.997080
 11
4.979040
 21
5.380760
 12
4.337080
 22
4.947360
 13
4.973320
 23
5.331480
  0
POLYLINE
  8
0
  6
CONTINUOUS
 66
     1
 40
0.000000
 41
0.000000
  0
VERTEX
  8
0
  6
CONTINUOUS
 10
4.343240
 20
4.997080
  0
VERTEX
  8
0
  6
CONTINUOUS
 10
4.979040
 20
5.380760
  0
VERTEX
  8
0
  6
CONTINUOUS
 10
4.973320
 20
5.331480
  0
VERTEX
  8
0
  6
CONTINUOUS
 10
4.337080
 20
4.947360
  0
VERTEX
  8
0
  6
CONTINUOUS
 10
4.343240
 20
4.997080
  0
SEQEND
  8
0
  0
SOLID
  8
0
 62
    15
 10
4.024680
 20
4.734840
 11
4.660920
 21
5.118520
 12
4.026440
 22
4.597560
 13
4.662680
 23
4.981680
  0
POLYLINE
  8
0
  6
CONTINUOUS
 66
     1
 40
0.000000
 41
0.000000
  0
VERTEX
  8
0
  6
CONTINUOUS
 10
4.024680
 20
4.734840
  0
VERTEX
  8
0
  6
CONTINUOUS
 10
4.660920
 20
5.118520
  0
VERTEX
  8
0
  6
CONTINUOUS
 10
4.662680
 20
4.981680
  0
VERTEX
  8
0
  6
CONTINUOUS
 10
4.026440
 20
4.597560
  0
VERTEX
  8
0
  6
CONTINUOUS
 10
4.024680
 20
4.734840
  0
SEQEND
  8
0
  0
SOLID
  8
0
 62
    15
 10
4.321680
 20
4.899840
 11
4.957480
 21
5.283520
 12
4.296160
 22
4.855400
 13
4.931960
 23
5.239080
  0
POLYLINE
  8
0
  6
CONTINUOUS
 66
     1
 40
0.000000
 41
0.000000
  0
VERTEX
  8
0
  6
CONTINUOUS
 10
4.321680
 20
4.899840
  0
VERTEX
  8
0
  6
CONTINUOUS
 10
4.957480
 20
5.283520
  0
VERTEX
  8
0
  6
CONTINUOUS
 10
4.931960
 20
5.239080
  0
VERTEX
  8
0
  6
CONTINUOUS
 10
4.296160
 20
4.855400
  0
VERTEX
  8
0
  6
CONTINUOUS
 10
4.321680
 20
4.899840
  0
SEQEND
  8
0
  0
SOLID
  8
0
 62
    15
 10
4.296160
 20
4.855400
 11
4.931960
 21
5.239080
 12
4.260960
 22
4.815800
 13
4.896760
 23
5.199480
  0
POLYLINE
  8
0
  6
CONTINUOUS
 66
     1
 40
0.000000
 41
0.000000
  0
VERTEX
  8
0
  6
CONTINUOUS
 10
4.296160
 20
4.855400
  0
VERTEX
  8
0
  6
CONTINUOUS
 10
4.931960
 20
5.239080
  0
VERTEX
  8
0
  6
CONTINUOUS
 10
4.896760
 20
5.199480
  0
VERTEX
  8
0
  6
CONTINUOUS
 10
4.260960
 20
4.815800
  0
VERTEX
  8
0
  6
CONTINUOUS
 10
4.296160
 20
4.855400
  0
SEQEND
  8
0
  0
SOLID
  8
0
 62
    15
 10
4.260960
 20
4.815800
 11
4.896760
 21
5.199480
 12
4.216080
 22
4.782360
 13
4.851880
 23
5.166040
  0
POLYLINE
  8
0
  6
CONTINUOUS
 66
     1
 40
0.000000
 41
0.000000
  0
VERTEX
  8
0
  6
CONTINUOUS
 10
4.260960
 20
4.815800
  0
VERTEX
  8
0
  6
CONTINUOUS
 10
4.896760
 20
5.199480
  0
VERTEX
  8
0
  6
CONTINUOUS
 10
4.851880
 20
5.166040
  0
VERTEX
  8
0
  6
CONTINUOUS
 10
4.216080
 20
4.782360
  0
VERTEX
  8
0
  6
CONTINUOUS
 10
4.260960
 20
4.815800
  0
SEQEND
  8
0
  0
SOLID
  8
0
 62
    15
 10
4.337080
 20
4.947360
 11
4.973320
 21
5.331480
 12
4.321680
 22
4.899840
 13
4.957480
 23
5.283520
  0
POLYLINE
  8
0
  6
CONTINUOUS
 66
     1
 40
0.000000
 41
0.000000
  0
VERTEX
  8
0
  6
CONTINUOUS
 10
4.337080
 20
4.947360
  0
VERTEX
  8
0
  6
CONTINUOUS
 10
4.973320
 20
5.331480
  0
VERTEX
  8
0
  6
CONTINUOUS
 10
4.957480
 20
5.283520
  0
VERTEX
  8
0
  6
CONTINUOUS
 10
4.321680
 20
4.899840
  0
VERTEX
  8
0
  6
CONTINUOUS
 10
4.337080
 20
4.947360
  0
SEQEND
  8
0
  0
SOLID
  8
0
 62
    15
 10
4.026440
 20
4.597560
 11
4.662680
 21
4.981680
 12
4.033040
 22
4.471720
 13
4.669280
 23
4.855840
  0
POLYLINE
  8
0
  6
CONTINUOUS
 66
     1
 40
0.000000
 41
0.000000
  0
VERTEX
  8
0
  6
CONTINUOUS
 10
4.026440
 20
4.597560
  0
VERTEX
  8
0
  6
CONTINUOUS
 10
4.662680
 20
4.981680
  0
VERTEX
  8
0
  6
CONTINUOUS
 10
4.669280
 20
4.855840
  0
VERTEX
  8
0
  6
CONTINUOUS
 10
4.033040
 20
4.471720
  0
VERTEX
  8
0
  6
CONTINUOUS
 10
4.026440
 20
4.597560
  0
SEQEND
  8
0
  0
SOLID
  8
0
 62
    15
 10
4.033040
 20
4.471720
 11
4.669280
 21
4.855840
 12
4.044040
 22
4.356000
 13
4.680280
 23
4.739680
  0
POLYLINE
  8
0
  6
CONTINUOUS
 66
     1
 40
0.000000
 41
0.000000
  0
VERTEX
  8
0
  6
CONTINUOUS
 10
4.033040
 20
4.471720
  0
VERTEX
  8
0
  6
CONTINUOUS
 10
4.669280
 20
4.855840
  0
VERTEX
  8
0
  6
CONTINUOUS
 10
4.680280
 20
4.739680
  0
VERTEX
  8
0
  6
CONTINUOUS
 10
4.044040
 20
4.356000
  0
VERTEX
  8
0
  6
CONTINUOUS
 10
4.033040
 20
4.471720
  0
SEQEND
  8
0
  0
SOLID
  8
0
 62
    15
 10
4.044040
 20
4.356000
 11
4.680280
 21
4.739680
 12
4.059880
 22
4.249080
 13
4.696120
 23
4.633200
  0
POLYLINE
  8
0
  6
CONTINUOUS
 66
     1
 40
0.000000
 41
0.000000
  0
VERTEX
  8
0
  6
CONTINUOUS
 10
4.044040
 20
4.356000
  0
VERTEX
  8
0
  6
CONTINUOUS
 10
4.680280
 20
4.739680
  0
VERTEX
  8
0
  6
CONTINUOUS
 10
4.696120
 20
4.633200
  0
VERTEX
  8
0
  6
CONTINUOUS
 10
4.059880
 20
4.249080
  0
VERTEX
  8
0
  6
CONTINUOUS
 10
4.044040
 20
4.356000
  0
SEQEND
  8
0
  0
SOLID
  8
0
 62
    15
 10
4.059880
 20
4.249080
 11
4.696120
 21
4.633200
 12
4.079680
 22
4.150520
 13
4.715920
 23
4.534200
  0
POLYLINE
  8
0
  6
CONTINUOUS
 66
     1
 40
0.000000
 41
0.000000
  0
VERTEX
  8
0
  6
CONTINUOUS
 10
4.059880
 20
4.249080
  0
VERTEX
  8
0
  6
CONTINUOUS
 10
4.696120
 20
4.633200
  0
VERTEX
  8
0
  6
CONTINUOUS
 10
4.715920
 20
4.534200
  0
VERTEX
  8
0
  6
CONTINUOUS
 10
4.079680
 20
4.150520
  0
VERTEX
  8
0
  6
CONTINUOUS
 10
4.059880
 20
4.249080
  0
SEQEND
  8
0
  0
SOLID
  8
0
 62
    15
 10
3.493600
 20
5.728360
 11
4.129840
 21
6.112040
 12
3.836800
 22
5.728360
 13
4.473040
 23
6.112040
  0
POLYLINE
  8
0
  6
CONTINUOUS
 66
     1
 40
0.000000
 41
0.000000
  0
VERTEX
  8
0
  6
CONTINUOUS
 10
3.493600
 20
5.728360
  0
VERTEX
  8
0
  6
CONTINUOUS
 10
4.129840
 20
6.112040
  0
VERTEX
  8
0
  6
CONTINUOUS
 10
4.473040
 20
6.112040
  0
VERTEX
  8
0
  6
CONTINUOUS
 10
3.836800
 20
5.728360
  0
VERTEX
  8
0
  6
CONTINUOUS
 10
3.493600
 20
5.728360
  0
SEQEND
  8
0
  0
SOLID
  8
0
 62
    15
 10
4.103880
 20
4.058560
 11
4.739680
 21
4.442240
 12
4.131160
 22
3.971880
 13
4.767400
 23
4.356000
  0
POLYLINE
  8
0
  6
CONTINUOUS
 66
     1
 40
0.000000
 41
0.000000
  0
VERTEX
  8
0
  6
CONTINUOUS
 10
4.103880
 20
4.058560
  0
VERTEX
  8
0
  6
CONTINUOUS
 10
4.739680
 20
4.442240
  0
VERTEX
  8
0
  6
CONTINUOUS
 10
4.767400
 20
4.356000
  0
VERTEX
  8
0
  6
CONTINUOUS
 10
4.131160
 20
3.971880
  0
VERTEX
  8
0
  6
CONTINUOUS
 10
4.103880
 20
4.058560
  0
SEQEND
  8
0
  0
SOLID
  8
0
 62
    15
 10
4.131160
 20
3.971880
 11
4.767400
 21
4.356000
 12
4.162400
 22
3.890480
 13
4.798640
 23
4.274160
  0
POLYLINE
  8
0
  6
CONTINUOUS
 66
     1
 40
0.000000
 41
0.000000
  0
VERTEX
  8
0
  6
CONTINUOUS
 10
4.131160
 20
3.971880
  0
VERTEX
  8
0
  6
CONTINUOUS
 10
4.767400
 20
4.356000
  0
VERTEX
  8
0
  6
CONTINUOUS
 10
4.798640
 20
4.274160
  0
VERTEX
  8
0
  6
CONTINUOUS
 10
4.162400
 20
3.890480
  0
VERTEX
  8
0
  6
CONTINUOUS
 10
4.131160
 20
3.971880
  0
SEQEND
  8
0
  0
SOLID
  8
0
 62
    15
 10
4.162400
 20
3.890480
 11
4.798640
 21
4.274160
 12
4.234560
 22
3.736040
 13
4.870800
 23
4.119720
  0
POLYLINE
  8
0
  6
CONTINUOUS
 66
     1
 40
0.000000
 41
0.000000
  0
VERTEX
  8
0
  6
CONTINUOUS
 10
4.162400
 20
3.890480
  0
VERTEX
  8
0
  6
CONTINUOUS
 10
4.798640
 20
4.274160
  0
VERTEX
  8
0
  6
CONTINUOUS
 10
4.870800
 20
4.119720
  0
VERTEX
  8
0
  6
CONTINUOUS
 10
4.234560
 20
3.736040
  0
VERTEX
  8
0
  6
CONTINUOUS
 10
4.162400
 20
3.890480
  0
SEQEND
  8
0
  0
SOLID
  8
0
 62
    15
 10
4.234560
 20
3.736040
 11
4.870800
 21
4.119720
 12
4.318600
 22
3.586000
 13
4.954400
 23
3.970120
  0
POLYLINE
  8
0
  6
CONTINUOUS
 66
     1
 40
0.000000
 41
0.000000
  0
VERTEX
  8
0
  6
CONTINUOUS
 10
4.234560
 20
3.736040
  0
VERTEX
  8
0
  6
CONTINUOUS
 10
4.870800
 20
4.119720
  0
VERTEX
  8
0
  6
CONTINUOUS
 10
4.954400
 20
3.970120
  0
VERTEX
  8
0
  6
CONTINUOUS
 10
4.318600
 20
3.586000
  0
VERTEX
  8
0
  6
CONTINUOUS
 10
4.234560
 20
3.736040
  0
SEQEND
  8
0
  0
SOLID
  8
0
 62
    15
 10
4.318600
 20
3.586000
 11
4.954400
 21
3.970120
 12
4.513080
 22
3.265680
 13
5.149320
 23
3.649360
  0
POLYLINE
  8
0
  6
CONTINUOUS
 66
     1
 40
0.000000
 41
0.000000
  0
VERTEX
  8
0
  6
CONTINUOUS
 10
4.318600
 20
3.586000
  0
VERTEX
  8
0
  6
CONTINUOUS
 10
4.954400
 20
3.970120
  0
VERTEX
  8
0
  6
CONTINUOUS
 10
5.149320
 20
3.649360
  0
VERTEX
  8
0
  6
CONTINUOUS
 10
4.513080
 20
3.265680
  0
VERTEX
  8
0
  6
CONTINUOUS
 10
4.318600
 20
3.586000
  0
SEQEND
  8
0
  0
SOLID
  8
0
 62
    15
 10
4.513080
 20
3.265680
 11
5.149320
 21
3.649360
 12
4.561920
 22
3.175040
 13
5.198160
 23
3.559160
  0
POLYLINE
  8
0
  6
CONTINUOUS
 66
     1
 40
0.000000
 41
0.000000
  0
VERTEX
  8
0
  6
CONTINUOUS
 10
4.513080
 20
3.265680
  0
VERTEX
  8
0
  6
CONTINUOUS
 10
5.149320
 20
3.649360
  0
VERTEX
  8
0
  6
CONTINUOUS
 10
5.198160
 20
3.559160
  0
VERTEX
  8
0
  6
CONTINUOUS
 10
4.561920
 20
3.175040
  0
VERTEX
  8
0
  6
CONTINUOUS
 10
4.513080
 20
3.265680
  0
SEQEND
  8
0
  0
SOLID
  8
0
 62
    15
 10
4.561920
 20
3.175040
 11
5.198160
 21
3.559160
 12
4.603280
 22
3.081320
 13
5.239080
 23
3.465440
  0
POLYLINE
  8
0
  6
CONTINUOUS
 66
     1
 40
0.000000
 41
0.000000
  0
VERTEX
  8
0
  6
CONTINUOUS
 10
4.561920
 20
3.175040
  0
VERTEX
  8
0
  6
CONTINUOUS
 10
5.198160
 20
3.559160
  0
VERTEX
  8
0
  6
CONTINUOUS
 10
5.239080
 20
3.465440
  0
VERTEX
  8
0
  6
CONTINUOUS
 10
4.603280
 20
3.081320
  0
VERTEX
  8
0
  6
CONTINUOUS
 10
4.561920
 20
3.175040
  0
SEQEND
  8
0
  0
SOLID
  8
0
 62
    15
 10
4.603280
 20
3.081320
 11
5.239080
 21
3.465440
 12
4.636720
 22
2.985400
 13
5.272960
 23
3.369080
  0
POLYLINE
  8
0
  6
CONTINUOUS
 66
     1
 40
0.000000
 41
0.000000
  0
VERTEX
  8
0
  6
CONTINUOUS
 10
4.603280
 20
3.081320
  0
VERTEX
  8
0
  6
CONTINUOUS
 10
5.239080
 20
3.465440
  0
VERTEX
  8
0
  6
CONTINUOUS
 10
5.272960
 20
3.369080
  0
VERTEX
  8
0
  6
CONTINUOUS
 10
4.636720
 20
2.985400
  0
VERTEX
  8
0
  6
CONTINUOUS
 10
4.603280
 20
3.081320
  0
SEQEND
  8
0
  0
SOLID
  8
0
 62
    15
 10
4.636720
 20
2.985400
 11
5.272960
 21
3.369080
 12
4.662240
 22
2.888160
 13
5.298480
 23
3.271840
  0
POLYLINE
  8
0
  6
CONTINUOUS
 66
     1
 40
0.000000
 41
0.000000
  0
VERTEX
  8
0
  6
CONTINUOUS
 10
4.636720
 20
2.985400
  0
VERTEX
  8
0
  6
CONTINUOUS
 10
5.272960
 20
3.369080
  0
VERTEX
  8
0
  6
CONTINUOUS
 10
5.298480
 20
3.271840
  0
VERTEX
  8
0
  6
CONTINUOUS
 10
4.662240
 20
2.888160
  0
VERTEX
  8
0
  6
CONTINUOUS
 10
4.636720
 20
2.985400
  0
SEQEND
  8
0
  0
SOLID
  8
0
 62
    15
 10
4.662240
 20
2.888160
 11
5.298480
 21
3.271840
 12
4.679400
 22
2.790480
 13
5.315640
 23
3.174600
  0
POLYLINE
  8
0
  6
CONTINUOUS
 66
     1
 40
0.000000
 41
0.000000
  0
VERTEX
  8
0
  6
CONTINUOUS
 10
4.662240
 20
2.888160
  0
VERTEX
  8
0
  6
CONTINUOUS
 10
5.298480
 20
3.271840
  0
VERTEX
  8
0
  6
CONTINUOUS
 10
5.315640
 20
3.174600
  0
VERTEX
  8
0
  6
CONTINUOUS
 10
4.679400
 20
2.790480
  0
VERTEX
  8
0
  6
CONTINUOUS
 10
4.662240
 20
2.888160
  0
SEQEND
  8
0
  0
SOLID
  8
0
 62
    15
 10
4.679400
 20
2.790480
 11
5.315640
 21
3.174600
 12
4.688200
 22
2.694120
 13
5.324440
 23
3.078240
  0
POLYLINE
  8
0
  6
CONTINUOUS
 66
     1
 40
0.000000
 41
0.000000
  0
VERTEX
  8
0
  6
CONTINUOUS
 10
4.679400
 20
2.790480
  0
VERTEX
  8
0
  6
CONTINUOUS
 10
5.315640
 20
3.174600
  0
VERTEX
  8
0
  6
CONTINUOUS
 10
5.324440
 20
3.078240
  0
VERTEX
  8
0
  6
CONTINUOUS
 10
4.688200
 20
2.694120
  0
VERTEX
  8
0
  6
CONTINUOUS
 10
4.679400
 20
2.790480
  0
SEQEND
  8
0
  0
SOLID
  8
0
 62
    15
 10
4.688200
 20
2.694120
 11
5.324440
 21
3.078240
 12
4.688640
 22
2.600400
 13
5.324880
 23
2.984080
  0
POLYLINE
  8
0
  6
CONTINUOUS
 66
     1
 40
0.000000
 41
0.000000
  0
VERTEX
  8
0
  6
CONTINUOUS
 10
4.688200
 20
2.694120
  0
VERTEX
  8
0
  6
CONTINUOUS
 10
5.324440
 20
3.078240
  0
VERTEX
  8
0
  6
CONTINUOUS
 10
5.324880
 20
2.984080
  0
VERTEX
  8
0
  6
CONTINUOUS
 10
4.688640
 20
2.600400
  0
VERTEX
  8
0
  6
CONTINUOUS
 10
4.688200
 20
2.694120
  0
SEQEND
  8
0
  0
SOLID
  8
0
 62
    15
 10
4.688640
 20
2.600400
 11
5.324880
 21
2.984080
 12
4.679840
 22
2.509760
 13
5.316080
 23
2.893440
  0
POLYLINE
  8
0
  6
CONTINUOUS
 66
     1
 40
0.000000
 41
0.000000
  0
VERTEX
  8
0
  6
CONTINUOUS
 10
4.688640
 20
2.600400
  0
VERTEX
  8
0
  6
CONTINUOUS
 10
5.324880
 20
2.984080
  0
VERTEX
  8
0
  6
CONTINUOUS
 10
5.316080
 20
2.893440
  0
VERTEX
  8
0
  6
CONTINUOUS
 10
4.679840
 20
2.509760
  0
VERTEX
  8
0
  6
CONTINUOUS
 10
4.688640
 20
2.600400
  0
SEQEND
  8
0
  0
SOLID
  8
0
 62
    15
 10
4.679840
 20
2.509760
 11
5.316080
 21
2.893440
 12
4.661800
 22
2.423520
 13
5.298040
 23
2.807200
  0
POLYLINE
  8
0
  6
CONTINUOUS
 66
     1
 40
0.000000
 41
0.000000
  0
VERTEX
  8
0
  6
CONTINUOUS
 10
4.679840
 20
2.509760
  0
VERTEX
  8
0
  6
CONTINUOUS
 10
5.316080
 20
2.893440
  0
VERTEX
  8
0
  6
CONTINUOUS
 10
5.298040
 20
2.807200
  0
VERTEX
  8
0
  6
CONTINUOUS
 10
4.661800
 20
2.423520
  0
VERTEX
  8
0
  6
CONTINUOUS
 10
4.679840
 20
2.509760
  0
SEQEND
  8
0
  0
SOLID
  8
0
 62
    15
 10
4.661800
 20
2.423520
 11
5.298040
 21
2.807200
 12
4.634520
 22
2.343000
 13
5.270760
 23
2.726680
  0
POLYLINE
  8
0
  6
CONTINUOUS
 66
     1
 40
0.000000
 41
0.000000
  0
VERTEX
  8
0
  6
CONTINUOUS
 10
4.661800
 20
2.423520
  0
VERTEX
  8
0
  6
CONTINUOUS
 10
5.298040
 20
2.807200
  0
VERTEX
  8
0
  6
CONTINUOUS
 10
5.270760
 20
2.726680
  0
VERTEX
  8
0
  6
CONTINUOUS
 10
4.634520
 20
2.343000
  0
VERTEX
  8
0
  6
CONTINUOUS
 10
4.661800
 20
2.423520
  0
SEQEND
  8
0
  0
SOLID
  8
0
 62
    15
 10
4.634520
 20
2.343000
 11
5.270760
 21
2.726680
 12
4.597120
 22
2.269080
 13
5.233360
 23
2.652760
  0
POLYLINE
  8
0
  6
CONTINUOUS
 66
     1
 40
0.000000
 41
0.000000
  0
VERTEX
  8
0
  6
CONTINUOUS
 10
4.634520
 20
2.343000
  0
VERTEX
  8
0
  6
CONTINUOUS
 10
5.270760
 20
2.726680
  0
VERTEX
  8
0
  6
CONTINUOUS
 10
5.233360
 20
2.652760
  0
VERTEX
  8
0
  6
CONTINUOUS
 10
4.597120
 20
2.269080
  0
VERTEX
  8
0
  6
CONTINUOUS
 10
4.634520
 20
2.343000
  0
SEQEND
  8
0
  0
SOLID
  8
0
 62
    15
 10
4.026440
 20
1.743720
 11
4.662680
 21
2.127400
 12
4.001360
 22
1.716440
 13
4.637600
 23
2.100120
  0
POLYLINE
  8
0
  6
CONTINUOUS
 66
     1
 40
0.000000
 41
0.000000
  0
VERTEX
  8
0
  6
CONTINUOUS
 10
4.026440
 20
1.743720
  0
VERTEX
  8
0
  6
CONTINUOUS
 10
4.662680
 20
2.127400
  0
VERTEX
  8
0
  6
CONTINUOUS
 10
4.637600
 20
2.100120
  0
VERTEX
  8
0
  6
CONTINUOUS
 10
4.001360
 20
1.716440
  0
VERTEX
  8
0
  6
CONTINUOUS
 10
4.026440
 20
1.743720
  0
SEQEND
  8
0
  0
SOLID
  8
0
 62
    15
 10
4.081440
 20
1.784200
 11
4.717680
 21
2.168320
 12
4.026440
 22
1.743720
 13
4.662680
 23
2.127400
  0
POLYLINE
  8
0
  6
CONTINUOUS
 66
     1
 40
0.000000
 41
0.000000
  0
VERTEX
  8
0
  6
CONTINUOUS
 10
4.081440
 20
1.784200
  0
VERTEX
  8
0
  6
CONTINUOUS
 10
4.717680
 20
2.168320
  0
VERTEX
  8
0
  6
CONTINUOUS
 10
4.662680
 20
2.127400
  0
VERTEX
  8
0
  6
CONTINUOUS
 10
4.026440
 20
1.743720
  0
VERTEX
  8
0
  6
CONTINUOUS
 10
4.081440
 20
1.784200
  0
SEQEND
  8
0
  0
SOLID
  8
0
 62
    15
 10
4.001360
 20
1.716440
 11
4.637600
 21
2.100120
 12
3.979360
 22
1.683880
 13
4.615600
 23
2.067560
  0
POLYLINE
  8
0
  6
CONTINUOUS
 66
     1
 40
0.000000
 41
0.000000
  0
VERTEX
  8
0
  6
CONTINUOUS
 10
4.001360
 20
1.716440
  0
VERTEX
  8
0
  6
CONTINUOUS
 10
4.637600
 20
2.100120
  0
VERTEX
  8
0
  6
CONTINUOUS
 10
4.615600
 20
2.067560
  0
VERTEX
  8
0
  6
CONTINUOUS
 10
3.979360
 20
1.683880
  0
VERTEX
  8
0
  6
CONTINUOUS
 10
4.001360
 20
1.716440
  0
SEQEND
  8
0
  0
SOLID
  8
0
 62
    15
 10
3.979360
 20
1.683880
 11
4.615600
 21
2.067560
 12
3.960880
 22
1.645600
 13
4.597120
 23
2.029280
  0
POLYLINE
  8
0
  6
CONTINUOUS
 66
     1
 40
0.000000
 41
0.000000
  0
VERTEX
  8
0
  6
CONTINUOUS
 10
3.979360
 20
1.683880
  0
VERTEX
  8
0
  6
CONTINUOUS
 10
4.615600
 20
2.067560
  0
VERTEX
  8
0
  6
CONTINUOUS
 10
4.597120
 20
2.029280
  0
VERTEX
  8
0
  6
CONTINUOUS
 10
3.960880
 20
1.645600
  0
VERTEX
  8
0
  6
CONTINUOUS
 10
3.979360
 20
1.683880
  0
SEQEND
  8
0
  0
SOLID
  8
0
 62
    15
 10
4.258320
 20
2.041160
 11
4.894560
 21
2.424840
 12
4.258320
 22
1.841400
 13
4.894560
 23
2.225520
  0
POLYLINE
  8
0
  6
CONTINUOUS
 66
     1
 40
0.000000
 41
0.000000
  0
VERTEX
  8
0
  6
CONTINUOUS
 10
4.258320
 20
2.041160
  0
VERTEX
  8
0
  6
CONTINUOUS
 10
4.894560
 20
2.424840
  0
VERTEX
  8
0
  6
CONTINUOUS
 10
4.894560
 20
2.225520
  0
VERTEX
  8
0
  6
CONTINUOUS
 10
4.258320
 20
1.841400
  0
VERTEX
  8
0
  6
CONTINUOUS
 10
4.258320
 20
2.041160
  0
SEQEND
  8
0
  0
SOLID
  8
0
 62
    15
 10
4.493280
 20
2.146320
 11
5.129080
 21
2.530000
 12
4.425520
 22
2.099240
 13
5.061760
 23
2.483360
  0
POLYLINE
  8
0
  6
CONTINUOUS
 66
     1
 40
0.000000
 41
0.000000
  0
VERTEX
  8
0
  6
CONTINUOUS
 10
4.493280
 20
2.146320
  0
VERTEX
  8
0
  6
CONTINUOUS
 10
5.129080
 20
2.530000
  0
VERTEX
  8
0
  6
CONTINUOUS
 10
5.061760
 20
2.483360
  0
VERTEX
  8
0
  6
CONTINUOUS
 10
4.425520
 20
2.099240
  0
VERTEX
  8
0
  6
CONTINUOUS
 10
4.493280
 20
2.146320
  0
SEQEND
  8
0
  0
SOLID
  8
0
 62
    15
 10
4.550480
 20
2.203080
 11
5.186280
 21
2.586760
 12
4.493280
 22
2.146320
 13
5.129080
 23
2.530000
  0
POLYLINE
  8
0
  6
CONTINUOUS
 66
     1
 40
0.000000
 41
0.000000
  0
VERTEX
  8
0
  6
CONTINUOUS
 10
4.550480
 20
2.203080
  0
VERTEX
  8
0
  6
CONTINUOUS
 10
5.186280
 20
2.586760
  0
VERTEX
  8
0
  6
CONTINUOUS
 10
5.129080
 20
2.530000
  0
VERTEX
  8
0
  6
CONTINUOUS
 10
4.493280
 20
2.146320
  0
VERTEX
  8
0
  6
CONTINUOUS
 10
4.550480
 20
2.203080
  0
SEQEND
  8
0
  0
SOLID
  8
0
 62
    15
 10
4.597120
 20
2.269080
 11
5.233360
 21
2.652760
 12
4.550480
 22
2.203080
 13
5.186280
 23
2.586760
  0
POLYLINE
  8
0
  6
CONTINUOUS
 66
     1
 40
0.000000
 41
0.000000
  0
VERTEX
  8
0
  6
CONTINUOUS
 10
4.597120
 20
2.269080
  0
VERTEX
  8
0
  6
CONTINUOUS
 10
5.233360
 20
2.652760
  0
VERTEX
  8
0
  6
CONTINUOUS
 10
5.186280
 20
2.586760
  0
VERTEX
  8
0
  6
CONTINUOUS
 10
4.550480
 20
2.203080
  0
VERTEX
  8
0
  6
CONTINUOUS
 10
4.597120
 20
2.269080
  0
SEQEND
  8
0
  0
SOLID
  8
0
 62
    15
 10
3.960880
 20
1.645600
 11
4.597120
 21
2.029280
 12
3.946800
 22
1.601160
 13
4.583040
 23
1.984840
  0
POLYLINE
  8
0
  6
CONTINUOUS
 66
     1
 40
0.000000
 41
0.000000
  0
VERTEX
  8
0
  6
CONTINUOUS
 10
3.960880
 20
1.645600
  0
VERTEX
  8
0
  6
CONTINUOUS
 10
4.597120
 20
2.029280
  0
VERTEX
  8
0
  6
CONTINUOUS
 10
4.583040
 20
1.984840
  0
VERTEX
  8
0
  6
CONTINUOUS
 10
3.946800
 20
1.601160
  0
VERTEX
  8
0
  6
CONTINUOUS
 10
3.960880
 20
1.645600
  0
SEQEND
  8
0
  0
SOLID
  8
0
 62
    15
 10
3.946800
 20
1.601160
 11
4.583040
 21
1.984840
 12
3.937560
 22
1.549680
 13
4.573800
 23
1.933800
  0
POLYLINE
  8
0
  6
CONTINUOUS
 66
     1
 40
0.000000
 41
0.000000
  0
VERTEX
  8
0
  6
CONTINUOUS
 10
3.946800
 20
1.601160
  0
VERTEX
  8
0
  6
CONTINUOUS
 10
4.583040
 20
1.984840
  0
VERTEX
  8
0
  6
CONTINUOUS
 10
4.573800
 20
1.933800
  0
VERTEX
  8
0
  6
CONTINUOUS
 10
3.937560
 20
1.549680
  0
VERTEX
  8
0
  6
CONTINUOUS
 10
3.946800
 20
1.601160
  0
SEQEND
  8
0
  0
SOLID
  8
0
 62
    15
 10
3.937560
 20
1.549680
 11
4.573800
 21
1.933800
 12
3.934480
 22
1.491160
 13
4.570720
 23
1.874840
  0
POLYLINE
  8
0
  6
CONTINUOUS
 66
     1
 40
0.000000
 41
0.000000
  0
VERTEX
  8
0
  6
CONTINUOUS
 10
3.937560
 20
1.549680
  0
VERTEX
  8
0
  6
CONTINUOUS
 10
4.573800
 20
1.933800
  0
VERTEX
  8
0
  6
CONTINUOUS
 10
4.570720
 20
1.874840
  0
VERTEX
  8
0
  6
CONTINUOUS
 10
3.934480
 20
1.491160
  0
VERTEX
  8
0
  6
CONTINUOUS
 10
3.937560
 20
1.549680
  0
SEQEND
  8
0
  0
SOLID
  8
0
 62
    15
 10
3.934480
 20
1.491160
 11
4.570720
 21
1.874840
 12
3.934480
 22
1.490280
 13
4.570720
 23
1.873960
  0
POLYLINE
  8
0
  6
CONTINUOUS
 66
     1
 40
0.000000
 41
0.000000
  0
VERTEX
  8
0
  6
CONTINUOUS
 10
3.934480
 20
1.491160
  0
VERTEX
  8
0
  6
CONTINUOUS
 10
4.570720
 20
1.874840
  0
VERTEX
  8
0
  6
CONTINUOUS
 10
4.570720
 20
1.873960
  0
VERTEX
  8
0
  6
CONTINUOUS
 10
3.934480
 20
1.490280
  0
VERTEX
  8
0
  6
CONTINUOUS
 10
3.934480
 20
1.491160
  0
SEQEND
  8
0
  0
POLYLINE
  8
0
  6
CONTINUOUS
 66
     1
 40
0.000000
 41
0.000000
  0
VERTEX
  8
0
  6
CONTINUOUS
 10
3.934480
 20
1.490280
  0
VERTEX
  8
0
  6
CONTINUOUS
 10
3.493600
 20
1.490280
  0
VERTEX
  8
0
  6
CONTINUOUS
 10
3.493600
 20
5.728360
  0
VERTEX
  8
0
  6
CONTINUOUS
 10
3.836800
 20
5.728360
  0
VERTEX
  8
0
  6
CONTINUOUS
 10
3.840760
 20
5.657080
  0
VERTEX
  8
0
  6
CONTINUOUS
 10
3.852640
 20
5.593720
  0
VERTEX
  8
0
  6
CONTINUOUS
 10
3.871120
 20
5.538280
  0
VERTEX
  8
0
  6
CONTINUOUS
 10
3.894880
 20
5.490760
  0
VERTEX
  8
0
  6
CONTINUOUS
 10
3.923040
 20
5.452040
  0
VERTEX
  8
0
  6
CONTINUOUS
 10
3.954720
 20
5.421240
  0
VERTEX
  8
0
  6
CONTINUOUS
 10
3.988160
 20
5.398800
  0
VERTEX
  8
0
  6
CONTINUOUS
 10
4.022920
 20
5.385160
  0
VERTEX
  8
0
  6
CONTINUOUS
 10
4.022920
 20
5.282200
  0
VERTEX
  8
0
  6
CONTINUOUS
 10
4.099480
 20
5.271200
  0
VERTEX
  8
0
  6
CONTINUOUS
 10
4.165480
 20
5.250520
  0
VERTEX
  8
0
  6
CONTINUOUS
 10
4.220920
 20
5.221040
  0
VERTEX
  8
0
  6
CONTINUOUS
 10
4.265800
 20
5.184080
  0
VERTEX
  8
0
  6
CONTINUOUS
 10
4.300120
 20
5.142280
  0
VERTEX
  8
0
  6
CONTINUOUS
 10
4.324760
 20
5.095640
  0
VERTEX
  8
0
  6
CONTINUOUS
 10
4.338840
 20
5.046800
  0
VERTEX
  8
0
  6
CONTINUOUS
 10
4.343240
 20
4.997080
  0
VERTEX
  8
0
  6
CONTINUOUS
 10
4.337080
 20
4.947360
  0
VERTEX
  8
0
  6
CONTINUOUS
 10
4.321680
 20
4.899840
  0
VERTEX
  8
0
  6
CONTINUOUS
 10
4.296160
 20
4.855400
  0
VERTEX
  8
0
  6
CONTINUOUS
 10
4.260960
 20
4.815800
  0
VERTEX
  8
0
  6
CONTINUOUS
 10
4.216080
 20
4.782360
  0
VERTEX
  8
0
  6
CONTINUOUS
 10
4.161520
 20
4.756840
  0
VERTEX
  8
0
  6
CONTINUOUS
 10
4.097720
 20
4.740560
  0
VERTEX
  8
0
  6
CONTINUOUS
 10
4.024680
 20
4.734840
  0
VERTEX
  8
0
  6
CONTINUOUS
 10
4.026440
 20
4.597560
  0
VERTEX
  8
0
  6
CONTINUOUS
 10
4.033040
 20
4.471720
  0
VERTEX
  8
0
  6
CONTINUOUS
 10
4.044040
 20
4.356000
  0
VERTEX
  8
0
  6
CONTINUOUS
 10
4.059880
 20
4.249080
  0
VERTEX
  8
0
  6
CONTINUOUS
 10
4.079680
 20
4.150520
  0
VERTEX
  8
0
  6
CONTINUOUS
 10
4.103880
 20
4.058560
  0
VERTEX
  8
0
  6
CONTINUOUS
 10
4.131160
 20
3.971880
  0
VERTEX
  8
0
  6
CONTINUOUS
 10
4.162400
 20
3.890480
  0
VERTEX
  8
0
  6
CONTINUOUS
 10
4.234560
 20
3.736040
  0
VERTEX
  8
0
  6
CONTINUOUS
 10
4.318600
 20
3.586000
  0
VERTEX
  8
0
  6
CONTINUOUS
 10
4.513080
 20
3.265680
  0
VERTEX
  8
0
  6
CONTINUOUS
 10
4.561920
 20
3.175040
  0
VERTEX
  8
0
  6
CONTINUOUS
 10
4.603280
 20
3.081320
  0
VERTEX
  8
0
  6
CONTINUOUS
 10
4.636720
 20
2.985400
  0
VERTEX
  8
0
  6
CONTINUOUS
 10
4.662240
 20
2.888160
  0
VERTEX
  8
0
  6
CONTINUOUS
 10
4.679400
 20
2.790480
  0
VERTEX
  8
0
  6
CONTINUOUS
 10
4.688200
 20
2.694120
  0
VERTEX
  8
0
  6
CONTINUOUS
 10
4.688640
 20
2.600400
  0
VERTEX
  8
0
  6
CONTINUOUS
 10
4.679840
 20
2.509760
  0
VERTEX
  8
0
  6
CONTINUOUS
 10
4.661800
 20
2.423520
  0
VERTEX
  8
0
  6
CONTINUOUS
 10
4.634520
 20
2.343000
  0
VERTEX
  8
0
  6
CONTINUOUS
 10
4.597120
 20
2.269080
  0
VERTEX
  8
0
  6
CONTINUOUS
 10
4.550480
 20
2.203080
  0
VERTEX
  8
0
  6
CONTINUOUS
 10
4.493280
 20
2.146320
  0
VERTEX
  8
0
  6
CONTINUOUS
 10
4.425520
 20
2.099240
  0
VERTEX
  8
0
  6
CONTINUOUS
 10
4.347200
 20
2.064040
  0
VERTEX
  8
0
  6
CONTINUOUS
 10
4.258320
 20
2.041160
  0
VERTEX
  8
0
  6
CONTINUOUS
 10
4.258320
 20
1.841400
  0
VERTEX
  8
0
  6
CONTINUOUS
 10
4.191000
 20
1.826000
  0
VERTEX
  8
0
  6
CONTINUOUS
 10
4.138200
 20
1.810600
  0
VERTEX
  8
0
  6
CONTINUOUS
 10
4.081440
 20
1.784200
  0
VERTEX
  8
0
  6
CONTINUOUS
 10
4.026440
 20
1.743720
  0
VERTEX
  8
0
  6
CONTINUOUS
 10
4.001360
 20
1.716440
  0
VERTEX
  8
0
  6
CONTINUOUS
 10
3.979360
 20
1.683880
  0
VERTEX
  8
0
  6
CONTINUOUS
 10
3.960880
 20
1.645600
  0
VERTEX
  8
0
  6
CONTINUOUS
 10
3.946800
 20
1.601160
  0
VERTEX
  8
0
  6
CONTINUOUS
 10
3.937560
 20
1.549680
  0
VERTEX
  8
0
  6
CONTINUOUS
 10
3.934480
 20
1.490280
  0
SEQEND
  8
0
  0
TEXT
  8
0
 10
4.068240
 20
1.215280
 40
0.138225
  1
BA  1074
 41
1.000000
  7
SN0
 71
     0
 72
     5
 11
4.750065
 21
1.215280
  0
TEXT
  8
0
 10
3.838560
 20
1.023440
 40
0.138225
  1
1-3/16" x 4-1/4"
 41
1.000000
  7
SN0
 71
     0
 72
     5
 11
4.977593
 21
1.023440
  0
POLYLINE
  8
0
  6
CONTINUOUS
 66
     1
 40
0.014080
 41
0.014080
  0
VERTEX
  8
0
  6
CONTINUOUS
 10
2.099680
 20
7.149560
  0
VERTEX
  8
0
  6
CONTINUOUS
 10
2.130040
 20
7.150440
  0
VERTEX
  8
0
  6
CONTINUOUS
 10
2.158200
 20
7.152640
  0
VERTEX
  8
0
  6
CONTINUOUS
 10
2.209680
 20
7.161880
  0
VERTEX
  8
0
  6
CONTINUOUS
 10
2.254120
 20
7.175960
  0
VERTEX
  8
0
  6
CONTINUOUS
 10
2.292400
 20
7.194440
  0
VERTEX
  8
0
  6
CONTINUOUS
 10
2.324960
 20
7.216440
  0
VERTEX
  8
0
  6
CONTINUOUS
 10
2.352240
 20
7.241520
  0
VERTEX
  8
0
  6
CONTINUOUS
 10
2.374680
 20
7.268360
  0
VERTEX
  8
0
  6
CONTINUOUS
 10
2.393160
 20
7.296520
  0
VERTEX
  8
0
  6
CONTINUOUS
 10
2.413840
 20
7.339200
  0
VERTEX
  8
0
  6
CONTINUOUS
 10
2.427920
 20
7.380560
  0
VERTEX
  8
0
  6
CONTINUOUS
 10
2.449920
 20
7.473400
  0
VERTEX
  8
0
  6
CONTINUOUS
 10
2.649680
 20
7.473400
  0
VERTEX
  8
0
  6
CONTINUOUS
 10
2.659360
 20
7.519160
  0
VERTEX
  8
0
  6
CONTINUOUS
 10
2.672560
 20
7.562280
  0
VERTEX
  8
0
  6
CONTINUOUS
 10
2.688840
 20
7.602760
  0
VERTEX
  8
0
  6
CONTINUOUS
 10
2.708200
 20
7.640600
  0
VERTEX
  8
0
  6
CONTINUOUS
 10
2.730200
 20
7.675800
  0
VERTEX
  8
0
  6
CONTINUOUS
 10
2.754840
 20
7.708360
  0
VERTEX
  8
0
  6
CONTINUOUS
 10
2.782120
 20
7.738280
  0
VERTEX
  8
0
  6
CONTINUOUS
 10
2.811600
 20
7.765560
  0
VERTEX
  8
0
  6
CONTINUOUS
 10
2.860000
 20
7.801640
  0
VERTEX
  8
0
  6
CONTINUOUS
 10
2.895200
 20
7.822760
  0
VERTEX
  8
0
  6
CONTINUOUS
 10
2.951080
 20
7.849600
  0
VERTEX
  8
0
  6
CONTINUOUS
 10
2.990680
 20
7.864560
  0
VERTEX
  8
0
  6
CONTINUOUS
 10
3.052720
 20
7.882160
  0
VERTEX
  8
0
  6
CONTINUOUS
 10
3.095840
 20
7.891400
  0
VERTEX
  8
0
  6
CONTINUOUS
 10
3.140280
 20
7.898000
  0
VERTEX
  8
0
  6
CONTINUOUS
 10
3.208920
 20
7.903720
  0
VERTEX
  8
0
  6
CONTINUOUS
 10
3.255560
 20
7.904600
  0
VERTEX
  8
0
  6
CONTINUOUS
 10
3.302640
 20
7.903280
  0
VERTEX
  8
0
  6
CONTINUOUS
 10
3.350600
 20
7.900200
  0
VERTEX
  8
0
  6
CONTINUOUS
 10
3.399000
 20
7.894480
  0
VERTEX
  8
0
  6
CONTINUOUS
 10
3.447840
 20
7.887000
  0
VERTEX
  8
0
  6
CONTINUOUS
 10
3.496680
 20
7.877320
  0
VERTEX
  8
0
  6
CONTINUOUS
 10
3.593920
 20
7.851800
  0
VERTEX
  8
0
  6
CONTINUOUS
 10
3.642320
 20
7.835960
  0
VERTEX
  8
0
  6
CONTINUOUS
 10
3.737360
 20
7.798560
  0
VERTEX
  8
0
  6
CONTINUOUS
 10
3.784000
 20
7.777000
  0
VERTEX
  8
0
  6
CONTINUOUS
 10
3.874200
 20
7.728160
  0
VERTEX
  8
0
  6
CONTINUOUS
 10
4.194960
 20
7.533240
  0
VERTEX
  8
0
  6
CONTINUOUS
 10
4.307160
 20
7.469440
  0
VERTEX
  8
0
  6
CONTINUOUS
 10
4.382400
 20
7.430280
  0
VERTEX
  8
0
  6
CONTINUOUS
 10
4.459400
 20
7.394200
  0
VERTEX
  8
0
  6
CONTINUOUS
 10
4.539480
 20
7.361640
  0
VERTEX
  8
0
  6
CONTINUOUS
 10
4.623080
 20
7.332160
  0
VERTEX
  8
0
  6
CONTINUOUS
 10
4.712400
 20
7.306200
  0
VERTEX
  8
0
  6
CONTINUOUS
 10
4.807440
 20
7.284200
  0
VERTEX
  8
0
  6
CONTINUOUS
 10
4.910400
 20
7.266600
  0
VERTEX
  8
0
  6
CONTINUOUS
 10
4.992680
 20
7.256040
  0
VERTEX
  8
0
  6
CONTINUOUS
 10
5.080240
 20
7.248120
  0
VERTEX
  8
0
  6
CONTINUOUS
 10
5.141840
 20
7.244160
  0
VERTEX
  8
0
  6
CONTINUOUS
 10
5.239520
 20
7.240640
  0
VERTEX
  8
0
  6
CONTINUOUS
 10
5.343360
 20
7.239760
  0
VERTEX
  8
0
  6
CONTINUOUS
 10
5.344680
 20
7.277600
  0
VERTEX
  8
0
  6
CONTINUOUS
 10
5.349080
 20
7.312800
  0
VERTEX
  8
0
  6
CONTINUOUS
 10
5.355680
 20
7.345800
  0
VERTEX
  8
0
  6
CONTINUOUS
 10
5.365360
 20
7.376600
  0
VERTEX
  8
0
  6
CONTINUOUS
 10
5.383840
 20
7.418400
  0
VERTEX
  8
0
  6
CONTINUOUS
 10
5.398360
 20
7.443040
  0
VERTEX
  8
0
  6
CONTINUOUS
 10
5.424320
 20
7.476040
  0
VERTEX
  8
0
  6
CONTINUOUS
 10
5.453360
 20
7.503320
  0
VERTEX
  8
0
  6
CONTINUOUS
 10
5.485480
 20
7.524880
  0
VERTEX
  8
0
  6
CONTINUOUS
 10
5.519800
 20
7.541600
  0
VERTEX
  8
0
  6
CONTINUOUS
 10
5.555880
 20
7.552160
  0
VERTEX
  8
0
  6
CONTINUOUS
 10
5.580520
 20
7.556560
  0
VERTEX
  8
0
  6
CONTINUOUS
 10
5.605600
 20
7.558320
  0
VERTEX
  8
0
  6
CONTINUOUS
 10
5.630680
 20
7.557440
  0
VERTEX
  8
0
  6
CONTINUOUS
 10
5.668080
 20
7.551280
  0
VERTEX
  8
0
  6
CONTINUOUS
 10
5.704600
 20
7.539840
  0
VERTEX
  8
0
  6
CONTINUOUS
 10
5.739360
 20
7.522240
  0
VERTEX
  8
0
  6
CONTINUOUS
 10
5.772360
 20
7.499360
  0
VERTEX
  8
0
  6
CONTINUOUS
 10
5.792600
 20
7.480880
  0
VERTEX
  8
0
  6
CONTINUOUS
 10
5.811960
 20
7.459760
  0
VERTEX
  8
0
  6
CONTINUOUS
 10
5.837480
 20
7.422800
  0
VERTEX
  8
0
  6
CONTINUOUS
 10
5.858600
 20
7.380560
  0
VERTEX
  8
0
  6
CONTINUOUS
 10
5.870480
 20
7.348880
  0
VERTEX
  8
0
  6
CONTINUOUS
 10
5.883680
 20
7.296520
  0
VERTEX
  8
0
  6
CONTINUOUS
 10
5.888960
 20
7.258240
  0
VERTEX
  8
0
  6
CONTINUOUS
 10
5.890720
 20
7.238000
  0
VERTEX
  8
0
  6
CONTINUOUS
 10
5.993680
 20
7.238000
  0
VERTEX
  8
0
  6
CONTINUOUS
 10
5.999400
 20
7.220400
  0
VERTEX
  8
0
  6
CONTINUOUS
 10
6.007320
 20
7.203240
  0
VERTEX
  8
0
  6
CONTINUOUS
 10
6.029760
 20
7.169800
  0
VERTEX
  8
0
  6
CONTINUOUS
 10
6.043840
 20
7.153520
  0
VERTEX
  8
0
  6
CONTINUOUS
 10
6.060120
 20
7.138120
  0
VERTEX
  8
0
  6
CONTINUOUS
 10
6.078600
 20
7.123600
  0
VERTEX
  8
0
  6
CONTINUOUS
 10
6.099280
 20
7.109960
  0
VERTEX
  8
0
  6
CONTINUOUS
 10
6.121720
 20
7.097640
  0
VERTEX
  8
0
  6
CONTINUOUS
 10
6.159560
 20
7.081360
  0
VERTEX
  8
0
  6
CONTINUOUS
 10
6.201800
 20
7.067720
  0
VERTEX
  8
0
  6
CONTINUOUS
 10
6.248880
 20
7.058480
  0
VERTEX
  8
0
  6
CONTINUOUS
 10
6.300360
 20
7.052760
  0
VERTEX
  8
0
  6
CONTINUOUS
 10
6.336880
 20
7.051880
  0
VERTEX
  8
0
  6
CONTINUOUS
 10
6.336880
 20
6.708680
  0
VERTEX
  8
0
  6
CONTINUOUS
 10
2.098800
 20
6.708680
  0
VERTEX
  8
0
  6
CONTINUOUS
 10
2.098800
 20
7.149560
  0
VERTEX
  8
0
  6
CONTINUOUS
 10
2.099680
 20
7.149560
  0
SEQEND
  8
0
  0
TEXT
  8
0
 10
2.933040
 20
7.094560
 40
0.138225
  1
BA  1074
 41
1.000000
  7
SN0
 71
     0
 72
     5
 11
3.614865
 21
7.094560
  0
TEXT
  8
0
 10
2.703360
 20
6.903160
 40
0.138225
  1
1-3/16" x 4-1/4"
 41
1.000000
  7
SN0
 71
     0
 72
     5
 11
3.842393
 21
6.903160
  0
ENDSEC
  0
EOF
