  0
SECTION
  2
HEADER
  9
$ACADVER
  1
AC1006
  9
$EXTMIN
 10
1.378960
 20
0.442640
  9
$EXTMAX
 10
7.777880
 20
9.270360
  9
$LTSCALE
 40
0.044000
  9
$PDMODE
 70
    35
  9
$PDSIZE
 40
0.035200
  0
ENDSEC
  0
SECTION
  2
TABLES
  0
TABLE
  2
LTYPE
 70
     9
  0
LTYPE
  2
CONTINUOUS
 70
    64
  3
Solid line
 72
    65
 73
     0
 40
0.000000
  0
LTYPE
  2
DASHED
 70
    64
  3
__ __ __ __ __ __ __ __ __ __ __ __ __ __ __
 72
    65
 73
     2
 40
0.000330
 49
0.000220
 49
-0.000110
  0
LTYPE
  2
HIDDEN
 70
    64
  3
 _ _ _ _ _ _ _ _ _ _ _ _ _ _ _ _ _ _ _ _ _ _
 72
    65
 73
     2
 40
0.000165
 49
0.000110
 49
-0.000055
  0
LTYPE
  2
CENTER
 70
    64
  3
____ _ ____ _ ____ _ ____ _ ____ _ ____ _ ____
 72
    65
 73
     4
 40
0.000880
 49
0.000550
 49
-0.000110
 49
0.000110
 49
-0.000110
  0
LTYPE
  2
PHANTOM
 70
    64
  3
_____ _ _ _____ _ _ _____ _ _ _____ _ _ ____
 72
    65
 73
     6
 40
0.001100
 49
0.000550
 49
-0.000110
 49
0.000110
 49
-0.000110
 49
0.000110
 49
-0.000110
  0
LTYPE
  2
DOT
 70
    64
  3
...............................................
 72
    65
 73
     2
 40
0.000110
 49
0.000000
 49
-0.000110
  0
LTYPE
  2
DASHDOT
 70
    64
  3
__ . __ . __ . __ . __ . __ . __ . __ . __ . __
 72
    65
 73
     4
 40
0.000440
 49
0.000220
 49
-0.000110
 49
0.000000
 49
-0.000110
  0
LTYPE
  2
BORDER
 70
    64
  3
__ __ . __ __ . __ __ . __ __ . __ __ . __ __
 72
    65
 73
     6
 40
0.000770
 49
0.000220
 49
-0.000110
 49
0.000220
 49
-0.000110
 49
0.000000
 49
-0.000110
  0
LTYPE
  2
DIVIDE
 70
    64
  3
__ . . __ . . __ . . __ . . __ . . __ . . __
 72
    65
 73
     6
 40
0.000550
 49
0.000220
 49
-0.000110
 49
0.000000
 49
-0.000110
 49
0.000000
 49
-0.000110
  0
LTYPE
  2
DOTDOT
 70
    64
  3
 . .  . .  . .  . .  . .  . . 
 72
    65
 73
     5
 40
0.000242
 49
-0.000110
 49
0.000000
 49
-0.000110
 49
0.000000
 49
-0.000110
  0
ENDTAB
  0
TABLE
  2
STYLE
 70
     2
  0
STYLE
 70
     0
  2
SN0
 40
0.000000
 41
0.000440
 50
0.000000
 71
     0
 42
0.000000
  3
ROMAND
  0
STYLE
 70
    68
  2
SV0
 40
0.000000
 41
0.000440
 50
0.000000
 71
     0
 42
0.000000
  3
ROMAND
  0
ENDTAB
  0
TABLE
  2
LAYER
 70
     3
  0
LAYER
  2
FOREGROUND
 70
    64
 62
     7
  6
CONTINUOUS
  0
LAYER
  2
BACKGROUND
 70
    65
 62
    -7
  6
CONTINUOUS
  0
LAYER
  2
0
 70
    64
 62
     7
  6
CONTINUOUS
  0
ENDTAB
  0
ENDSEC
  0
SECTION
  2
ENTITIES
  0
POLYLINE
  8
FOREGROUND
  6
CONTINUOUS
 66
     1
 40
0.000000
 41
0.000000
  0
VERTEX
  8
FOREGROUND
  6
CONTINUOUS
 10
0.000000
 20
9.713000
  0
VERTEX
  8
FOREGROUND
  6
CONTINUOUS
 10
8.499920
 20
9.713000
  0
VERTEX
  8
FOREGROUND
  6
CONTINUOUS
 10
8.499920
 20
-1.287000
  0
VERTEX
  8
FOREGROUND
  6
CONTINUOUS
 10
0.000000
 20
-1.287000
  0
VERTEX
  8
FOREGROUND
  6
CONTINUOUS
 10
0.000000
 20
9.713000
  0
SEQEND
  8
0
  0
POLYLINE
  8
FOREGROUND
  6
CONTINUOUS
 66
     1
 40
0.000000
 41
0.000000
  0
VERTEX
  8
FOREGROUND
  6
CONTINUOUS
 10
0.000000
 20
9.713000
  0
VERTEX
  8
FOREGROUND
  6
CONTINUOUS
 10
8.499920
 20
9.713000
  0
VERTEX
  8
FOREGROUND
  6
CONTINUOUS
 10
8.499920
 20
-1.287000
  0
VERTEX
  8
FOREGROUND
  6
CONTINUOUS
 10
0.000000
 20
-1.287000
  0
VERTEX
  8
FOREGROUND
  6
CONTINUOUS
 10
0.000000
 20
9.713000
  0
SEQEND
  8
0
  0
SOLID
  8
0
 62
    15
 10
3.943280
 20
7.403000
 11
4.570720
 21
7.775240
 12
4.198040
 22
7.341840
 13
4.825480
 23
7.714080
  0
POLYLINE
  8
0
  6
CONTINUOUS
 66
     1
 40
0.000000
 41
0.000000
  0
VERTEX
  8
0
  6
CONTINUOUS
 10
3.943280
 20
7.403000
  0
VERTEX
  8
0
  6
CONTINUOUS
 10
4.570720
 20
7.775240
  0
VERTEX
  8
0
  6
CONTINUOUS
 10
4.825480
 20
7.714080
  0
VERTEX
  8
0
  6
CONTINUOUS
 10
4.198040
 20
7.341840
  0
VERTEX
  8
0
  6
CONTINUOUS
 10
3.943280
 20
7.403000
  0
SEQEND
  8
0
  0
SOLID
  8
0
 62
    15
 10
4.330480
 20
6.347880
 11
4.958360
 21
6.719680
 12
4.580400
 22
6.291560
 13
5.208280
 23
6.663800
  0
POLYLINE
  8
0
  6
CONTINUOUS
 66
     1
 40
0.000000
 41
0.000000
  0
VERTEX
  8
0
  6
CONTINUOUS
 10
4.330480
 20
6.347880
  0
VERTEX
  8
0
  6
CONTINUOUS
 10
4.958360
 20
6.719680
  0
VERTEX
  8
0
  6
CONTINUOUS
 10
5.208280
 20
6.663800
  0
VERTEX
  8
0
  6
CONTINUOUS
 10
4.580400
 20
6.291560
  0
VERTEX
  8
0
  6
CONTINUOUS
 10
4.330480
 20
6.347880
  0
SEQEND
  8
0
  0
SOLID
  8
0
 62
    15
 10
4.580400
 20
6.291560
 11
5.208280
 21
6.663800
 12
4.702720
 22
5.292320
 13
5.330600
 23
5.664560
  0
POLYLINE
  8
0
  6
CONTINUOUS
 66
     1
 40
0.000000
 41
0.000000
  0
VERTEX
  8
0
  6
CONTINUOUS
 10
4.580400
 20
6.291560
  0
VERTEX
  8
0
  6
CONTINUOUS
 10
5.208280
 20
6.663800
  0
VERTEX
  8
0
  6
CONTINUOUS
 10
5.330600
 20
5.664560
  0
VERTEX
  8
0
  6
CONTINUOUS
 10
4.702720
 20
5.292320
  0
VERTEX
  8
0
  6
CONTINUOUS
 10
4.580400
 20
6.291560
  0
SEQEND
  8
0
  0
SOLID
  8
0
 62
    15
 10
4.702720
 20
5.292320
 11
5.330600
 21
5.664560
 12
4.702720
 22
1.020800
 13
5.330600
 23
1.393040
  0
POLYLINE
  8
0
  6
CONTINUOUS
 66
     1
 40
0.000000
 41
0.000000
  0
VERTEX
  8
0
  6
CONTINUOUS
 10
4.702720
 20
5.292320
  0
VERTEX
  8
0
  6
CONTINUOUS
 10
5.330600
 20
5.664560
  0
VERTEX
  8
0
  6
CONTINUOUS
 10
5.330600
 20
1.393040
  0
VERTEX
  8
0
  6
CONTINUOUS
 10
4.702720
 20
1.020800
  0
VERTEX
  8
0
  6
CONTINUOUS
 10
4.702720
 20
5.292320
  0
SEQEND
  8
0
  0
SOLID
  8
0
 62
    15
 10
3.943280
 20
1.020800
 11
4.570720
 21
1.393040
 12
3.943280
 22
1.020800
 13
4.570720
 23
1.392600
  0
POLYLINE
  8
0
  6
CONTINUOUS
 66
     1
 40
0.000000
 41
0.000000
  0
VERTEX
  8
0
  6
CONTINUOUS
 10
3.943280
 20
1.020800
  0
VERTEX
  8
0
  6
CONTINUOUS
 10
4.570720
 20
1.393040
  0
VERTEX
  8
0
  6
CONTINUOUS
 10
4.570720
 20
1.392600
  0
VERTEX
  8
0
  6
CONTINUOUS
 10
3.943280
 20
1.020800
  0
SEQEND
  8
0
  0
SOLID
  8
0
 62
    15
 10
4.198040
 20
7.341840
 11
4.825480
 21
7.714080
 12
4.330480
 22
6.347880
 13
4.958360
 23
6.719680
  0
POLYLINE
  8
0
  6
CONTINUOUS
 66
     1
 40
0.000000
 41
0.000000
  0
VERTEX
  8
0
  6
CONTINUOUS
 10
4.198040
 20
7.341840
  0
VERTEX
  8
0
  6
CONTINUOUS
 10
4.825480
 20
7.714080
  0
VERTEX
  8
0
  6
CONTINUOUS
 10
4.958360
 20
6.719680
  0
VERTEX
  8
0
  6
CONTINUOUS
 10
4.330480
 20
6.347880
  0
VERTEX
  8
0
  6
CONTINUOUS
 10
4.198040
 20
7.341840
  0
SEQEND
  8
0
  0
POLYLINE
  8
0
  6
CONTINUOUS
 66
     1
 40
0.000000
 41
0.000000
  0
VERTEX
  8
0
  6
CONTINUOUS
 10
3.943280
 20
1.020800
  0
VERTEX
  8
0
  6
CONTINUOUS
 10
3.943280
 20
7.403000
  0
VERTEX
  8
0
  6
CONTINUOUS
 10
4.198040
 20
7.341840
  0
VERTEX
  8
0
  6
CONTINUOUS
 10
4.330480
 20
6.347880
  0
VERTEX
  8
0
  6
CONTINUOUS
 10
4.580400
 20
6.291560
  0
VERTEX
  8
0
  6
CONTINUOUS
 10
4.702720
 20
5.292320
  0
VERTEX
  8
0
  6
CONTINUOUS
 10
4.702720
 20
1.020800
  0
VERTEX
  8
0
  6
CONTINUOUS
 10
3.943280
 20
1.020800
  0
SEQEND
  8
0
  0
TEXT
  8
0
 10
4.290440
 20
0.678040
 40
0.137975
  1
BA  1072
 41
1.000000
  7
SN0
 71
     0
 72
     5
 11
4.975471
 21
0.678040
  0
TEXT
  8
0
 10
4.134680
 20
0.486200
 40
0.137975
  1
3/4" x 6-7/16"
 41
1.000000
  7
SN0
 71
     0
 72
     5
 11
5.133537
 21
0.486200
  0
POLYLINE
  8
0
  6
CONTINUOUS
 66
     1
 40
0.014080
 41
0.014080
  0
VERTEX
  8
0
  6
CONTINUOUS
 10
1.386000
 20
8.503000
  0
VERTEX
  8
0
  6
CONTINUOUS
 10
7.768640
 20
8.503000
  0
VERTEX
  8
0
  6
CONTINUOUS
 10
7.707480
 20
8.757760
  0
VERTEX
  8
0
  6
CONTINUOUS
 10
6.713520
 20
8.890200
  0
VERTEX
  8
0
  6
CONTINUOUS
 10
6.657200
 20
9.140120
  0
VERTEX
  8
0
  6
CONTINUOUS
 10
5.657960
 20
9.262440
  0
VERTEX
  8
0
  6
CONTINUOUS
 10
1.750320
 20
9.262440
  0
VERTEX
  8
0
  6
CONTINUOUS
 10
1.386440
 20
9.262440
  0
VERTEX
  8
0
  6
CONTINUOUS
 10
1.386440
 20
8.503000
  0
VERTEX
  8
0
  6
CONTINUOUS
 10
1.386000
 20
8.503000
  0
SEQEND
  8
0
  0
TEXT
  8
0
 10
1.816760
 20
8.817160
 40
0.137975
  1
BA  1072
 41
1.000000
  7
SN0
 71
     0
 72
     5
 11
2.501791
 21
8.817160
  0
TEXT
  8
0
 10
1.661000
 20
8.625320
 40
0.137975
  1
3/4" x 6-7/16"
 41
1.000000
  7
SN0
 71
     0
 72
     5
 11
2.659857
 21
8.625320
  0
ENDSEC
  0
EOF
