  0
SECTION
  2
HEADER
  9
$ACADVER
  1
AC1006
  9
$EXTMIN
 10
3.706560
 20
0.505560
  9
$EXTMAX
 10
7.827600
 20
3.605800
  9
$LTSCALE
 40
0.044000
  9
$PDMODE
 70
    35
  9
$PDSIZE
 40
0.035200
  0
ENDSEC
  0
SECTION
  2
TABLES
  0
TABLE
  2
LTYPE
 70
     9
  0
LTYPE
  2
CONTINUOUS
 70
    64
  3
Solid line
 72
    65
 73
     0
 40
0.000000
  0
LTYPE
  2
DASHED
 70
    64
  3
__ __ __ __ __ __ __ __ __ __ __ __ __ __ __
 72
    65
 73
     2
 40
0.000330
 49
0.000220
 49
-0.000110
  0
LTYPE
  2
HIDDEN
 70
    64
  3
 _ _ _ _ _ _ _ _ _ _ _ _ _ _ _ _ _ _ _ _ _ _
 72
    65
 73
     2
 40
0.000165
 49
0.000110
 49
-0.000055
  0
LTYPE
  2
CENTER
 70
    64
  3
____ _ ____ _ ____ _ ____ _ ____ _ ____ _ ____
 72
    65
 73
     4
 40
0.000880
 49
0.000550
 49
-0.000110
 49
0.000110
 49
-0.000110
  0
LTYPE
  2
PHANTOM
 70
    64
  3
_____ _ _ _____ _ _ _____ _ _ _____ _ _ ____
 72
    65
 73
     6
 40
0.001100
 49
0.000550
 49
-0.000110
 49
0.000110
 49
-0.000110
 49
0.000110
 49
-0.000110
  0
LTYPE
  2
DOT
 70
    64
  3
...............................................
 72
    65
 73
     2
 40
0.000110
 49
0.000000
 49
-0.000110
  0
LTYPE
  2
DASHDOT
 70
    64
  3
__ . __ . __ . __ . __ . __ . __ . __ . __ . __
 72
    65
 73
     4
 40
0.000440
 49
0.000220
 49
-0.000110
 49
0.000000
 49
-0.000110
  0
LTYPE
  2
BORDER
 70
    64
  3
__ __ . __ __ . __ __ . __ __ . __ __ . __ __
 72
    65
 73
     6
 40
0.000770
 49
0.000220
 49
-0.000110
 49
0.000220
 49
-0.000110
 49
0.000000
 49
-0.000110
  0
LTYPE
  2
DIVIDE
 70
    64
  3
__ . . __ . . __ . . __ . . __ . . __ . . __
 72
    65
 73
     6
 40
0.000550
 49
0.000220
 49
-0.000110
 49
0.000000
 49
-0.000110
 49
0.000000
 49
-0.000110
  0
LTYPE
  2
DOTDOT
 70
    64
  3
 . .  . .  . .  . .  . .  . . 
 72
    65
 73
     5
 40
0.000242
 49
-0.000110
 49
0.000000
 49
-0.000110
 49
0.000000
 49
-0.000110
  0
ENDTAB
  0
TABLE
  2
STYLE
 70
     2
  0
STYLE
 70
     0
  2
SN0
 40
0.000000
 41
0.000440
 50
0.000000
 71
     0
 42
0.000000
  3
ROMAND
  0
STYLE
 70
    68
  2
SV0
 40
0.000000
 41
0.000440
 50
0.000000
 71
     0
 42
0.000000
  3
ROMAND
  0
ENDTAB
  0
TABLE
  2
LAYER
 70
     3
  0
LAYER
  2
FOREGROUND
 70
    64
 62
     7
  6
CONTINUOUS
  0
LAYER
  2
BACKGROUND
 70
    65
 62
    -7
  6
CONTINUOUS
  0
LAYER
  2
0
 70
    64
 62
     7
  6
CONTINUOUS
  0
ENDTAB
  0
ENDSEC
  0
SECTION
  2
ENTITIES
  0
POLYLINE
  8
FOREGROUND
  6
CONTINUOUS
 66
     1
 40
0.000000
 41
0.000000
  0
VERTEX
  8
FOREGROUND
  6
CONTINUOUS
 10
0.000000
 20
4.111360
  0
VERTEX
  8
FOREGROUND
  6
CONTINUOUS
 10
8.499920
 20
4.111360
  0
VERTEX
  8
FOREGROUND
  6
CONTINUOUS
 10
8.499920
 20
-6.888640
  0
VERTEX
  8
FOREGROUND
  6
CONTINUOUS
 10
0.000000
 20
-6.888640
  0
VERTEX
  8
FOREGROUND
  6
CONTINUOUS
 10
0.000000
 20
4.111360
  0
SEQEND
  8
0
  0
POLYLINE
  8
FOREGROUND
  6
CONTINUOUS
 66
     1
 40
0.000000
 41
0.000000
  0
VERTEX
  8
FOREGROUND
  6
CONTINUOUS
 10
0.000000
 20
4.111360
  0
VERTEX
  8
FOREGROUND
  6
CONTINUOUS
 10
8.499920
 20
4.111360
  0
VERTEX
  8
FOREGROUND
  6
CONTINUOUS
 10
8.499920
 20
-6.888640
  0
VERTEX
  8
FOREGROUND
  6
CONTINUOUS
 10
0.000000
 20
-6.888640
  0
VERTEX
  8
FOREGROUND
  6
CONTINUOUS
 10
0.000000
 20
4.111360
  0
SEQEND
  8
0
  0
POLYLINE
  8
0
  6
CONTINUOUS
 66
     1
 40
0.014080
 41
0.014080
  0
VERTEX
  8
0
  6
CONTINUOUS
 10
7.820560
 20
3.077360
  0
VERTEX
  8
0
  6
CONTINUOUS
 10
7.820560
 20
2.831400
  0
VERTEX
  8
0
  6
CONTINUOUS
 10
7.681080
 20
2.831400
  0
VERTEX
  8
0
  6
CONTINUOUS
 10
5.581840
 20
2.831400
  0
VERTEX
  8
0
  6
CONTINUOUS
 10
5.581840
 20
3.458400
  0
VERTEX
  8
0
  6
CONTINUOUS
 10
6.831440
 20
3.212000
  0
VERTEX
  8
0
  6
CONTINUOUS
 10
6.855200
 20
3.238840
  0
VERTEX
  8
0
  6
CONTINUOUS
 10
6.880720
 20
3.263920
  0
VERTEX
  8
0
  6
CONTINUOUS
 10
6.907120
 20
3.287240
  0
VERTEX
  8
0
  6
CONTINUOUS
 10
6.935280
 20
3.308360
  0
VERTEX
  8
0
  6
CONTINUOUS
 10
6.964320
 20
3.327280
  0
VERTEX
  8
0
  6
CONTINUOUS
 10
6.994680
 20
3.344880
  0
VERTEX
  8
0
  6
CONTINUOUS
 10
7.025920
 20
3.359840
  0
VERTEX
  8
0
  6
CONTINUOUS
 10
7.057600
 20
3.373480
  0
VERTEX
  8
0
  6
CONTINUOUS
 10
7.090600
 20
3.384480
  0
VERTEX
  8
0
  6
CONTINUOUS
 10
7.124040
 20
3.394160
  0
VERTEX
  8
0
  6
CONTINUOUS
 10
7.157920
 20
3.401200
  0
VERTEX
  8
0
  6
CONTINUOUS
 10
7.192680
 20
3.406920
  0
VERTEX
  8
0
  6
CONTINUOUS
 10
7.227440
 20
3.410000
  0
VERTEX
  8
0
  6
CONTINUOUS
 10
7.262640
 20
3.411320
  0
VERTEX
  8
0
  6
CONTINUOUS
 10
7.297840
 20
3.410440
  0
VERTEX
  8
0
  6
CONTINUOUS
 10
7.333040
 20
3.407800
  0
VERTEX
  8
0
  6
CONTINUOUS
 10
7.368240
 20
3.402960
  0
VERTEX
  8
0
  6
CONTINUOUS
 10
7.403440
 20
3.395920
  0
VERTEX
  8
0
  6
CONTINUOUS
 10
7.438200
 20
3.387120
  0
VERTEX
  8
0
  6
CONTINUOUS
 10
7.472520
 20
3.376120
  0
VERTEX
  8
0
  6
CONTINUOUS
 10
7.506400
 20
3.362920
  0
VERTEX
  8
0
  6
CONTINUOUS
 10
7.539840
 20
3.347520
  0
VERTEX
  8
0
  6
CONTINUOUS
 10
7.572840
 20
3.330360
  0
VERTEX
  8
0
  6
CONTINUOUS
 10
7.604520
 20
3.311000
  0
VERTEX
  8
0
  6
CONTINUOUS
 10
7.635760
 20
3.289000
  0
VERTEX
  8
0
  6
CONTINUOUS
 10
7.665680
 20
3.265240
  0
VERTEX
  8
0
  6
CONTINUOUS
 10
7.680640
 20
3.252920
  0
VERTEX
  8
0
  6
CONTINUOUS
 10
7.695160
 20
3.239720
  0
VERTEX
  8
0
  6
CONTINUOUS
 10
7.709240
 20
3.225640
  0
VERTEX
  8
0
  6
CONTINUOUS
 10
7.722880
 20
3.211560
  0
VERTEX
  8
0
  6
CONTINUOUS
 10
7.736520
 20
3.196600
  0
VERTEX
  8
0
  6
CONTINUOUS
 10
7.749280
 20
3.181200
  0
VERTEX
  8
0
  6
CONTINUOUS
 10
7.762040
 20
3.165360
  0
VERTEX
  8
0
  6
CONTINUOUS
 10
7.774800
 20
3.148640
  0
VERTEX
  8
0
  6
CONTINUOUS
 10
7.786680
 20
3.131920
  0
VERTEX
  8
0
  6
CONTINUOUS
 10
7.798560
 20
3.114320
  0
VERTEX
  8
0
  6
CONTINUOUS
 10
7.820560
 20
3.077360
  0
SEQEND
  8
0
  0
TEXT
  8
0
 10
6.561280
 20
2.585000
 40
0.138077
  1
BA  1071
 41
1.000000
  7
SN0
 71
     0
 72
     5
 11
7.242900
 21
2.585000
  0
TEXT
  8
0
 10
6.451720
 20
2.393600
 40
0.138077
  1
5/8" x 2-1/4"
 41
1.000000
  7
SN0
 71
     0
 72
     5
 11
7.350931
 21
2.393600
  0
SOLID
  8
0
 62
    15
 10
4.286920
 20
2.676080
 11
4.934600
 21
3.047000
 12
4.282520
 22
2.606120
 13
4.929760
 23
2.977040
  0
POLYLINE
  8
0
  6
CONTINUOUS
 66
     1
 40
0.000000
 41
0.000000
  0
VERTEX
  8
0
  6
CONTINUOUS
 10
4.286920
 20
2.676080
  0
VERTEX
  8
0
  6
CONTINUOUS
 10
4.934600
 20
3.047000
  0
VERTEX
  8
0
  6
CONTINUOUS
 10
4.929760
 20
2.977040
  0
VERTEX
  8
0
  6
CONTINUOUS
 10
4.282520
 20
2.606120
  0
VERTEX
  8
0
  6
CONTINUOUS
 10
4.286920
 20
2.676080
  0
SEQEND
  8
0
  0
SOLID
  8
0
 62
    15
 10
4.024680
 20
3.188240
 11
4.671920
 21
3.559160
 12
4.087160
 22
3.136320
 13
4.734840
 23
3.507680
  0
POLYLINE
  8
0
  6
CONTINUOUS
 66
     1
 40
0.000000
 41
0.000000
  0
VERTEX
  8
0
  6
CONTINUOUS
 10
4.024680
 20
3.188240
  0
VERTEX
  8
0
  6
CONTINUOUS
 10
4.671920
 20
3.559160
  0
VERTEX
  8
0
  6
CONTINUOUS
 10
4.734840
 20
3.507680
  0
VERTEX
  8
0
  6
CONTINUOUS
 10
4.087160
 20
3.136320
  0
VERTEX
  8
0
  6
CONTINUOUS
 10
4.024680
 20
3.188240
  0
SEQEND
  8
0
  0
SOLID
  8
0
 62
    15
 10
4.087160
 20
3.136320
 11
4.734840
 21
3.507680
 12
4.141280
 22
3.079560
 13
4.788520
 23
3.450480
  0
POLYLINE
  8
0
  6
CONTINUOUS
 66
     1
 40
0.000000
 41
0.000000
  0
VERTEX
  8
0
  6
CONTINUOUS
 10
4.087160
 20
3.136320
  0
VERTEX
  8
0
  6
CONTINUOUS
 10
4.734840
 20
3.507680
  0
VERTEX
  8
0
  6
CONTINUOUS
 10
4.788520
 20
3.450480
  0
VERTEX
  8
0
  6
CONTINUOUS
 10
4.141280
 20
3.079560
  0
VERTEX
  8
0
  6
CONTINUOUS
 10
4.087160
 20
3.136320
  0
SEQEND
  8
0
  0
SOLID
  8
0
 62
    15
 10
4.141280
 20
3.079560
 11
4.788520
 21
3.450480
 12
4.186600
 22
3.017960
 13
4.833840
 23
3.389320
  0
POLYLINE
  8
0
  6
CONTINUOUS
 66
     1
 40
0.000000
 41
0.000000
  0
VERTEX
  8
0
  6
CONTINUOUS
 10
4.141280
 20
3.079560
  0
VERTEX
  8
0
  6
CONTINUOUS
 10
4.788520
 20
3.450480
  0
VERTEX
  8
0
  6
CONTINUOUS
 10
4.833840
 20
3.389320
  0
VERTEX
  8
0
  6
CONTINUOUS
 10
4.186600
 20
3.017960
  0
VERTEX
  8
0
  6
CONTINUOUS
 10
4.141280
 20
3.079560
  0
SEQEND
  8
0
  0
SOLID
  8
0
 62
    15
 10
4.186600
 20
3.017960
 11
4.833840
 21
3.389320
 12
4.223120
 22
2.953280
 13
4.870800
 23
3.324640
  0
POLYLINE
  8
0
  6
CONTINUOUS
 66
     1
 40
0.000000
 41
0.000000
  0
VERTEX
  8
0
  6
CONTINUOUS
 10
4.186600
 20
3.017960
  0
VERTEX
  8
0
  6
CONTINUOUS
 10
4.833840
 20
3.389320
  0
VERTEX
  8
0
  6
CONTINUOUS
 10
4.870800
 20
3.324640
  0
VERTEX
  8
0
  6
CONTINUOUS
 10
4.223120
 20
2.953280
  0
VERTEX
  8
0
  6
CONTINUOUS
 10
4.186600
 20
3.017960
  0
SEQEND
  8
0
  0
SOLID
  8
0
 62
    15
 10
4.223120
 20
2.953280
 11
4.870800
 21
3.324640
 12
4.251720
 22
2.885960
 13
4.899400
 23
3.256880
  0
POLYLINE
  8
0
  6
CONTINUOUS
 66
     1
 40
0.000000
 41
0.000000
  0
VERTEX
  8
0
  6
CONTINUOUS
 10
4.223120
 20
2.953280
  0
VERTEX
  8
0
  6
CONTINUOUS
 10
4.870800
 20
3.324640
  0
VERTEX
  8
0
  6
CONTINUOUS
 10
4.899400
 20
3.256880
  0
VERTEX
  8
0
  6
CONTINUOUS
 10
4.251720
 20
2.885960
  0
VERTEX
  8
0
  6
CONTINUOUS
 10
4.223120
 20
2.953280
  0
SEQEND
  8
0
  0
SOLID
  8
0
 62
    15
 10
4.251720
 20
2.885960
 11
4.899400
 21
3.256880
 12
4.271960
 22
2.816880
 13
4.919200
 23
3.187800
  0
POLYLINE
  8
0
  6
CONTINUOUS
 66
     1
 40
0.000000
 41
0.000000
  0
VERTEX
  8
0
  6
CONTINUOUS
 10
4.251720
 20
2.885960
  0
VERTEX
  8
0
  6
CONTINUOUS
 10
4.899400
 20
3.256880
  0
VERTEX
  8
0
  6
CONTINUOUS
 10
4.919200
 20
3.187800
  0
VERTEX
  8
0
  6
CONTINUOUS
 10
4.271960
 20
2.816880
  0
VERTEX
  8
0
  6
CONTINUOUS
 10
4.251720
 20
2.885960
  0
SEQEND
  8
0
  0
SOLID
  8
0
 62
    15
 10
4.271960
 20
2.816880
 11
4.919200
 21
3.187800
 12
4.283400
 22
2.746480
 13
4.931080
 23
3.117400
  0
POLYLINE
  8
0
  6
CONTINUOUS
 66
     1
 40
0.000000
 41
0.000000
  0
VERTEX
  8
0
  6
CONTINUOUS
 10
4.271960
 20
2.816880
  0
VERTEX
  8
0
  6
CONTINUOUS
 10
4.919200
 20
3.187800
  0
VERTEX
  8
0
  6
CONTINUOUS
 10
4.931080
 20
3.117400
  0
VERTEX
  8
0
  6
CONTINUOUS
 10
4.283400
 20
2.746480
  0
VERTEX
  8
0
  6
CONTINUOUS
 10
4.271960
 20
2.816880
  0
SEQEND
  8
0
  0
SOLID
  8
0
 62
    15
 10
4.283400
 20
2.746480
 11
4.931080
 21
3.117400
 12
4.286920
 22
2.676080
 13
4.934600
 23
3.047000
  0
POLYLINE
  8
0
  6
CONTINUOUS
 66
     1
 40
0.000000
 41
0.000000
  0
VERTEX
  8
0
  6
CONTINUOUS
 10
4.283400
 20
2.746480
  0
VERTEX
  8
0
  6
CONTINUOUS
 10
4.931080
 20
3.117400
  0
VERTEX
  8
0
  6
CONTINUOUS
 10
4.934600
 20
3.047000
  0
VERTEX
  8
0
  6
CONTINUOUS
 10
4.286920
 20
2.676080
  0
VERTEX
  8
0
  6
CONTINUOUS
 10
4.283400
 20
2.746480
  0
SEQEND
  8
0
  0
SOLID
  8
0
 62
    15
 10
3.952960
 20
3.234000
 11
4.600640
 21
3.605360
 12
4.024680
 22
3.188240
 13
4.671920
 23
3.559160
  0
POLYLINE
  8
0
  6
CONTINUOUS
 66
     1
 40
0.000000
 41
0.000000
  0
VERTEX
  8
0
  6
CONTINUOUS
 10
3.952960
 20
3.234000
  0
VERTEX
  8
0
  6
CONTINUOUS
 10
4.600640
 20
3.605360
  0
VERTEX
  8
0
  6
CONTINUOUS
 10
4.671920
 20
3.559160
  0
VERTEX
  8
0
  6
CONTINUOUS
 10
4.024680
 20
3.188240
  0
VERTEX
  8
0
  6
CONTINUOUS
 10
3.952960
 20
3.234000
  0
SEQEND
  8
0
  0
SOLID
  8
0
 62
    15
 10
4.282520
 20
2.606120
 11
4.929760
 21
2.977040
 12
4.269760
 22
2.537480
 13
4.917000
 23
2.908400
  0
POLYLINE
  8
0
  6
CONTINUOUS
 66
     1
 40
0.000000
 41
0.000000
  0
VERTEX
  8
0
  6
CONTINUOUS
 10
4.282520
 20
2.606120
  0
VERTEX
  8
0
  6
CONTINUOUS
 10
4.929760
 20
2.977040
  0
VERTEX
  8
0
  6
CONTINUOUS
 10
4.917000
 20
2.908400
  0
VERTEX
  8
0
  6
CONTINUOUS
 10
4.269760
 20
2.537480
  0
VERTEX
  8
0
  6
CONTINUOUS
 10
4.282520
 20
2.606120
  0
SEQEND
  8
0
  0
SOLID
  8
0
 62
    15
 10
4.269760
 20
2.537480
 11
4.917000
 21
2.908400
 12
4.249080
 22
2.471480
 13
4.896320
 23
2.842400
  0
POLYLINE
  8
0
  6
CONTINUOUS
 66
     1
 40
0.000000
 41
0.000000
  0
VERTEX
  8
0
  6
CONTINUOUS
 10
4.269760
 20
2.537480
  0
VERTEX
  8
0
  6
CONTINUOUS
 10
4.917000
 20
2.908400
  0
VERTEX
  8
0
  6
CONTINUOUS
 10
4.896320
 20
2.842400
  0
VERTEX
  8
0
  6
CONTINUOUS
 10
4.249080
 20
2.471480
  0
VERTEX
  8
0
  6
CONTINUOUS
 10
4.269760
 20
2.537480
  0
SEQEND
  8
0
  0
SOLID
  8
0
 62
    15
 10
4.249080
 20
2.471480
 11
4.896320
 21
2.842400
 12
4.220480
 22
2.408120
 13
4.867720
 23
2.779040
  0
POLYLINE
  8
0
  6
CONTINUOUS
 66
     1
 40
0.000000
 41
0.000000
  0
VERTEX
  8
0
  6
CONTINUOUS
 10
4.249080
 20
2.471480
  0
VERTEX
  8
0
  6
CONTINUOUS
 10
4.896320
 20
2.842400
  0
VERTEX
  8
0
  6
CONTINUOUS
 10
4.867720
 20
2.779040
  0
VERTEX
  8
0
  6
CONTINUOUS
 10
4.220480
 20
2.408120
  0
VERTEX
  8
0
  6
CONTINUOUS
 10
4.249080
 20
2.471480
  0
SEQEND
  8
0
  0
SOLID
  8
0
 62
    15
 10
4.220480
 20
2.408120
 11
4.867720
 21
2.779040
 12
4.183960
 22
2.348720
 13
4.831640
 23
2.719640
  0
POLYLINE
  8
0
  6
CONTINUOUS
 66
     1
 40
0.000000
 41
0.000000
  0
VERTEX
  8
0
  6
CONTINUOUS
 10
4.220480
 20
2.408120
  0
VERTEX
  8
0
  6
CONTINUOUS
 10
4.867720
 20
2.779040
  0
VERTEX
  8
0
  6
CONTINUOUS
 10
4.831640
 20
2.719640
  0
VERTEX
  8
0
  6
CONTINUOUS
 10
4.183960
 20
2.348720
  0
VERTEX
  8
0
  6
CONTINUOUS
 10
4.220480
 20
2.408120
  0
SEQEND
  8
0
  0
SOLID
  8
0
 62
    15
 10
4.183960
 20
2.348720
 11
4.831640
 21
2.719640
 12
4.139960
 22
2.294160
 13
4.787200
 23
2.665080
  0
POLYLINE
  8
0
  6
CONTINUOUS
 66
     1
 40
0.000000
 41
0.000000
  0
VERTEX
  8
0
  6
CONTINUOUS
 10
4.183960
 20
2.348720
  0
VERTEX
  8
0
  6
CONTINUOUS
 10
4.831640
 20
2.719640
  0
VERTEX
  8
0
  6
CONTINUOUS
 10
4.787200
 20
2.665080
  0
VERTEX
  8
0
  6
CONTINUOUS
 10
4.139960
 20
2.294160
  0
VERTEX
  8
0
  6
CONTINUOUS
 10
4.183960
 20
2.348720
  0
SEQEND
  8
0
  0
SOLID
  8
0
 62
    15
 10
4.139960
 20
2.294160
 11
4.787200
 21
2.665080
 12
4.088040
 22
2.244880
 13
4.735280
 23
2.615800
  0
POLYLINE
  8
0
  6
CONTINUOUS
 66
     1
 40
0.000000
 41
0.000000
  0
VERTEX
  8
0
  6
CONTINUOUS
 10
4.139960
 20
2.294160
  0
VERTEX
  8
0
  6
CONTINUOUS
 10
4.787200
 20
2.665080
  0
VERTEX
  8
0
  6
CONTINUOUS
 10
4.735280
 20
2.615800
  0
VERTEX
  8
0
  6
CONTINUOUS
 10
4.088040
 20
2.244880
  0
VERTEX
  8
0
  6
CONTINUOUS
 10
4.139960
 20
2.294160
  0
SEQEND
  8
0
  0
SOLID
  8
0
 62
    15
 10
4.088040
 20
2.244880
 11
4.735280
 21
2.615800
 12
4.334000
 22
0.995280
 13
4.981680
 23
1.366640
  0
POLYLINE
  8
0
  6
CONTINUOUS
 66
     1
 40
0.000000
 41
0.000000
  0
VERTEX
  8
0
  6
CONTINUOUS
 10
4.088040
 20
2.244880
  0
VERTEX
  8
0
  6
CONTINUOUS
 10
4.735280
 20
2.615800
  0
VERTEX
  8
0
  6
CONTINUOUS
 10
4.981680
 20
1.366640
  0
VERTEX
  8
0
  6
CONTINUOUS
 10
4.334000
 20
0.995280
  0
VERTEX
  8
0
  6
CONTINUOUS
 10
4.088040
 20
2.244880
  0
SEQEND
  8
0
  0
SOLID
  8
0
 62
    15
 10
3.707000
 20
3.234000
 11
4.354680
 21
3.605360
 12
3.952960
 22
3.234000
 13
4.600640
 23
3.605360
  0
POLYLINE
  8
0
  6
CONTINUOUS
 66
     1
 40
0.000000
 41
0.000000
  0
VERTEX
  8
0
  6
CONTINUOUS
 10
3.707000
 20
3.234000
  0
VERTEX
  8
0
  6
CONTINUOUS
 10
4.354680
 20
3.605360
  0
VERTEX
  8
0
  6
CONTINUOUS
 10
4.600640
 20
3.605360
  0
VERTEX
  8
0
  6
CONTINUOUS
 10
3.952960
 20
3.234000
  0
VERTEX
  8
0
  6
CONTINUOUS
 10
3.707000
 20
3.234000
  0
SEQEND
  8
0
  0
POLYLINE
  8
0
  6
CONTINUOUS
 66
     1
 40
0.000000
 41
0.000000
  0
VERTEX
  8
0
  6
CONTINUOUS
 10
3.952960
 20
3.234000
  0
VERTEX
  8
0
  6
CONTINUOUS
 10
4.600640
 20
3.605360
  0
VERTEX
  8
0
  6
CONTINUOUS
 10
3.952960
 20
3.234000
  0
SEQEND
  8
0
  0
POLYLINE
  8
0
  6
CONTINUOUS
 66
     1
 40
0.000000
 41
0.000000
  0
VERTEX
  8
0
  6
CONTINUOUS
 10
3.952960
 20
3.234000
  0
VERTEX
  8
0
  6
CONTINUOUS
 10
4.024680
 20
3.188240
  0
VERTEX
  8
0
  6
CONTINUOUS
 10
4.087160
 20
3.136320
  0
VERTEX
  8
0
  6
CONTINUOUS
 10
4.141280
 20
3.079560
  0
VERTEX
  8
0
  6
CONTINUOUS
 10
4.186600
 20
3.017960
  0
VERTEX
  8
0
  6
CONTINUOUS
 10
4.223120
 20
2.953280
  0
VERTEX
  8
0
  6
CONTINUOUS
 10
4.251720
 20
2.885960
  0
VERTEX
  8
0
  6
CONTINUOUS
 10
4.271960
 20
2.816880
  0
VERTEX
  8
0
  6
CONTINUOUS
 10
4.283400
 20
2.746480
  0
VERTEX
  8
0
  6
CONTINUOUS
 10
4.286920
 20
2.676080
  0
VERTEX
  8
0
  6
CONTINUOUS
 10
4.282520
 20
2.606120
  0
VERTEX
  8
0
  6
CONTINUOUS
 10
4.269760
 20
2.537480
  0
VERTEX
  8
0
  6
CONTINUOUS
 10
4.249080
 20
2.471480
  0
VERTEX
  8
0
  6
CONTINUOUS
 10
4.220480
 20
2.408120
  0
VERTEX
  8
0
  6
CONTINUOUS
 10
4.183960
 20
2.348720
  0
VERTEX
  8
0
  6
CONTINUOUS
 10
4.139960
 20
2.294160
  0
VERTEX
  8
0
  6
CONTINUOUS
 10
4.088040
 20
2.244880
  0
VERTEX
  8
0
  6
CONTINUOUS
 10
4.334000
 20
0.995280
  0
VERTEX
  8
0
  6
CONTINUOUS
 10
3.707000
 20
0.995280
  0
VERTEX
  8
0
  6
CONTINUOUS
 10
3.707000
 20
3.234000
  0
VERTEX
  8
0
  6
CONTINUOUS
 10
3.952960
 20
3.234000
  0
SEQEND
  8
0
  0
TEXT
  8
0
 10
4.002680
 20
0.740960
 40
0.138077
  1
BA  1071
 41
1.000000
  7
SN0
 71
     0
 72
     5
 11
4.684300
 21
0.740960
  0
TEXT
  8
0
 10
3.893120
 20
0.549120
 40
0.138077
  1
5/8" x 2-1/4"
 41
1.000000
  7
SN0
 71
     0
 72
     5
 11
4.792331
 21
0.549120
  0
ENDSEC
  0
EOF
