  0
SECTION
  2
HEADER
  9
$ACADVER
  1
AC1006
  9
$EXTMIN
 10
1.672000
 20
0.852720
  9
$EXTMAX
 10
7.549960
 20
6.444240
  9
$LTSCALE
 40
0.044000
  9
$PDMODE
 70
    35
  9
$PDSIZE
 40
0.035200
  0
ENDSEC
  0
SECTION
  2
TABLES
  0
TABLE
  2
LTYPE
 70
     9
  0
LTYPE
  2
CONTINUOUS
 70
    64
  3
Solid line
 72
    65
 73
     0
 40
0.000000
  0
LTYPE
  2
DASHED
 70
    64
  3
__ __ __ __ __ __ __ __ __ __ __ __ __ __ __
 72
    65
 73
     2
 40
0.000330
 49
0.000220
 49
-0.000110
  0
LTYPE
  2
HIDDEN
 70
    64
  3
 _ _ _ _ _ _ _ _ _ _ _ _ _ _ _ _ _ _ _ _ _ _
 72
    65
 73
     2
 40
0.000165
 49
0.000110
 49
-0.000055
  0
LTYPE
  2
CENTER
 70
    64
  3
____ _ ____ _ ____ _ ____ _ ____ _ ____ _ ____
 72
    65
 73
     4
 40
0.000880
 49
0.000550
 49
-0.000110
 49
0.000110
 49
-0.000110
  0
LTYPE
  2
PHANTOM
 70
    64
  3
_____ _ _ _____ _ _ _____ _ _ _____ _ _ ____
 72
    65
 73
     6
 40
0.001100
 49
0.000550
 49
-0.000110
 49
0.000110
 49
-0.000110
 49
0.000110
 49
-0.000110
  0
LTYPE
  2
DOT
 70
    64
  3
...............................................
 72
    65
 73
     2
 40
0.000110
 49
0.000000
 49
-0.000110
  0
LTYPE
  2
DASHDOT
 70
    64
  3
__ . __ . __ . __ . __ . __ . __ . __ . __ . __
 72
    65
 73
     4
 40
0.000440
 49
0.000220
 49
-0.000110
 49
0.000000
 49
-0.000110
  0
LTYPE
  2
BORDER
 70
    64
  3
__ __ . __ __ . __ __ . __ __ . __ __ . __ __
 72
    65
 73
     6
 40
0.000770
 49
0.000220
 49
-0.000110
 49
0.000220
 49
-0.000110
 49
0.000000
 49
-0.000110
  0
LTYPE
  2
DIVIDE
 70
    64
  3
__ . . __ . . __ . . __ . . __ . . __ . . __
 72
    65
 73
     6
 40
0.000550
 49
0.000220
 49
-0.000110
 49
0.000000
 49
-0.000110
 49
0.000000
 49
-0.000110
  0
LTYPE
  2
DOTDOT
 70
    64
  3
 . .  . .  . .  . .  . .  . . 
 72
    65
 73
     5
 40
0.000242
 49
-0.000110
 49
0.000000
 49
-0.000110
 49
0.000000
 49
-0.000110
  0
ENDTAB
  0
TABLE
  2
STYLE
 70
     2
  0
STYLE
 70
     0
  2
SN0
 40
0.000000
 41
0.000440
 50
0.000000
 71
     0
 42
0.000000
  3
ROMAND
  0
STYLE
 70
    68
  2
SV0
 40
0.000000
 41
0.000440
 50
0.000000
 71
     0
 42
0.000000
  3
ROMAND
  0
ENDTAB
  0
TABLE
  2
LAYER
 70
     3
  0
LAYER
  2
FOREGROUND
 70
    64
 62
     7
  6
CONTINUOUS
  0
LAYER
  2
BACKGROUND
 70
    65
 62
    -7
  6
CONTINUOUS
  0
LAYER
  2
0
 70
    64
 62
     7
  6
CONTINUOUS
  0
ENDTAB
  0
ENDSEC
  0
SECTION
  2
ENTITIES
  0
POLYLINE
  8
FOREGROUND
  6
CONTINUOUS
 66
     1
 40
0.000000
 41
0.000000
  0
VERTEX
  8
FOREGROUND
  6
CONTINUOUS
 10
0.000000
 20
7.296960
  0
VERTEX
  8
FOREGROUND
  6
CONTINUOUS
 10
8.499920
 20
7.296960
  0
VERTEX
  8
FOREGROUND
  6
CONTINUOUS
 10
8.499920
 20
-3.703040
  0
VERTEX
  8
FOREGROUND
  6
CONTINUOUS
 10
0.000000
 20
-3.703040
  0
VERTEX
  8
FOREGROUND
  6
CONTINUOUS
 10
0.000000
 20
7.296960
  0
SEQEND
  8
0
  0
POLYLINE
  8
FOREGROUND
  6
CONTINUOUS
 66
     1
 40
0.000000
 41
0.000000
  0
VERTEX
  8
FOREGROUND
  6
CONTINUOUS
 10
0.000000
 20
7.296960
  0
VERTEX
  8
FOREGROUND
  6
CONTINUOUS
 10
8.499920
 20
7.296960
  0
VERTEX
  8
FOREGROUND
  6
CONTINUOUS
 10
8.499920
 20
-3.703040
  0
VERTEX
  8
FOREGROUND
  6
CONTINUOUS
 10
0.000000
 20
-3.703040
  0
VERTEX
  8
FOREGROUND
  6
CONTINUOUS
 10
0.000000
 20
7.296960
  0
SEQEND
  8
0
  0
SOLID
  8
0
 62
    15
 10
4.408800
 20
2.481600
 11
5.050320
 21
2.091760
 12
3.998280
 22
2.288000
 13
4.640240
 23
1.898160
  0
POLYLINE
  8
0
  6
CONTINUOUS
 66
     1
 40
0.000000
 41
0.000000
  0
VERTEX
  8
0
  6
CONTINUOUS
 10
4.408800
 20
2.481600
  0
VERTEX
  8
0
  6
CONTINUOUS
 10
5.050320
 20
2.091760
  0
VERTEX
  8
0
  6
CONTINUOUS
 10
4.640240
 20
1.898160
  0
VERTEX
  8
0
  6
CONTINUOUS
 10
3.998280
 20
2.288000
  0
VERTEX
  8
0
  6
CONTINUOUS
 10
4.408800
 20
2.481600
  0
SEQEND
  8
0
  0
SOLID
  8
0
 62
    15
 10
6.637840
 20
4.375800
 11
7.279360
 21
3.985960
 12
6.486480
 22
4.337960
 13
7.128000
 23
3.948120
  0
POLYLINE
  8
0
  6
CONTINUOUS
 66
     1
 40
0.000000
 41
0.000000
  0
VERTEX
  8
0
  6
CONTINUOUS
 10
6.637840
 20
4.375800
  0
VERTEX
  8
0
  6
CONTINUOUS
 10
7.279360
 20
3.985960
  0
VERTEX
  8
0
  6
CONTINUOUS
 10
7.128000
 20
3.948120
  0
VERTEX
  8
0
  6
CONTINUOUS
 10
6.486480
 20
4.337960
  0
VERTEX
  8
0
  6
CONTINUOUS
 10
6.637840
 20
4.375800
  0
SEQEND
  8
0
  0
SOLID
  8
0
 62
    15
 10
6.486480
 20
4.337960
 11
7.128000
 21
3.948120
 12
6.327640
 22
4.240720
 13
6.969160
 23
3.850880
  0
POLYLINE
  8
0
  6
CONTINUOUS
 66
     1
 40
0.000000
 41
0.000000
  0
VERTEX
  8
0
  6
CONTINUOUS
 10
6.486480
 20
4.337960
  0
VERTEX
  8
0
  6
CONTINUOUS
 10
7.128000
 20
3.948120
  0
VERTEX
  8
0
  6
CONTINUOUS
 10
6.969160
 20
3.850880
  0
VERTEX
  8
0
  6
CONTINUOUS
 10
6.327640
 20
4.240720
  0
VERTEX
  8
0
  6
CONTINUOUS
 10
6.486480
 20
4.337960
  0
SEQEND
  8
0
  0
SOLID
  8
0
 62
    15
 10
6.327640
 20
4.240720
 11
6.969160
 21
3.850880
 12
6.259000
 22
4.169880
 13
6.900520
 23
3.780040
  0
POLYLINE
  8
0
  6
CONTINUOUS
 66
     1
 40
0.000000
 41
0.000000
  0
VERTEX
  8
0
  6
CONTINUOUS
 10
6.327640
 20
4.240720
  0
VERTEX
  8
0
  6
CONTINUOUS
 10
6.969160
 20
3.850880
  0
VERTEX
  8
0
  6
CONTINUOUS
 10
6.900520
 20
3.780040
  0
VERTEX
  8
0
  6
CONTINUOUS
 10
6.259000
 20
4.169880
  0
VERTEX
  8
0
  6
CONTINUOUS
 10
6.327640
 20
4.240720
  0
SEQEND
  8
0
  0
SOLID
  8
0
 62
    15
 10
6.259000
 20
4.169880
 11
6.900520
 21
3.780040
 12
6.204000
 22
4.084960
 13
6.845960
 23
3.695120
  0
POLYLINE
  8
0
  6
CONTINUOUS
 66
     1
 40
0.000000
 41
0.000000
  0
VERTEX
  8
0
  6
CONTINUOUS
 10
6.259000
 20
4.169880
  0
VERTEX
  8
0
  6
CONTINUOUS
 10
6.900520
 20
3.780040
  0
VERTEX
  8
0
  6
CONTINUOUS
 10
6.845960
 20
3.695120
  0
VERTEX
  8
0
  6
CONTINUOUS
 10
6.204000
 20
4.084960
  0
VERTEX
  8
0
  6
CONTINUOUS
 10
6.259000
 20
4.169880
  0
SEQEND
  8
0
  0
SOLID
  8
0
 62
    15
 10
6.204000
 20
4.084960
 11
6.845960
 21
3.695120
 12
6.169240
 22
3.986400
 13
6.810760
 23
3.596560
  0
POLYLINE
  8
0
  6
CONTINUOUS
 66
     1
 40
0.000000
 41
0.000000
  0
VERTEX
  8
0
  6
CONTINUOUS
 10
6.204000
 20
4.084960
  0
VERTEX
  8
0
  6
CONTINUOUS
 10
6.845960
 20
3.695120
  0
VERTEX
  8
0
  6
CONTINUOUS
 10
6.810760
 20
3.596560
  0
VERTEX
  8
0
  6
CONTINUOUS
 10
6.169240
 20
3.986400
  0
VERTEX
  8
0
  6
CONTINUOUS
 10
6.204000
 20
4.084960
  0
SEQEND
  8
0
  0
SOLID
  8
0
 62
    15
 10
6.169240
 20
3.986400
 11
6.810760
 21
3.596560
 12
6.159120
 22
3.873760
 13
6.800640
 23
3.483920
  0
POLYLINE
  8
0
  6
CONTINUOUS
 66
     1
 40
0.000000
 41
0.000000
  0
VERTEX
  8
0
  6
CONTINUOUS
 10
6.169240
 20
3.986400
  0
VERTEX
  8
0
  6
CONTINUOUS
 10
6.810760
 20
3.596560
  0
VERTEX
  8
0
  6
CONTINUOUS
 10
6.800640
 20
3.483920
  0
VERTEX
  8
0
  6
CONTINUOUS
 10
6.159120
 20
3.873760
  0
VERTEX
  8
0
  6
CONTINUOUS
 10
6.169240
 20
3.986400
  0
SEQEND
  8
0
  0
SOLID
  8
0
 62
    15
 10
6.159120
 20
3.873760
 11
6.800640
 21
3.483920
 12
5.906560
 22
3.857480
 13
6.548520
 23
3.467640
  0
POLYLINE
  8
0
  6
CONTINUOUS
 66
     1
 40
0.000000
 41
0.000000
  0
VERTEX
  8
0
  6
CONTINUOUS
 10
6.159120
 20
3.873760
  0
VERTEX
  8
0
  6
CONTINUOUS
 10
6.800640
 20
3.483920
  0
VERTEX
  8
0
  6
CONTINUOUS
 10
6.548520
 20
3.467640
  0
VERTEX
  8
0
  6
CONTINUOUS
 10
5.906560
 20
3.857480
  0
VERTEX
  8
0
  6
CONTINUOUS
 10
6.159120
 20
3.873760
  0
SEQEND
  8
0
  0
SOLID
  8
0
 62
    15
 10
5.906560
 20
3.857480
 11
6.548520
 21
3.467640
 12
5.752120
 22
3.631760
 13
6.394080
 23
3.241920
  0
POLYLINE
  8
0
  6
CONTINUOUS
 66
     1
 40
0.000000
 41
0.000000
  0
VERTEX
  8
0
  6
CONTINUOUS
 10
5.906560
 20
3.857480
  0
VERTEX
  8
0
  6
CONTINUOUS
 10
6.548520
 20
3.467640
  0
VERTEX
  8
0
  6
CONTINUOUS
 10
6.394080
 20
3.241920
  0
VERTEX
  8
0
  6
CONTINUOUS
 10
5.752120
 20
3.631760
  0
VERTEX
  8
0
  6
CONTINUOUS
 10
5.906560
 20
3.857480
  0
SEQEND
  8
0
  0
SOLID
  8
0
 62
    15
 10
5.752120
 20
3.631760
 11
6.394080
 21
3.241920
 12
5.584480
 22
3.421880
 13
6.226440
 23
3.032040
  0
POLYLINE
  8
0
  6
CONTINUOUS
 66
     1
 40
0.000000
 41
0.000000
  0
VERTEX
  8
0
  6
CONTINUOUS
 10
5.752120
 20
3.631760
  0
VERTEX
  8
0
  6
CONTINUOUS
 10
6.394080
 20
3.241920
  0
VERTEX
  8
0
  6
CONTINUOUS
 10
6.226440
 20
3.032040
  0
VERTEX
  8
0
  6
CONTINUOUS
 10
5.584480
 20
3.421880
  0
VERTEX
  8
0
  6
CONTINUOUS
 10
5.752120
 20
3.631760
  0
SEQEND
  8
0
  0
SOLID
  8
0
 62
    15
 10
5.584480
 20
3.421880
 11
6.226440
 21
3.032040
 12
5.405840
 22
3.227400
 13
6.047360
 23
2.837560
  0
POLYLINE
  8
0
  6
CONTINUOUS
 66
     1
 40
0.000000
 41
0.000000
  0
VERTEX
  8
0
  6
CONTINUOUS
 10
5.584480
 20
3.421880
  0
VERTEX
  8
0
  6
CONTINUOUS
 10
6.226440
 20
3.032040
  0
VERTEX
  8
0
  6
CONTINUOUS
 10
6.047360
 20
2.837560
  0
VERTEX
  8
0
  6
CONTINUOUS
 10
5.405840
 20
3.227400
  0
VERTEX
  8
0
  6
CONTINUOUS
 10
5.584480
 20
3.421880
  0
SEQEND
  8
0
  0
SOLID
  8
0
 62
    15
 10
5.405840
 20
3.227400
 11
6.047360
 21
2.837560
 12
5.217520
 22
3.047880
 13
5.859040
 23
2.658040
  0
POLYLINE
  8
0
  6
CONTINUOUS
 66
     1
 40
0.000000
 41
0.000000
  0
VERTEX
  8
0
  6
CONTINUOUS
 10
5.405840
 20
3.227400
  0
VERTEX
  8
0
  6
CONTINUOUS
 10
6.047360
 20
2.837560
  0
VERTEX
  8
0
  6
CONTINUOUS
 10
5.859040
 20
2.658040
  0
VERTEX
  8
0
  6
CONTINUOUS
 10
5.217520
 20
3.047880
  0
VERTEX
  8
0
  6
CONTINUOUS
 10
5.405840
 20
3.227400
  0
SEQEND
  8
0
  0
SOLID
  8
0
 62
    15
 10
5.217520
 20
3.047880
 11
5.859040
 21
2.658040
 12
4.820200
 22
2.735040
 13
5.461720
 23
2.345200
  0
POLYLINE
  8
0
  6
CONTINUOUS
 66
     1
 40
0.000000
 41
0.000000
  0
VERTEX
  8
0
  6
CONTINUOUS
 10
5.217520
 20
3.047880
  0
VERTEX
  8
0
  6
CONTINUOUS
 10
5.859040
 20
2.658040
  0
VERTEX
  8
0
  6
CONTINUOUS
 10
5.461720
 20
2.345200
  0
VERTEX
  8
0
  6
CONTINUOUS
 10
4.820200
 20
2.735040
  0
VERTEX
  8
0
  6
CONTINUOUS
 10
5.217520
 20
3.047880
  0
SEQEND
  8
0
  0
SOLID
  8
0
 62
    15
 10
4.820200
 20
2.735040
 11
5.461720
 21
2.345200
 12
4.408800
 22
2.481600
 13
5.050320
 23
2.091760
  0
POLYLINE
  8
0
  6
CONTINUOUS
 66
     1
 40
0.000000
 41
0.000000
  0
VERTEX
  8
0
  6
CONTINUOUS
 10
4.820200
 20
2.735040
  0
VERTEX
  8
0
  6
CONTINUOUS
 10
5.461720
 20
2.345200
  0
VERTEX
  8
0
  6
CONTINUOUS
 10
5.050320
 20
2.091760
  0
VERTEX
  8
0
  6
CONTINUOUS
 10
4.408800
 20
2.481600
  0
VERTEX
  8
0
  6
CONTINUOUS
 10
4.820200
 20
2.735040
  0
SEQEND
  8
0
  0
SOLID
  8
0
 62
    15
 10
6.640040
 20
5.125560
 11
7.282000
 21
4.735720
 12
6.637840
 22
4.375800
 13
7.279360
 23
3.985960
  0
POLYLINE
  8
0
  6
CONTINUOUS
 66
     1
 40
0.000000
 41
0.000000
  0
VERTEX
  8
0
  6
CONTINUOUS
 10
6.640040
 20
5.125560
  0
VERTEX
  8
0
  6
CONTINUOUS
 10
7.282000
 20
4.735720
  0
VERTEX
  8
0
  6
CONTINUOUS
 10
7.279360
 20
3.985960
  0
VERTEX
  8
0
  6
CONTINUOUS
 10
6.637840
 20
4.375800
  0
VERTEX
  8
0
  6
CONTINUOUS
 10
6.640040
 20
5.125560
  0
SEQEND
  8
0
  0
SOLID
  8
0
 62
    15
 10
3.998280
 20
2.288000
 11
4.640240
 21
1.898160
 12
3.604920
 22
2.152040
 13
4.246440
 23
1.762200
  0
POLYLINE
  8
0
  6
CONTINUOUS
 66
     1
 40
0.000000
 41
0.000000
  0
VERTEX
  8
0
  6
CONTINUOUS
 10
3.998280
 20
2.288000
  0
VERTEX
  8
0
  6
CONTINUOUS
 10
4.640240
 20
1.898160
  0
VERTEX
  8
0
  6
CONTINUOUS
 10
4.246440
 20
1.762200
  0
VERTEX
  8
0
  6
CONTINUOUS
 10
3.604920
 20
2.152040
  0
VERTEX
  8
0
  6
CONTINUOUS
 10
3.998280
 20
2.288000
  0
SEQEND
  8
0
  0
SOLID
  8
0
 62
    15
 10
3.604920
 20
2.152040
 11
4.246440
 21
1.762200
 12
3.243680
 22
2.073280
 13
3.885200
 23
1.683440
  0
POLYLINE
  8
0
  6
CONTINUOUS
 66
     1
 40
0.000000
 41
0.000000
  0
VERTEX
  8
0
  6
CONTINUOUS
 10
3.604920
 20
2.152040
  0
VERTEX
  8
0
  6
CONTINUOUS
 10
4.246440
 20
1.762200
  0
VERTEX
  8
0
  6
CONTINUOUS
 10
3.885200
 20
1.683440
  0
VERTEX
  8
0
  6
CONTINUOUS
 10
3.243680
 20
2.073280
  0
VERTEX
  8
0
  6
CONTINUOUS
 10
3.604920
 20
2.152040
  0
SEQEND
  8
0
  0
SOLID
  8
0
 62
    15
 10
3.243680
 20
2.073280
 11
3.885200
 21
1.683440
 12
3.079560
 22
2.055240
 13
3.721080
 23
1.665400
  0
POLYLINE
  8
0
  6
CONTINUOUS
 66
     1
 40
0.000000
 41
0.000000
  0
VERTEX
  8
0
  6
CONTINUOUS
 10
3.243680
 20
2.073280
  0
VERTEX
  8
0
  6
CONTINUOUS
 10
3.885200
 20
1.683440
  0
VERTEX
  8
0
  6
CONTINUOUS
 10
3.721080
 20
1.665400
  0
VERTEX
  8
0
  6
CONTINUOUS
 10
3.079560
 20
2.055240
  0
VERTEX
  8
0
  6
CONTINUOUS
 10
3.243680
 20
2.073280
  0
SEQEND
  8
0
  0
SOLID
  8
0
 62
    15
 10
3.079560
 20
2.055240
 11
3.721080
 21
1.665400
 12
2.929960
 22
2.051280
 13
3.571480
 23
1.661440
  0
POLYLINE
  8
0
  6
CONTINUOUS
 66
     1
 40
0.000000
 41
0.000000
  0
VERTEX
  8
0
  6
CONTINUOUS
 10
3.079560
 20
2.055240
  0
VERTEX
  8
0
  6
CONTINUOUS
 10
3.721080
 20
1.665400
  0
VERTEX
  8
0
  6
CONTINUOUS
 10
3.571480
 20
1.661440
  0
VERTEX
  8
0
  6
CONTINUOUS
 10
2.929960
 20
2.051280
  0
VERTEX
  8
0
  6
CONTINUOUS
 10
3.079560
 20
2.055240
  0
SEQEND
  8
0
  0
SOLID
  8
0
 62
    15
 10
2.929960
 20
2.051280
 11
3.571480
 21
1.661440
 12
2.929520
 22
1.804000
 13
3.571040
 23
1.414160
  0
POLYLINE
  8
0
  6
CONTINUOUS
 66
     1
 40
0.000000
 41
0.000000
  0
VERTEX
  8
0
  6
CONTINUOUS
 10
2.929960
 20
2.051280
  0
VERTEX
  8
0
  6
CONTINUOUS
 10
3.571480
 20
1.661440
  0
VERTEX
  8
0
  6
CONTINUOUS
 10
3.571040
 20
1.414160
  0
VERTEX
  8
0
  6
CONTINUOUS
 10
2.929520
 20
1.804000
  0
VERTEX
  8
0
  6
CONTINUOUS
 10
2.929960
 20
2.051280
  0
SEQEND
  8
0
  0
SOLID
  8
0
 62
    15
 10
2.929520
 20
1.804000
 11
3.571040
 21
1.414160
 12
2.809840
 22
1.770120
 13
3.451360
 23
1.380280
  0
POLYLINE
  8
0
  6
CONTINUOUS
 66
     1
 40
0.000000
 41
0.000000
  0
VERTEX
  8
0
  6
CONTINUOUS
 10
2.929520
 20
1.804000
  0
VERTEX
  8
0
  6
CONTINUOUS
 10
3.571040
 20
1.414160
  0
VERTEX
  8
0
  6
CONTINUOUS
 10
3.451360
 20
1.380280
  0
VERTEX
  8
0
  6
CONTINUOUS
 10
2.809840
 20
1.770120
  0
VERTEX
  8
0
  6
CONTINUOUS
 10
2.929520
 20
1.804000
  0
SEQEND
  8
0
  0
SOLID
  8
0
 62
    15
 10
2.809840
 20
1.770120
 11
3.451360
 21
1.380280
 12
2.706880
 22
1.719960
 13
3.348400
 23
1.330120
  0
POLYLINE
  8
0
  6
CONTINUOUS
 66
     1
 40
0.000000
 41
0.000000
  0
VERTEX
  8
0
  6
CONTINUOUS
 10
2.809840
 20
1.770120
  0
VERTEX
  8
0
  6
CONTINUOUS
 10
3.451360
 20
1.380280
  0
VERTEX
  8
0
  6
CONTINUOUS
 10
3.348400
 20
1.330120
  0
VERTEX
  8
0
  6
CONTINUOUS
 10
2.706880
 20
1.719960
  0
VERTEX
  8
0
  6
CONTINUOUS
 10
2.809840
 20
1.770120
  0
SEQEND
  8
0
  0
SOLID
  8
0
 62
    15
 10
2.706880
 20
1.719960
 11
3.348400
 21
1.330120
 12
2.620640
 22
1.657040
 13
3.262160
 23
1.267200
  0
POLYLINE
  8
0
  6
CONTINUOUS
 66
     1
 40
0.000000
 41
0.000000
  0
VERTEX
  8
0
  6
CONTINUOUS
 10
2.706880
 20
1.719960
  0
VERTEX
  8
0
  6
CONTINUOUS
 10
3.348400
 20
1.330120
  0
VERTEX
  8
0
  6
CONTINUOUS
 10
3.262160
 20
1.267200
  0
VERTEX
  8
0
  6
CONTINUOUS
 10
2.620640
 20
1.657040
  0
VERTEX
  8
0
  6
CONTINUOUS
 10
2.706880
 20
1.719960
  0
SEQEND
  8
0
  0
SOLID
  8
0
 62
    15
 10
2.620640
 20
1.657040
 11
3.262160
 21
1.267200
 12
2.552000
 22
1.584880
 13
3.193520
 23
1.195040
  0
POLYLINE
  8
0
  6
CONTINUOUS
 66
     1
 40
0.000000
 41
0.000000
  0
VERTEX
  8
0
  6
CONTINUOUS
 10
2.620640
 20
1.657040
  0
VERTEX
  8
0
  6
CONTINUOUS
 10
3.262160
 20
1.267200
  0
VERTEX
  8
0
  6
CONTINUOUS
 10
3.193520
 20
1.195040
  0
VERTEX
  8
0
  6
CONTINUOUS
 10
2.552000
 20
1.584880
  0
VERTEX
  8
0
  6
CONTINUOUS
 10
2.620640
 20
1.657040
  0
SEQEND
  8
0
  0
SOLID
  8
0
 62
    15
 10
2.552000
 20
1.584880
 11
3.193520
 21
1.195040
 12
2.467080
 22
1.427360
 13
3.108600
 23
1.037520
  0
POLYLINE
  8
0
  6
CONTINUOUS
 66
     1
 40
0.000000
 41
0.000000
  0
VERTEX
  8
0
  6
CONTINUOUS
 10
2.552000
 20
1.584880
  0
VERTEX
  8
0
  6
CONTINUOUS
 10
3.193520
 20
1.195040
  0
VERTEX
  8
0
  6
CONTINUOUS
 10
3.108600
 20
1.037520
  0
VERTEX
  8
0
  6
CONTINUOUS
 10
2.467080
 20
1.427360
  0
VERTEX
  8
0
  6
CONTINUOUS
 10
2.552000
 20
1.584880
  0
SEQEND
  8
0
  0
SOLID
  8
0
 62
    15
 10
2.467080
 20
1.427360
 11
3.108600
 21
1.037520
 12
2.451240
 22
1.349040
 13
3.092760
 23
0.959200
  0
POLYLINE
  8
0
  6
CONTINUOUS
 66
     1
 40
0.000000
 41
0.000000
  0
VERTEX
  8
0
  6
CONTINUOUS
 10
2.467080
 20
1.427360
  0
VERTEX
  8
0
  6
CONTINUOUS
 10
3.108600
 20
1.037520
  0
VERTEX
  8
0
  6
CONTINUOUS
 10
3.092760
 20
0.959200
  0
VERTEX
  8
0
  6
CONTINUOUS
 10
2.451240
 20
1.349040
  0
VERTEX
  8
0
  6
CONTINUOUS
 10
2.467080
 20
1.427360
  0
SEQEND
  8
0
  0
SOLID
  8
0
 62
    15
 10
2.451240
 20
1.349040
 11
3.092760
 21
0.959200
 12
2.453880
 22
1.276000
 13
3.095400
 23
0.886160
  0
POLYLINE
  8
0
  6
CONTINUOUS
 66
     1
 40
0.000000
 41
0.000000
  0
VERTEX
  8
0
  6
CONTINUOUS
 10
2.451240
 20
1.349040
  0
VERTEX
  8
0
  6
CONTINUOUS
 10
3.092760
 20
0.959200
  0
VERTEX
  8
0
  6
CONTINUOUS
 10
3.095400
 20
0.886160
  0
VERTEX
  8
0
  6
CONTINUOUS
 10
2.453880
 20
1.276000
  0
VERTEX
  8
0
  6
CONTINUOUS
 10
2.451240
 20
1.349040
  0
SEQEND
  8
0
  0
SOLID
  8
0
 62
    15
 10
2.453880
 20
1.276000
 11
3.095400
 21
0.886160
 12
2.206160
 22
1.275120
 13
2.847680
 23
0.885280
  0
POLYLINE
  8
0
  6
CONTINUOUS
 66
     1
 40
0.000000
 41
0.000000
  0
VERTEX
  8
0
  6
CONTINUOUS
 10
2.453880
 20
1.276000
  0
VERTEX
  8
0
  6
CONTINUOUS
 10
3.095400
 20
0.886160
  0
VERTEX
  8
0
  6
CONTINUOUS
 10
2.847680
 20
0.885280
  0
VERTEX
  8
0
  6
CONTINUOUS
 10
2.206160
 20
1.275120
  0
VERTEX
  8
0
  6
CONTINUOUS
 10
2.453880
 20
1.276000
  0
SEQEND
  8
0
  0
POLYLINE
  8
0
  6
CONTINUOUS
 66
     1
 40
0.000000
 41
0.000000
  0
VERTEX
  8
0
  6
CONTINUOUS
 10
6.640040
 20
5.125560
  0
VERTEX
  8
0
  6
CONTINUOUS
 10
6.637840
 20
4.375800
  0
VERTEX
  8
0
  6
CONTINUOUS
 10
6.486480
 20
4.337960
  0
VERTEX
  8
0
  6
CONTINUOUS
 10
6.327640
 20
4.240720
  0
VERTEX
  8
0
  6
CONTINUOUS
 10
6.259000
 20
4.169880
  0
VERTEX
  8
0
  6
CONTINUOUS
 10
6.204000
 20
4.084960
  0
VERTEX
  8
0
  6
CONTINUOUS
 10
6.169240
 20
3.986400
  0
VERTEX
  8
0
  6
CONTINUOUS
 10
6.159120
 20
3.873760
  0
VERTEX
  8
0
  6
CONTINUOUS
 10
5.906560
 20
3.857480
  0
VERTEX
  8
0
  6
CONTINUOUS
 10
5.752120
 20
3.631760
  0
VERTEX
  8
0
  6
CONTINUOUS
 10
5.584480
 20
3.421880
  0
VERTEX
  8
0
  6
CONTINUOUS
 10
5.405840
 20
3.227400
  0
VERTEX
  8
0
  6
CONTINUOUS
 10
5.217520
 20
3.047880
  0
VERTEX
  8
0
  6
CONTINUOUS
 10
4.820200
 20
2.735040
  0
VERTEX
  8
0
  6
CONTINUOUS
 10
4.408800
 20
2.481600
  0
VERTEX
  8
0
  6
CONTINUOUS
 10
3.998280
 20
2.288000
  0
VERTEX
  8
0
  6
CONTINUOUS
 10
3.604920
 20
2.152040
  0
VERTEX
  8
0
  6
CONTINUOUS
 10
3.243680
 20
2.073280
  0
VERTEX
  8
0
  6
CONTINUOUS
 10
3.079560
 20
2.055240
  0
VERTEX
  8
0
  6
CONTINUOUS
 10
2.929960
 20
2.051280
  0
VERTEX
  8
0
  6
CONTINUOUS
 10
2.929520
 20
1.804000
  0
VERTEX
  8
0
  6
CONTINUOUS
 10
2.809840
 20
1.770120
  0
VERTEX
  8
0
  6
CONTINUOUS
 10
2.706880
 20
1.719960
  0
VERTEX
  8
0
  6
CONTINUOUS
 10
2.620640
 20
1.657040
  0
VERTEX
  8
0
  6
CONTINUOUS
 10
2.552000
 20
1.584880
  0
VERTEX
  8
0
  6
CONTINUOUS
 10
2.467080
 20
1.427360
  0
VERTEX
  8
0
  6
CONTINUOUS
 10
2.451240
 20
1.349040
  0
VERTEX
  8
0
  6
CONTINUOUS
 10
2.453880
 20
1.276000
  0
VERTEX
  8
0
  6
CONTINUOUS
 10
2.206160
 20
1.275120
  0
VERTEX
  8
0
  6
CONTINUOUS
 10
2.206160
 20
2.032360
  0
VERTEX
  8
0
  6
CONTINUOUS
 10
6.640040
 20
5.125560
  0
SEQEND
  8
0
  0
TEXT
  8
0
 10
3.975400
 20
1.088560
 40
0.137941
  1
BA  1069
 41
1.000000
  7
SN0
 71
     0
 72
     5
 11
4.658125
 21
1.088560
  0
TEXT
  8
0
 10
3.773440
 20
0.897160
 40
0.137941
  1
15/16" x 5-7/8"
 41
1.000000
  7
SN0
 71
     0
 72
     5
 11
4.858511
 21
0.897160
  0
POLYLINE
  8
0
  6
CONTINUOUS
 66
     1
 40
0.014080
 41
0.014080
  0
VERTEX
  8
0
  6
CONTINUOUS
 10
7.102480
 20
5.512320
  0
VERTEX
  8
0
  6
CONTINUOUS
 10
1.686080
 20
5.512320
  0
VERTEX
  8
0
  6
CONTINUOUS
 10
2.115960
 20
6.126560
  0
VERTEX
  8
0
  6
CONTINUOUS
 10
2.146320
 20
6.109840
  0
VERTEX
  8
0
  6
CONTINUOUS
 10
2.181080
 20
6.094440
  0
VERTEX
  8
0
  6
CONTINUOUS
 10
2.240040
 20
6.075960
  0
VERTEX
  8
0
  6
CONTINUOUS
 10
2.283160
 20
6.066720
  0
VERTEX
  8
0
  6
CONTINUOUS
 10
2.328480
 20
6.060560
  0
VERTEX
  8
0
  6
CONTINUOUS
 10
2.375120
 20
6.057920
  0
VERTEX
  8
0
  6
CONTINUOUS
 10
2.423520
 20
6.058800
  0
VERTEX
  8
0
  6
CONTINUOUS
 10
2.471920
 20
6.063640
  0
VERTEX
  8
0
  6
CONTINUOUS
 10
2.520320
 20
6.072880
  0
VERTEX
  8
0
  6
CONTINUOUS
 10
2.568280
 20
6.086960
  0
VERTEX
  8
0
  6
CONTINUOUS
 10
2.592040
 20
6.095760
  0
VERTEX
  8
0
  6
CONTINUOUS
 10
2.637800
 20
6.117760
  0
VERTEX
  8
0
  6
CONTINUOUS
 10
2.681800
 20
6.145480
  0
VERTEX
  8
0
  6
CONTINUOUS
 10
2.722720
 20
6.178920
  0
VERTEX
  8
0
  6
CONTINUOUS
 10
2.761000
 20
6.218960
  0
VERTEX
  8
0
  6
CONTINUOUS
 10
2.795320
 20
6.265600
  0
VERTEX
  8
0
  6
CONTINUOUS
 10
3.012240
 20
6.134920
  0
VERTEX
  8
0
  6
CONTINUOUS
 10
3.139840
 20
6.185960
  0
VERTEX
  8
0
  6
CONTINUOUS
 10
3.267880
 20
6.232160
  0
VERTEX
  8
0
  6
CONTINUOUS
 10
3.396360
 20
6.273080
  0
VERTEX
  8
0
  6
CONTINUOUS
 10
3.525280
 20
6.308720
  0
VERTEX
  8
0
  6
CONTINUOUS
 10
3.654200
 20
6.339960
  0
VERTEX
  8
0
  6
CONTINUOUS
 10
3.783120
 20
6.366800
  0
VERTEX
  8
0
  6
CONTINUOUS
 10
3.912040
 20
6.388800
  0
VERTEX
  8
0
  6
CONTINUOUS
 10
4.040080
 20
6.406400
  0
VERTEX
  8
0
  6
CONTINUOUS
 10
4.167680
 20
6.420040
  0
VERTEX
  8
0
  6
CONTINUOUS
 10
4.294400
 20
6.429280
  0
VERTEX
  8
0
  6
CONTINUOUS
 10
4.420240
 20
6.435000
  0
VERTEX
  8
0
  6
CONTINUOUS
 10
4.544760
 20
6.436760
  0
VERTEX
  8
0
  6
CONTINUOUS
 10
4.667960
 20
6.435000
  0
VERTEX
  8
0
  6
CONTINUOUS
 10
4.789400
 20
6.429720
  0
VERTEX
  8
0
  6
CONTINUOUS
 10
4.909520
 20
6.421360
  0
VERTEX
  8
0
  6
CONTINUOUS
 10
5.027000
 20
6.409920
  0
VERTEX
  8
0
  6
CONTINUOUS
 10
5.142720
 20
6.394960
  0
VERTEX
  8
0
  6
CONTINUOUS
 10
5.256240
 20
6.377800
  0
VERTEX
  8
0
  6
CONTINUOUS
 10
5.366680
 20
6.357560
  0
VERTEX
  8
0
  6
CONTINUOUS
 10
5.474920
 20
6.335120
  0
VERTEX
  8
0
  6
CONTINUOUS
 10
5.579640
 20
6.310040
  0
VERTEX
  8
0
  6
CONTINUOUS
 10
5.731440
 20
6.268240
  0
VERTEX
  8
0
  6
CONTINUOUS
 10
5.875320
 20
6.222040
  0
VERTEX
  8
0
  6
CONTINUOUS
 10
6.011280
 20
6.171440
  0
VERTEX
  8
0
  6
CONTINUOUS
 10
6.096640
 20
6.136240
  0
VERTEX
  8
0
  6
CONTINUOUS
 10
6.178040
 20
6.099280
  0
VERTEX
  8
0
  6
CONTINUOUS
 10
6.292000
 20
6.041200
  0
VERTEX
  8
0
  6
CONTINUOUS
 10
6.361960
 20
6.001600
  0
VERTEX
  8
0
  6
CONTINUOUS
 10
6.457880
 20
5.940000
  0
VERTEX
  8
0
  6
CONTINUOUS
 10
6.487360
 20
5.919320
  0
VERTEX
  8
0
  6
CONTINUOUS
 10
6.631680
 20
6.121720
  0
VERTEX
  8
0
  6
CONTINUOUS
 10
6.690640
 20
6.098400
  0
VERTEX
  8
0
  6
CONTINUOUS
 10
6.749160
 20
6.081240
  0
VERTEX
  8
0
  6
CONTINUOUS
 10
6.806360
 20
6.069360
  0
VERTEX
  8
0
  6
CONTINUOUS
 10
6.861800
 20
6.063640
  0
VERTEX
  8
0
  6
CONTINUOUS
 10
6.915920
 20
6.062320
  0
VERTEX
  8
0
  6
CONTINUOUS
 10
6.967840
 20
6.066280
  0
VERTEX
  8
0
  6
CONTINUOUS
 10
7.018000
 20
6.074200
  0
VERTEX
  8
0
  6
CONTINUOUS
 10
7.065080
 20
6.086080
  0
VERTEX
  8
0
  6
CONTINUOUS
 10
7.109520
 20
6.101920
  0
VERTEX
  8
0
  6
CONTINUOUS
 10
7.150880
 20
6.120840
  0
VERTEX
  8
0
  6
CONTINUOUS
 10
7.189160
 20
6.142840
  0
VERTEX
  8
0
  6
CONTINUOUS
 10
7.223920
 20
6.167480
  0
VERTEX
  8
0
  6
CONTINUOUS
 10
7.254280
 20
6.193880
  0
VERTEX
  8
0
  6
CONTINUOUS
 10
7.280680
 20
6.222480
  0
VERTEX
  8
0
  6
CONTINUOUS
 10
7.303120
 20
6.252840
  0
VERTEX
  8
0
  6
CONTINUOUS
 10
7.320280
 20
6.284080
  0
VERTEX
  8
0
  6
CONTINUOUS
 10
7.536760
 20
6.149000
  0
VERTEX
  8
0
  6
CONTINUOUS
 10
7.102480
 20
5.512320
  0
SEQEND
  8
0
  0
TEXT
  8
0
 10
4.261400
 20
5.878840
 40
0.137941
  1
BA  1069
 41
1.000000
  7
SN0
 71
     0
 72
     5
 11
4.944125
 21
5.878840
  0
TEXT
  8
0
 10
4.059440
 20
5.687440
 40
0.137941
  1
15/16" x 5-7/8"
 41
1.000000
  7
SN0
 71
     0
 72
     5
 11
5.144511
 21
5.687440
  0
ENDSEC
  0
EOF
