  0
SECTION
  2
HEADER
  9
$ACADVER
  1
AC1006
  9
$EXTMIN
 10
2.730640
 20
1.027400
  9
$EXTMAX
 10
6.302120
 20
6.895680
  9
$LTSCALE
 40
0.044000
  9
$PDMODE
 70
    35
  9
$PDSIZE
 40
0.035200
  0
ENDSEC
  0
SECTION
  2
TABLES
  0
TABLE
  2
LTYPE
 70
     9
  0
LTYPE
  2
CONTINUOUS
 70
    64
  3
Solid line
 72
    65
 73
     0
 40
0.000000
  0
LTYPE
  2
DASHED
 70
    64
  3
__ __ __ __ __ __ __ __ __ __ __ __ __ __ __
 72
    65
 73
     2
 40
0.000330
 49
0.000220
 49
-0.000110
  0
LTYPE
  2
HIDDEN
 70
    64
  3
 _ _ _ _ _ _ _ _ _ _ _ _ _ _ _ _ _ _ _ _ _ _
 72
    65
 73
     2
 40
0.000165
 49
0.000110
 49
-0.000055
  0
LTYPE
  2
CENTER
 70
    64
  3
____ _ ____ _ ____ _ ____ _ ____ _ ____ _ ____
 72
    65
 73
     4
 40
0.000880
 49
0.000550
 49
-0.000110
 49
0.000110
 49
-0.000110
  0
LTYPE
  2
PHANTOM
 70
    64
  3
_____ _ _ _____ _ _ _____ _ _ _____ _ _ ____
 72
    65
 73
     6
 40
0.001100
 49
0.000550
 49
-0.000110
 49
0.000110
 49
-0.000110
 49
0.000110
 49
-0.000110
  0
LTYPE
  2
DOT
 70
    64
  3
...............................................
 72
    65
 73
     2
 40
0.000110
 49
0.000000
 49
-0.000110
  0
LTYPE
  2
DASHDOT
 70
    64
  3
__ . __ . __ . __ . __ . __ . __ . __ . __ . __
 72
    65
 73
     4
 40
0.000440
 49
0.000220
 49
-0.000110
 49
0.000000
 49
-0.000110
  0
LTYPE
  2
BORDER
 70
    64
  3
__ __ . __ __ . __ __ . __ __ . __ __ . __ __
 72
    65
 73
     6
 40
0.000770
 49
0.000220
 49
-0.000110
 49
0.000220
 49
-0.000110
 49
0.000000
 49
-0.000110
  0
LTYPE
  2
DIVIDE
 70
    64
  3
__ . . __ . . __ . . __ . . __ . . __ . . __
 72
    65
 73
     6
 40
0.000550
 49
0.000220
 49
-0.000110
 49
0.000000
 49
-0.000110
 49
0.000000
 49
-0.000110
  0
LTYPE
  2
DOTDOT
 70
    64
  3
 . .  . .  . .  . .  . .  . . 
 72
    65
 73
     5
 40
0.000242
 49
-0.000110
 49
0.000000
 49
-0.000110
 49
0.000000
 49
-0.000110
  0
ENDTAB
  0
TABLE
  2
STYLE
 70
     2
  0
STYLE
 70
     0
  2
SN0
 40
0.000000
 41
0.000440
 50
0.000000
 71
     0
 42
0.000000
  3
ROMAND
  0
STYLE
 70
    68
  2
SV0
 40
0.000000
 41
0.000440
 50
0.000000
 71
     0
 42
0.000000
  3
ROMAND
  0
ENDTAB
  0
TABLE
  2
LAYER
 70
     3
  0
LAYER
  2
FOREGROUND
 70
    64
 62
     7
  6
CONTINUOUS
  0
LAYER
  2
BACKGROUND
 70
    65
 62
    -7
  6
CONTINUOUS
  0
LAYER
  2
0
 70
    64
 62
     7
  6
CONTINUOUS
  0
ENDTAB
  0
ENDSEC
  0
SECTION
  2
ENTITIES
  0
POLYLINE
  8
FOREGROUND
  6
CONTINUOUS
 66
     1
 40
0.000000
 41
0.000000
  0
VERTEX
  8
FOREGROUND
  6
CONTINUOUS
 10
0.000000
 20
7.923080
  0
VERTEX
  8
FOREGROUND
  6
CONTINUOUS
 10
8.499920
 20
7.923080
  0
VERTEX
  8
FOREGROUND
  6
CONTINUOUS
 10
8.499920
 20
-3.076920
  0
VERTEX
  8
FOREGROUND
  6
CONTINUOUS
 10
0.000000
 20
-3.076920
  0
VERTEX
  8
FOREGROUND
  6
CONTINUOUS
 10
0.000000
 20
7.923080
  0
SEQEND
  8
0
  0
POLYLINE
  8
FOREGROUND
  6
CONTINUOUS
 66
     1
 40
0.000000
 41
0.000000
  0
VERTEX
  8
FOREGROUND
  6
CONTINUOUS
 10
0.000000
 20
7.923080
  0
VERTEX
  8
FOREGROUND
  6
CONTINUOUS
 10
8.499920
 20
7.923080
  0
VERTEX
  8
FOREGROUND
  6
CONTINUOUS
 10
8.499920
 20
-3.076920
  0
VERTEX
  8
FOREGROUND
  6
CONTINUOUS
 10
0.000000
 20
-3.076920
  0
VERTEX
  8
FOREGROUND
  6
CONTINUOUS
 10
0.000000
 20
7.923080
  0
SEQEND
  8
0
  0
SOLID
  8
0
 62
    15
 10
4.855400
 20
3.060640
 11
4.862880
 21
3.783120
 12
4.924480
 22
3.051400
 13
4.931520
 23
3.773880
  0
POLYLINE
  8
0
  6
CONTINUOUS
 66
     1
 40
0.000000
 41
0.000000
  0
VERTEX
  8
0
  6
CONTINUOUS
 10
4.855400
 20
3.060640
  0
VERTEX
  8
0
  6
CONTINUOUS
 10
4.862880
 20
3.783120
  0
VERTEX
  8
0
  6
CONTINUOUS
 10
4.931520
 20
3.773880
  0
VERTEX
  8
0
  6
CONTINUOUS
 10
4.924480
 20
3.051400
  0
VERTEX
  8
0
  6
CONTINUOUS
 10
4.855400
 20
3.060640
  0
SEQEND
  8
0
  0
SOLID
  8
0
 62
    15
 10
2.751320
 20
3.284160
 11
2.758800
 21
4.006640
 12
2.778160
 22
3.372160
 13
2.785640
 23
4.094640
  0
POLYLINE
  8
0
  6
CONTINUOUS
 66
     1
 40
0.000000
 41
0.000000
  0
VERTEX
  8
0
  6
CONTINUOUS
 10
2.751320
 20
3.284160
  0
VERTEX
  8
0
  6
CONTINUOUS
 10
2.758800
 20
4.006640
  0
VERTEX
  8
0
  6
CONTINUOUS
 10
2.785640
 20
4.094640
  0
VERTEX
  8
0
  6
CONTINUOUS
 10
2.778160
 20
3.372160
  0
VERTEX
  8
0
  6
CONTINUOUS
 10
2.751320
 20
3.284160
  0
SEQEND
  8
0
  0
SOLID
  8
0
 62
    15
 10
2.778160
 20
3.372160
 11
2.785640
 21
4.094640
 12
2.820840
 22
3.449600
 13
2.828320
 23
4.172080
  0
POLYLINE
  8
0
  6
CONTINUOUS
 66
     1
 40
0.000000
 41
0.000000
  0
VERTEX
  8
0
  6
CONTINUOUS
 10
2.778160
 20
3.372160
  0
VERTEX
  8
0
  6
CONTINUOUS
 10
2.785640
 20
4.094640
  0
VERTEX
  8
0
  6
CONTINUOUS
 10
2.828320
 20
4.172080
  0
VERTEX
  8
0
  6
CONTINUOUS
 10
2.820840
 20
3.449600
  0
VERTEX
  8
0
  6
CONTINUOUS
 10
2.778160
 20
3.372160
  0
SEQEND
  8
0
  0
SOLID
  8
0
 62
    15
 10
2.820840
 20
3.449600
 11
2.828320
 21
4.172080
 12
2.878480
 22
3.516480
 13
2.885520
 23
4.238960
  0
POLYLINE
  8
0
  6
CONTINUOUS
 66
     1
 40
0.000000
 41
0.000000
  0
VERTEX
  8
0
  6
CONTINUOUS
 10
2.820840
 20
3.449600
  0
VERTEX
  8
0
  6
CONTINUOUS
 10
2.828320
 20
4.172080
  0
VERTEX
  8
0
  6
CONTINUOUS
 10
2.885520
 20
4.238960
  0
VERTEX
  8
0
  6
CONTINUOUS
 10
2.878480
 20
3.516480
  0
VERTEX
  8
0
  6
CONTINUOUS
 10
2.820840
 20
3.449600
  0
SEQEND
  8
0
  0
SOLID
  8
0
 62
    15
 10
2.878480
 20
3.516480
 11
2.885520
 21
4.238960
 12
2.949320
 22
3.571920
 13
2.956360
 23
4.294400
  0
POLYLINE
  8
0
  6
CONTINUOUS
 66
     1
 40
0.000000
 41
0.000000
  0
VERTEX
  8
0
  6
CONTINUOUS
 10
2.878480
 20
3.516480
  0
VERTEX
  8
0
  6
CONTINUOUS
 10
2.885520
 20
4.238960
  0
VERTEX
  8
0
  6
CONTINUOUS
 10
2.956360
 20
4.294400
  0
VERTEX
  8
0
  6
CONTINUOUS
 10
2.949320
 20
3.571920
  0
VERTEX
  8
0
  6
CONTINUOUS
 10
2.878480
 20
3.516480
  0
SEQEND
  8
0
  0
SOLID
  8
0
 62
    15
 10
2.949320
 20
3.571920
 11
2.956360
 21
4.294400
 12
3.031600
 22
3.615920
 13
3.039080
 23
4.338400
  0
POLYLINE
  8
0
  6
CONTINUOUS
 66
     1
 40
0.000000
 41
0.000000
  0
VERTEX
  8
0
  6
CONTINUOUS
 10
2.949320
 20
3.571920
  0
VERTEX
  8
0
  6
CONTINUOUS
 10
2.956360
 20
4.294400
  0
VERTEX
  8
0
  6
CONTINUOUS
 10
3.039080
 20
4.338400
  0
VERTEX
  8
0
  6
CONTINUOUS
 10
3.031600
 20
3.615920
  0
VERTEX
  8
0
  6
CONTINUOUS
 10
2.949320
 20
3.571920
  0
SEQEND
  8
0
  0
SOLID
  8
0
 62
    15
 10
3.031600
 20
3.615920
 11
3.039080
 21
4.338400
 12
3.124880
 22
3.648920
 13
3.131920
 23
4.371400
  0
POLYLINE
  8
0
  6
CONTINUOUS
 66
     1
 40
0.000000
 41
0.000000
  0
VERTEX
  8
0
  6
CONTINUOUS
 10
3.031600
 20
3.615920
  0
VERTEX
  8
0
  6
CONTINUOUS
 10
3.039080
 20
4.338400
  0
VERTEX
  8
0
  6
CONTINUOUS
 10
3.131920
 20
4.371400
  0
VERTEX
  8
0
  6
CONTINUOUS
 10
3.124880
 20
3.648920
  0
VERTEX
  8
0
  6
CONTINUOUS
 10
3.031600
 20
3.615920
  0
SEQEND
  8
0
  0
SOLID
  8
0
 62
    15
 10
3.124880
 20
3.648920
 11
3.131920
 21
4.371400
 12
3.226960
 22
3.669600
 13
3.234000
 23
4.392080
  0
POLYLINE
  8
0
  6
CONTINUOUS
 66
     1
 40
0.000000
 41
0.000000
  0
VERTEX
  8
0
  6
CONTINUOUS
 10
3.124880
 20
3.648920
  0
VERTEX
  8
0
  6
CONTINUOUS
 10
3.131920
 20
4.371400
  0
VERTEX
  8
0
  6
CONTINUOUS
 10
3.234000
 20
4.392080
  0
VERTEX
  8
0
  6
CONTINUOUS
 10
3.226960
 20
3.669600
  0
VERTEX
  8
0
  6
CONTINUOUS
 10
3.124880
 20
3.648920
  0
SEQEND
  8
0
  0
SOLID
  8
0
 62
    15
 10
3.226960
 20
3.669600
 11
3.234000
 21
4.392080
 12
3.336520
 22
3.678840
 13
3.343560
 23
4.401320
  0
POLYLINE
  8
0
  6
CONTINUOUS
 66
     1
 40
0.000000
 41
0.000000
  0
VERTEX
  8
0
  6
CONTINUOUS
 10
3.226960
 20
3.669600
  0
VERTEX
  8
0
  6
CONTINUOUS
 10
3.234000
 20
4.392080
  0
VERTEX
  8
0
  6
CONTINUOUS
 10
3.343560
 20
4.401320
  0
VERTEX
  8
0
  6
CONTINUOUS
 10
3.336520
 20
3.678840
  0
VERTEX
  8
0
  6
CONTINUOUS
 10
3.226960
 20
3.669600
  0
SEQEND
  8
0
  0
SOLID
  8
0
 62
    15
 10
3.336520
 20
3.678840
 11
3.343560
 21
4.401320
 12
3.452240
 22
3.675760
 13
3.459280
 23
4.398240
  0
POLYLINE
  8
0
  6
CONTINUOUS
 66
     1
 40
0.000000
 41
0.000000
  0
VERTEX
  8
0
  6
CONTINUOUS
 10
3.336520
 20
3.678840
  0
VERTEX
  8
0
  6
CONTINUOUS
 10
3.343560
 20
4.401320
  0
VERTEX
  8
0
  6
CONTINUOUS
 10
3.459280
 20
4.398240
  0
VERTEX
  8
0
  6
CONTINUOUS
 10
3.452240
 20
3.675760
  0
VERTEX
  8
0
  6
CONTINUOUS
 10
3.336520
 20
3.678840
  0
SEQEND
  8
0
  0
SOLID
  8
0
 62
    15
 10
3.452240
 20
3.675760
 11
3.459280
 21
4.398240
 12
3.572800
 22
3.660360
 13
3.579840
 23
4.382840
  0
POLYLINE
  8
0
  6
CONTINUOUS
 66
     1
 40
0.000000
 41
0.000000
  0
VERTEX
  8
0
  6
CONTINUOUS
 10
3.452240
 20
3.675760
  0
VERTEX
  8
0
  6
CONTINUOUS
 10
3.459280
 20
4.398240
  0
VERTEX
  8
0
  6
CONTINUOUS
 10
3.579840
 20
4.382840
  0
VERTEX
  8
0
  6
CONTINUOUS
 10
3.572800
 20
3.660360
  0
VERTEX
  8
0
  6
CONTINUOUS
 10
3.452240
 20
3.675760
  0
SEQEND
  8
0
  0
SOLID
  8
0
 62
    15
 10
3.572800
 20
3.660360
 11
3.579840
 21
4.382840
 12
3.696440
 22
3.632640
 13
3.703920
 23
4.355120
  0
POLYLINE
  8
0
  6
CONTINUOUS
 66
     1
 40
0.000000
 41
0.000000
  0
VERTEX
  8
0
  6
CONTINUOUS
 10
3.572800
 20
3.660360
  0
VERTEX
  8
0
  6
CONTINUOUS
 10
3.579840
 20
4.382840
  0
VERTEX
  8
0
  6
CONTINUOUS
 10
3.703920
 20
4.355120
  0
VERTEX
  8
0
  6
CONTINUOUS
 10
3.696440
 20
3.632640
  0
VERTEX
  8
0
  6
CONTINUOUS
 10
3.572800
 20
3.660360
  0
SEQEND
  8
0
  0
SOLID
  8
0
 62
    15
 10
3.696440
 20
3.632640
 11
3.703920
 21
4.355120
 12
3.822280
 22
3.592160
 13
3.829760
 23
4.314640
  0
POLYLINE
  8
0
  6
CONTINUOUS
 66
     1
 40
0.000000
 41
0.000000
  0
VERTEX
  8
0
  6
CONTINUOUS
 10
3.696440
 20
3.632640
  0
VERTEX
  8
0
  6
CONTINUOUS
 10
3.703920
 20
4.355120
  0
VERTEX
  8
0
  6
CONTINUOUS
 10
3.829760
 20
4.314640
  0
VERTEX
  8
0
  6
CONTINUOUS
 10
3.822280
 20
3.592160
  0
VERTEX
  8
0
  6
CONTINUOUS
 10
3.696440
 20
3.632640
  0
SEQEND
  8
0
  0
SOLID
  8
0
 62
    15
 10
3.822280
 20
3.592160
 11
3.829760
 21
4.314640
 12
3.948560
 22
3.538920
 13
3.956040
 23
4.261400
  0
POLYLINE
  8
0
  6
CONTINUOUS
 66
     1
 40
0.000000
 41
0.000000
  0
VERTEX
  8
0
  6
CONTINUOUS
 10
3.822280
 20
3.592160
  0
VERTEX
  8
0
  6
CONTINUOUS
 10
3.829760
 20
4.314640
  0
VERTEX
  8
0
  6
CONTINUOUS
 10
3.956040
 20
4.261400
  0
VERTEX
  8
0
  6
CONTINUOUS
 10
3.948560
 20
3.538920
  0
VERTEX
  8
0
  6
CONTINUOUS
 10
3.822280
 20
3.592160
  0
SEQEND
  8
0
  0
SOLID
  8
0
 62
    15
 10
3.948560
 20
3.538920
 11
3.956040
 21
4.261400
 12
4.073960
 22
3.472480
 13
4.081440
 23
4.194960
  0
POLYLINE
  8
0
  6
CONTINUOUS
 66
     1
 40
0.000000
 41
0.000000
  0
VERTEX
  8
0
  6
CONTINUOUS
 10
3.948560
 20
3.538920
  0
VERTEX
  8
0
  6
CONTINUOUS
 10
3.956040
 20
4.261400
  0
VERTEX
  8
0
  6
CONTINUOUS
 10
4.081440
 20
4.194960
  0
VERTEX
  8
0
  6
CONTINUOUS
 10
4.073960
 20
3.472480
  0
VERTEX
  8
0
  6
CONTINUOUS
 10
3.948560
 20
3.538920
  0
SEQEND
  8
0
  0
SOLID
  8
0
 62
    15
 10
4.073960
 20
3.472480
 11
4.081440
 21
4.194960
 12
4.197160
 22
3.392840
 13
4.204640
 23
4.115320
  0
POLYLINE
  8
0
  6
CONTINUOUS
 66
     1
 40
0.000000
 41
0.000000
  0
VERTEX
  8
0
  6
CONTINUOUS
 10
4.073960
 20
3.472480
  0
VERTEX
  8
0
  6
CONTINUOUS
 10
4.081440
 20
4.194960
  0
VERTEX
  8
0
  6
CONTINUOUS
 10
4.204640
 20
4.115320
  0
VERTEX
  8
0
  6
CONTINUOUS
 10
4.197160
 20
3.392840
  0
VERTEX
  8
0
  6
CONTINUOUS
 10
4.073960
 20
3.472480
  0
SEQEND
  8
0
  0
SOLID
  8
0
 62
    15
 10
4.197160
 20
3.392840
 11
4.204640
 21
4.115320
 12
4.314200
 22
3.312320
 13
4.321240
 23
4.034800
  0
POLYLINE
  8
0
  6
CONTINUOUS
 66
     1
 40
0.000000
 41
0.000000
  0
VERTEX
  8
0
  6
CONTINUOUS
 10
4.197160
 20
3.392840
  0
VERTEX
  8
0
  6
CONTINUOUS
 10
4.204640
 20
4.115320
  0
VERTEX
  8
0
  6
CONTINUOUS
 10
4.321240
 20
4.034800
  0
VERTEX
  8
0
  6
CONTINUOUS
 10
4.314200
 20
3.312320
  0
VERTEX
  8
0
  6
CONTINUOUS
 10
4.197160
 20
3.392840
  0
SEQEND
  8
0
  0
SOLID
  8
0
 62
    15
 10
4.314200
 20
3.312320
 11
4.321240
 21
4.034800
 12
4.422440
 22
3.244120
 13
4.429920
 23
3.966600
  0
POLYLINE
  8
0
  6
CONTINUOUS
 66
     1
 40
0.000000
 41
0.000000
  0
VERTEX
  8
0
  6
CONTINUOUS
 10
4.314200
 20
3.312320
  0
VERTEX
  8
0
  6
CONTINUOUS
 10
4.321240
 20
4.034800
  0
VERTEX
  8
0
  6
CONTINUOUS
 10
4.429920
 20
3.966600
  0
VERTEX
  8
0
  6
CONTINUOUS
 10
4.422440
 20
3.244120
  0
VERTEX
  8
0
  6
CONTINUOUS
 10
4.314200
 20
3.312320
  0
SEQEND
  8
0
  0
SOLID
  8
0
 62
    15
 10
4.422440
 20
3.244120
 11
4.429920
 21
3.966600
 12
4.522760
 22
3.186920
 13
4.530240
 23
3.909400
  0
POLYLINE
  8
0
  6
CONTINUOUS
 66
     1
 40
0.000000
 41
0.000000
  0
VERTEX
  8
0
  6
CONTINUOUS
 10
4.422440
 20
3.244120
  0
VERTEX
  8
0
  6
CONTINUOUS
 10
4.429920
 20
3.966600
  0
VERTEX
  8
0
  6
CONTINUOUS
 10
4.530240
 20
3.909400
  0
VERTEX
  8
0
  6
CONTINUOUS
 10
4.522760
 20
3.186920
  0
VERTEX
  8
0
  6
CONTINUOUS
 10
4.422440
 20
3.244120
  0
SEQEND
  8
0
  0
SOLID
  8
0
 62
    15
 10
4.522760
 20
3.186920
 11
4.530240
 21
3.909400
 12
4.615600
 22
3.140720
 13
4.623080
 23
3.863200
  0
POLYLINE
  8
0
  6
CONTINUOUS
 66
     1
 40
0.000000
 41
0.000000
  0
VERTEX
  8
0
  6
CONTINUOUS
 10
4.522760
 20
3.186920
  0
VERTEX
  8
0
  6
CONTINUOUS
 10
4.530240
 20
3.909400
  0
VERTEX
  8
0
  6
CONTINUOUS
 10
4.623080
 20
3.863200
  0
VERTEX
  8
0
  6
CONTINUOUS
 10
4.615600
 20
3.140720
  0
VERTEX
  8
0
  6
CONTINUOUS
 10
4.522760
 20
3.186920
  0
SEQEND
  8
0
  0
SOLID
  8
0
 62
    15
 10
4.615600
 20
3.140720
 11
4.623080
 21
3.863200
 12
4.701840
 22
3.104640
 13
4.708880
 23
3.827120
  0
POLYLINE
  8
0
  6
CONTINUOUS
 66
     1
 40
0.000000
 41
0.000000
  0
VERTEX
  8
0
  6
CONTINUOUS
 10
4.615600
 20
3.140720
  0
VERTEX
  8
0
  6
CONTINUOUS
 10
4.623080
 20
3.863200
  0
VERTEX
  8
0
  6
CONTINUOUS
 10
4.708880
 20
3.827120
  0
VERTEX
  8
0
  6
CONTINUOUS
 10
4.701840
 20
3.104640
  0
VERTEX
  8
0
  6
CONTINUOUS
 10
4.615600
 20
3.140720
  0
SEQEND
  8
0
  0
SOLID
  8
0
 62
    15
 10
4.701840
 20
3.104640
 11
4.708880
 21
3.827120
 12
4.781480
 22
3.078240
 13
4.788520
 23
3.800720
  0
POLYLINE
  8
0
  6
CONTINUOUS
 66
     1
 40
0.000000
 41
0.000000
  0
VERTEX
  8
0
  6
CONTINUOUS
 10
4.701840
 20
3.104640
  0
VERTEX
  8
0
  6
CONTINUOUS
 10
4.708880
 20
3.827120
  0
VERTEX
  8
0
  6
CONTINUOUS
 10
4.788520
 20
3.800720
  0
VERTEX
  8
0
  6
CONTINUOUS
 10
4.781480
 20
3.078240
  0
VERTEX
  8
0
  6
CONTINUOUS
 10
4.701840
 20
3.104640
  0
SEQEND
  8
0
  0
SOLID
  8
0
 62
    15
 10
4.781480
 20
3.078240
 11
4.788520
 21
3.800720
 12
4.855400
 22
3.060640
 13
4.862880
 23
3.783120
  0
POLYLINE
  8
0
  6
CONTINUOUS
 66
     1
 40
0.000000
 41
0.000000
  0
VERTEX
  8
0
  6
CONTINUOUS
 10
4.781480
 20
3.078240
  0
VERTEX
  8
0
  6
CONTINUOUS
 10
4.788520
 20
3.800720
  0
VERTEX
  8
0
  6
CONTINUOUS
 10
4.862880
 20
3.783120
  0
VERTEX
  8
0
  6
CONTINUOUS
 10
4.855400
 20
3.060640
  0
VERTEX
  8
0
  6
CONTINUOUS
 10
4.781480
 20
3.078240
  0
SEQEND
  8
0
  0
SOLID
  8
0
 62
    15
 10
2.742520
 20
3.185160
 11
2.749560
 21
3.907640
 12
2.751320
 22
3.284160
 13
2.758800
 23
4.006640
  0
POLYLINE
  8
0
  6
CONTINUOUS
 66
     1
 40
0.000000
 41
0.000000
  0
VERTEX
  8
0
  6
CONTINUOUS
 10
2.742520
 20
3.185160
  0
VERTEX
  8
0
  6
CONTINUOUS
 10
2.749560
 20
3.907640
  0
VERTEX
  8
0
  6
CONTINUOUS
 10
2.758800
 20
4.006640
  0
VERTEX
  8
0
  6
CONTINUOUS
 10
2.751320
 20
3.284160
  0
VERTEX
  8
0
  6
CONTINUOUS
 10
2.742520
 20
3.185160
  0
SEQEND
  8
0
  0
SOLID
  8
0
 62
    15
 10
4.924480
 20
3.051400
 11
4.931520
 21
3.773880
 12
5.049880
 22
3.055360
 13
5.056920
 23
3.777840
  0
POLYLINE
  8
0
  6
CONTINUOUS
 66
     1
 40
0.000000
 41
0.000000
  0
VERTEX
  8
0
  6
CONTINUOUS
 10
4.924480
 20
3.051400
  0
VERTEX
  8
0
  6
CONTINUOUS
 10
4.931520
 20
3.773880
  0
VERTEX
  8
0
  6
CONTINUOUS
 10
5.056920
 20
3.777840
  0
VERTEX
  8
0
  6
CONTINUOUS
 10
5.049880
 20
3.055360
  0
VERTEX
  8
0
  6
CONTINUOUS
 10
4.924480
 20
3.051400
  0
SEQEND
  8
0
  0
SOLID
  8
0
 62
    15
 10
5.049880
 20
3.055360
 11
5.056920
 21
3.777840
 12
5.162080
 22
3.085720
 13
5.169120
 23
3.808200
  0
POLYLINE
  8
0
  6
CONTINUOUS
 66
     1
 40
0.000000
 41
0.000000
  0
VERTEX
  8
0
  6
CONTINUOUS
 10
5.049880
 20
3.055360
  0
VERTEX
  8
0
  6
CONTINUOUS
 10
5.056920
 20
3.777840
  0
VERTEX
  8
0
  6
CONTINUOUS
 10
5.169120
 20
3.808200
  0
VERTEX
  8
0
  6
CONTINUOUS
 10
5.162080
 20
3.085720
  0
VERTEX
  8
0
  6
CONTINUOUS
 10
5.049880
 20
3.055360
  0
SEQEND
  8
0
  0
SOLID
  8
0
 62
    15
 10
5.162080
 20
3.085720
 11
5.169120
 21
3.808200
 12
5.265920
 22
3.137200
 13
5.272960
 23
3.859680
  0
POLYLINE
  8
0
  6
CONTINUOUS
 66
     1
 40
0.000000
 41
0.000000
  0
VERTEX
  8
0
  6
CONTINUOUS
 10
5.162080
 20
3.085720
  0
VERTEX
  8
0
  6
CONTINUOUS
 10
5.169120
 20
3.808200
  0
VERTEX
  8
0
  6
CONTINUOUS
 10
5.272960
 20
3.859680
  0
VERTEX
  8
0
  6
CONTINUOUS
 10
5.265920
 20
3.137200
  0
VERTEX
  8
0
  6
CONTINUOUS
 10
5.162080
 20
3.085720
  0
SEQEND
  8
0
  0
SOLID
  8
0
 62
    15
 10
5.265920
 20
3.137200
 11
5.272960
 21
3.859680
 12
5.366240
 22
3.205840
 13
5.373280
 23
3.928320
  0
POLYLINE
  8
0
  6
CONTINUOUS
 66
     1
 40
0.000000
 41
0.000000
  0
VERTEX
  8
0
  6
CONTINUOUS
 10
5.265920
 20
3.137200
  0
VERTEX
  8
0
  6
CONTINUOUS
 10
5.272960
 20
3.859680
  0
VERTEX
  8
0
  6
CONTINUOUS
 10
5.373280
 20
3.928320
  0
VERTEX
  8
0
  6
CONTINUOUS
 10
5.366240
 20
3.205840
  0
VERTEX
  8
0
  6
CONTINUOUS
 10
5.265920
 20
3.137200
  0
SEQEND
  8
0
  0
SOLID
  8
0
 62
    15
 10
5.366240
 20
3.205840
 11
5.373280
 21
3.928320
 12
5.639920
 22
2.978360
 13
5.647400
 23
3.700840
  0
POLYLINE
  8
0
  6
CONTINUOUS
 66
     1
 40
0.000000
 41
0.000000
  0
VERTEX
  8
0
  6
CONTINUOUS
 10
5.366240
 20
3.205840
  0
VERTEX
  8
0
  6
CONTINUOUS
 10
5.373280
 20
3.928320
  0
VERTEX
  8
0
  6
CONTINUOUS
 10
5.647400
 20
3.700840
  0
VERTEX
  8
0
  6
CONTINUOUS
 10
5.639920
 20
2.978360
  0
VERTEX
  8
0
  6
CONTINUOUS
 10
5.366240
 20
3.205840
  0
SEQEND
  8
0
  0
SOLID
  8
0
 62
    15
 10
5.639920
 20
2.978360
 11
5.647400
 21
3.700840
 12
5.782480
 22
2.978360
 13
5.789520
 23
3.700840
  0
POLYLINE
  8
0
  6
CONTINUOUS
 66
     1
 40
0.000000
 41
0.000000
  0
VERTEX
  8
0
  6
CONTINUOUS
 10
5.639920
 20
2.978360
  0
VERTEX
  8
0
  6
CONTINUOUS
 10
5.647400
 20
3.700840
  0
VERTEX
  8
0
  6
CONTINUOUS
 10
5.789520
 20
3.700840
  0
VERTEX
  8
0
  6
CONTINUOUS
 10
5.782480
 20
2.978360
  0
VERTEX
  8
0
  6
CONTINUOUS
 10
5.639920
 20
2.978360
  0
SEQEND
  8
0
  0
SOLID
  8
0
 62
    15
 10
5.782480
 20
2.993320
 11
5.789520
 21
3.715800
 12
5.787320
 22
3.043480
 13
5.794800
 23
3.765960
  0
POLYLINE
  8
0
  6
CONTINUOUS
 66
     1
 40
0.000000
 41
0.000000
  0
VERTEX
  8
0
  6
CONTINUOUS
 10
5.782480
 20
2.993320
  0
VERTEX
  8
0
  6
CONTINUOUS
 10
5.789520
 20
3.715800
  0
VERTEX
  8
0
  6
CONTINUOUS
 10
5.794800
 20
3.765960
  0
VERTEX
  8
0
  6
CONTINUOUS
 10
5.787320
 20
3.043480
  0
VERTEX
  8
0
  6
CONTINUOUS
 10
5.782480
 20
2.993320
  0
SEQEND
  8
0
  0
SOLID
  8
0
 62
    15
 10
5.787320
 20
3.043480
 11
5.794800
 21
3.765960
 12
5.801840
 22
3.090120
 13
5.808880
 23
3.812600
  0
POLYLINE
  8
0
  6
CONTINUOUS
 66
     1
 40
0.000000
 41
0.000000
  0
VERTEX
  8
0
  6
CONTINUOUS
 10
5.787320
 20
3.043480
  0
VERTEX
  8
0
  6
CONTINUOUS
 10
5.794800
 20
3.765960
  0
VERTEX
  8
0
  6
CONTINUOUS
 10
5.808880
 20
3.812600
  0
VERTEX
  8
0
  6
CONTINUOUS
 10
5.801840
 20
3.090120
  0
VERTEX
  8
0
  6
CONTINUOUS
 10
5.787320
 20
3.043480
  0
SEQEND
  8
0
  0
SOLID
  8
0
 62
    15
 10
5.801840
 20
3.090120
 11
5.808880
 21
3.812600
 12
5.855080
 22
3.168880
 13
5.862120
 23
3.891360
  0
POLYLINE
  8
0
  6
CONTINUOUS
 66
     1
 40
0.000000
 41
0.000000
  0
VERTEX
  8
0
  6
CONTINUOUS
 10
5.801840
 20
3.090120
  0
VERTEX
  8
0
  6
CONTINUOUS
 10
5.808880
 20
3.812600
  0
VERTEX
  8
0
  6
CONTINUOUS
 10
5.862120
 20
3.891360
  0
VERTEX
  8
0
  6
CONTINUOUS
 10
5.855080
 20
3.168880
  0
VERTEX
  8
0
  6
CONTINUOUS
 10
5.801840
 20
3.090120
  0
SEQEND
  8
0
  0
SOLID
  8
0
 62
    15
 10
5.855080
 20
3.168880
 11
5.862120
 21
3.891360
 12
5.933840
 22
3.221680
 13
5.940880
 23
3.944160
  0
POLYLINE
  8
0
  6
CONTINUOUS
 66
     1
 40
0.000000
 41
0.000000
  0
VERTEX
  8
0
  6
CONTINUOUS
 10
5.855080
 20
3.168880
  0
VERTEX
  8
0
  6
CONTINUOUS
 10
5.862120
 20
3.891360
  0
VERTEX
  8
0
  6
CONTINUOUS
 10
5.940880
 20
3.944160
  0
VERTEX
  8
0
  6
CONTINUOUS
 10
5.933840
 20
3.221680
  0
VERTEX
  8
0
  6
CONTINUOUS
 10
5.855080
 20
3.168880
  0
SEQEND
  8
0
  0
SOLID
  8
0
 62
    15
 10
5.933840
 20
3.221680
 11
5.940880
 21
3.944160
 12
5.980480
 22
3.236200
 13
5.987520
 23
3.958680
  0
POLYLINE
  8
0
  6
CONTINUOUS
 66
     1
 40
0.000000
 41
0.000000
  0
VERTEX
  8
0
  6
CONTINUOUS
 10
5.933840
 20
3.221680
  0
VERTEX
  8
0
  6
CONTINUOUS
 10
5.940880
 20
3.944160
  0
VERTEX
  8
0
  6
CONTINUOUS
 10
5.987520
 20
3.958680
  0
VERTEX
  8
0
  6
CONTINUOUS
 10
5.980480
 20
3.236200
  0
VERTEX
  8
0
  6
CONTINUOUS
 10
5.933840
 20
3.221680
  0
SEQEND
  8
0
  0
SOLID
  8
0
 62
    15
 10
5.980480
 20
3.236200
 11
5.987520
 21
3.958680
 12
6.030200
 22
3.241480
 13
6.037680
 23
3.963960
  0
POLYLINE
  8
0
  6
CONTINUOUS
 66
     1
 40
0.000000
 41
0.000000
  0
VERTEX
  8
0
  6
CONTINUOUS
 10
5.980480
 20
3.236200
  0
VERTEX
  8
0
  6
CONTINUOUS
 10
5.987520
 20
3.958680
  0
VERTEX
  8
0
  6
CONTINUOUS
 10
6.037680
 20
3.963960
  0
VERTEX
  8
0
  6
CONTINUOUS
 10
6.030200
 20
3.241480
  0
VERTEX
  8
0
  6
CONTINUOUS
 10
5.980480
 20
3.236200
  0
SEQEND
  8
0
  0
SOLID
  8
0
 62
    15
 10
6.294640
 20
2.603920
 11
6.301680
 21
3.326400
 12
6.294640
 22
1.581800
 13
6.301680
 23
2.304280
  0
POLYLINE
  8
0
  6
CONTINUOUS
 66
     1
 40
0.000000
 41
0.000000
  0
VERTEX
  8
0
  6
CONTINUOUS
 10
6.294640
 20
2.603920
  0
VERTEX
  8
0
  6
CONTINUOUS
 10
6.301680
 20
3.326400
  0
VERTEX
  8
0
  6
CONTINUOUS
 10
6.301680
 20
2.304280
  0
VERTEX
  8
0
  6
CONTINUOUS
 10
6.294640
 20
1.581800
  0
VERTEX
  8
0
  6
CONTINUOUS
 10
6.294640
 20
2.603920
  0
SEQEND
  8
0
  0
SOLID
  8
0
 62
    15
 10
6.030200
 20
2.603920
 11
6.037680
 21
3.326400
 12
6.294640
 22
2.603920
 13
6.301680
 23
3.326400
  0
POLYLINE
  8
0
  6
CONTINUOUS
 66
     1
 40
0.000000
 41
0.000000
  0
VERTEX
  8
0
  6
CONTINUOUS
 10
6.030200
 20
2.603920
  0
VERTEX
  8
0
  6
CONTINUOUS
 10
6.037680
 20
3.326400
  0
VERTEX
  8
0
  6
CONTINUOUS
 10
6.301680
 20
3.326400
  0
VERTEX
  8
0
  6
CONTINUOUS
 10
6.294640
 20
2.603920
  0
VERTEX
  8
0
  6
CONTINUOUS
 10
6.030200
 20
2.603920
  0
SEQEND
  8
0
  0
SOLID
  8
0
 62
    15
 10
6.126560
 20
3.221680
 11
6.134040
 21
3.944160
 12
6.205320
 22
3.168880
 13
6.212800
 23
3.891360
  0
POLYLINE
  8
0
  6
CONTINUOUS
 66
     1
 40
0.000000
 41
0.000000
  0
VERTEX
  8
0
  6
CONTINUOUS
 10
6.126560
 20
3.221680
  0
VERTEX
  8
0
  6
CONTINUOUS
 10
6.134040
 20
3.944160
  0
VERTEX
  8
0
  6
CONTINUOUS
 10
6.212800
 20
3.891360
  0
VERTEX
  8
0
  6
CONTINUOUS
 10
6.205320
 20
3.168880
  0
VERTEX
  8
0
  6
CONTINUOUS
 10
6.126560
 20
3.221680
  0
SEQEND
  8
0
  0
SOLID
  8
0
 62
    15
 10
6.205320
 20
3.168880
 11
6.212800
 21
3.891360
 12
6.258560
 22
3.090120
 13
6.266040
 23
3.812600
  0
POLYLINE
  8
0
  6
CONTINUOUS
 66
     1
 40
0.000000
 41
0.000000
  0
VERTEX
  8
0
  6
CONTINUOUS
 10
6.205320
 20
3.168880
  0
VERTEX
  8
0
  6
CONTINUOUS
 10
6.212800
 20
3.891360
  0
VERTEX
  8
0
  6
CONTINUOUS
 10
6.266040
 20
3.812600
  0
VERTEX
  8
0
  6
CONTINUOUS
 10
6.258560
 20
3.090120
  0
VERTEX
  8
0
  6
CONTINUOUS
 10
6.205320
 20
3.168880
  0
SEQEND
  8
0
  0
SOLID
  8
0
 62
    15
 10
6.273080
 20
3.043480
 11
6.280120
 21
3.765960
 12
6.278360
 22
2.993320
 13
6.285400
 23
3.715800
  0
POLYLINE
  8
0
  6
CONTINUOUS
 66
     1
 40
0.000000
 41
0.000000
  0
VERTEX
  8
0
  6
CONTINUOUS
 10
6.273080
 20
3.043480
  0
VERTEX
  8
0
  6
CONTINUOUS
 10
6.280120
 20
3.765960
  0
VERTEX
  8
0
  6
CONTINUOUS
 10
6.285400
 20
3.715800
  0
VERTEX
  8
0
  6
CONTINUOUS
 10
6.278360
 20
2.993320
  0
VERTEX
  8
0
  6
CONTINUOUS
 10
6.273080
 20
3.043480
  0
SEQEND
  8
0
  0
SOLID
  8
0
 62
    15
 10
6.258560
 20
3.090120
 11
6.266040
 21
3.812600
 12
6.273080
 22
3.043480
 13
6.280120
 23
3.765960
  0
POLYLINE
  8
0
  6
CONTINUOUS
 66
     1
 40
0.000000
 41
0.000000
  0
VERTEX
  8
0
  6
CONTINUOUS
 10
6.258560
 20
3.090120
  0
VERTEX
  8
0
  6
CONTINUOUS
 10
6.266040
 20
3.812600
  0
VERTEX
  8
0
  6
CONTINUOUS
 10
6.280120
 20
3.765960
  0
VERTEX
  8
0
  6
CONTINUOUS
 10
6.273080
 20
3.043480
  0
VERTEX
  8
0
  6
CONTINUOUS
 10
6.258560
 20
3.090120
  0
SEQEND
  8
0
  0
SOLID
  8
0
 62
    15
 10
6.030200
 20
2.745600
 11
6.037680
 21
3.468080
 12
6.030200
 22
2.603920
 13
6.037680
 23
3.326400
  0
POLYLINE
  8
0
  6
CONTINUOUS
 66
     1
 40
0.000000
 41
0.000000
  0
VERTEX
  8
0
  6
CONTINUOUS
 10
6.030200
 20
2.745600
  0
VERTEX
  8
0
  6
CONTINUOUS
 10
6.037680
 20
3.468080
  0
VERTEX
  8
0
  6
CONTINUOUS
 10
6.037680
 20
3.326400
  0
VERTEX
  8
0
  6
CONTINUOUS
 10
6.030200
 20
2.603920
  0
VERTEX
  8
0
  6
CONTINUOUS
 10
6.030200
 20
2.745600
  0
SEQEND
  8
0
  0
SOLID
  8
0
 62
    15
 10
6.030200
 20
3.241480
 11
6.037680
 21
3.963960
 12
6.080360
 22
3.236200
 13
6.087400
 23
3.958680
  0
POLYLINE
  8
0
  6
CONTINUOUS
 66
     1
 40
0.000000
 41
0.000000
  0
VERTEX
  8
0
  6
CONTINUOUS
 10
6.030200
 20
3.241480
  0
VERTEX
  8
0
  6
CONTINUOUS
 10
6.037680
 20
3.963960
  0
VERTEX
  8
0
  6
CONTINUOUS
 10
6.087400
 20
3.958680
  0
VERTEX
  8
0
  6
CONTINUOUS
 10
6.080360
 20
3.236200
  0
VERTEX
  8
0
  6
CONTINUOUS
 10
6.030200
 20
3.241480
  0
SEQEND
  8
0
  0
SOLID
  8
0
 62
    15
 10
6.080360
 20
3.236200
 11
6.087400
 21
3.958680
 12
6.126560
 22
3.221680
 13
6.134040
 23
3.944160
  0
POLYLINE
  8
0
  6
CONTINUOUS
 66
     1
 40
0.000000
 41
0.000000
  0
VERTEX
  8
0
  6
CONTINUOUS
 10
6.080360
 20
3.236200
  0
VERTEX
  8
0
  6
CONTINUOUS
 10
6.087400
 20
3.958680
  0
VERTEX
  8
0
  6
CONTINUOUS
 10
6.134040
 20
3.944160
  0
VERTEX
  8
0
  6
CONTINUOUS
 10
6.126560
 20
3.221680
  0
VERTEX
  8
0
  6
CONTINUOUS
 10
6.080360
 20
3.236200
  0
SEQEND
  8
0
  0
SOLID
  8
0
 62
    15
 10
2.741640
 20
3.175480
 11
2.749120
 21
3.897960
 12
2.742520
 22
3.185160
 13
2.749560
 23
3.907640
  0
POLYLINE
  8
0
  6
CONTINUOUS
 66
     1
 40
0.000000
 41
0.000000
  0
VERTEX
  8
0
  6
CONTINUOUS
 10
2.741640
 20
3.175480
  0
VERTEX
  8
0
  6
CONTINUOUS
 10
2.749120
 20
3.897960
  0
VERTEX
  8
0
  6
CONTINUOUS
 10
2.749560
 20
3.907640
  0
VERTEX
  8
0
  6
CONTINUOUS
 10
2.742520
 20
3.185160
  0
VERTEX
  8
0
  6
CONTINUOUS
 10
2.741640
 20
3.175480
  0
SEQEND
  8
0
  0
POLYLINE
  8
0
  6
CONTINUOUS
 66
     1
 40
0.000000
 41
0.000000
  0
VERTEX
  8
0
  6
CONTINUOUS
 10
2.742520
 20
3.185160
  0
VERTEX
  8
0
  6
CONTINUOUS
 10
2.751320
 20
3.284160
  0
VERTEX
  8
0
  6
CONTINUOUS
 10
2.778160
 20
3.372160
  0
VERTEX
  8
0
  6
CONTINUOUS
 10
2.820840
 20
3.449600
  0
VERTEX
  8
0
  6
CONTINUOUS
 10
2.878480
 20
3.516480
  0
VERTEX
  8
0
  6
CONTINUOUS
 10
2.949320
 20
3.571920
  0
VERTEX
  8
0
  6
CONTINUOUS
 10
3.031600
 20
3.615920
  0
VERTEX
  8
0
  6
CONTINUOUS
 10
3.124880
 20
3.648920
  0
VERTEX
  8
0
  6
CONTINUOUS
 10
3.226960
 20
3.669600
  0
VERTEX
  8
0
  6
CONTINUOUS
 10
3.336520
 20
3.678840
  0
VERTEX
  8
0
  6
CONTINUOUS
 10
3.452240
 20
3.675760
  0
VERTEX
  8
0
  6
CONTINUOUS
 10
3.572800
 20
3.660360
  0
VERTEX
  8
0
  6
CONTINUOUS
 10
3.696440
 20
3.632640
  0
VERTEX
  8
0
  6
CONTINUOUS
 10
3.822280
 20
3.592160
  0
VERTEX
  8
0
  6
CONTINUOUS
 10
3.948560
 20
3.538920
  0
VERTEX
  8
0
  6
CONTINUOUS
 10
4.073960
 20
3.472480
  0
VERTEX
  8
0
  6
CONTINUOUS
 10
4.197160
 20
3.392840
  0
VERTEX
  8
0
  6
CONTINUOUS
 10
4.314200
 20
3.312320
  0
VERTEX
  8
0
  6
CONTINUOUS
 10
4.422440
 20
3.244120
  0
VERTEX
  8
0
  6
CONTINUOUS
 10
4.522760
 20
3.186920
  0
VERTEX
  8
0
  6
CONTINUOUS
 10
4.615600
 20
3.140720
  0
VERTEX
  8
0
  6
CONTINUOUS
 10
4.701840
 20
3.104640
  0
VERTEX
  8
0
  6
CONTINUOUS
 10
4.781480
 20
3.078240
  0
VERTEX
  8
0
  6
CONTINUOUS
 10
4.855400
 20
3.060640
  0
VERTEX
  8
0
  6
CONTINUOUS
 10
4.924480
 20
3.051400
  0
VERTEX
  8
0
  6
CONTINUOUS
 10
5.049880
 20
3.055360
  0
VERTEX
  8
0
  6
CONTINUOUS
 10
5.162080
 20
3.085720
  0
VERTEX
  8
0
  6
CONTINUOUS
 10
5.265920
 20
3.137200
  0
VERTEX
  8
0
  6
CONTINUOUS
 10
5.366240
 20
3.205840
  0
VERTEX
  8
0
  6
CONTINUOUS
 10
5.639920
 20
2.978360
  0
VERTEX
  8
0
  6
CONTINUOUS
 10
5.782480
 20
2.978360
  0
VERTEX
  8
0
  6
CONTINUOUS
 10
5.782480
 20
2.993320
  0
VERTEX
  8
0
  6
CONTINUOUS
 10
5.787320
 20
3.043480
  0
VERTEX
  8
0
  6
CONTINUOUS
 10
5.801840
 20
3.090120
  0
VERTEX
  8
0
  6
CONTINUOUS
 10
5.855080
 20
3.168880
  0
VERTEX
  8
0
  6
CONTINUOUS
 10
5.933840
 20
3.221680
  0
VERTEX
  8
0
  6
CONTINUOUS
 10
5.980480
 20
3.236200
  0
VERTEX
  8
0
  6
CONTINUOUS
 10
6.030200
 20
3.241480
  0
VERTEX
  8
0
  6
CONTINUOUS
 10
6.080360
 20
3.236200
  0
VERTEX
  8
0
  6
CONTINUOUS
 10
6.126560
 20
3.221680
  0
VERTEX
  8
0
  6
CONTINUOUS
 10
6.205320
 20
3.168880
  0
VERTEX
  8
0
  6
CONTINUOUS
 10
6.258560
 20
3.090120
  0
VERTEX
  8
0
  6
CONTINUOUS
 10
6.273080
 20
3.043480
  0
VERTEX
  8
0
  6
CONTINUOUS
 10
6.278360
 20
2.993320
  0
VERTEX
  8
0
  6
CONTINUOUS
 10
6.273080
 20
2.943600
  0
VERTEX
  8
0
  6
CONTINUOUS
 10
6.258560
 20
2.896960
  0
VERTEX
  8
0
  6
CONTINUOUS
 10
6.205320
 20
2.818200
  0
VERTEX
  8
0
  6
CONTINUOUS
 10
6.126560
 20
2.764960
  0
VERTEX
  8
0
  6
CONTINUOUS
 10
6.080360
 20
2.750440
  0
VERTEX
  8
0
  6
CONTINUOUS
 10
6.030200
 20
2.745600
  0
VERTEX
  8
0
  6
CONTINUOUS
 10
6.030200
 20
2.603920
  0
VERTEX
  8
0
  6
CONTINUOUS
 10
6.294640
 20
2.603920
  0
VERTEX
  8
0
  6
CONTINUOUS
 10
6.294640
 20
1.581800
  0
VERTEX
  8
0
  6
CONTINUOUS
 10
2.741640
 20
1.581800
  0
VERTEX
  8
0
  6
CONTINUOUS
 10
2.741640
 20
3.175480
  0
VERTEX
  8
0
  6
CONTINUOUS
 10
2.742520
 20
3.185160
  0
SEQEND
  8
0
  0
TEXT
  8
0
 10
3.967480
 20
1.263240
 40
0.137983
  1
BA  1068A & B
 41
1.000000
  7
SN0
 71
     0
 72
     5
 11
5.073651
 21
1.263240
  0
TEXT
  8
0
 10
3.904120
 20
1.071840
 40
0.137983
  1
  2-1/8" x 3-9/16"
 41
1.000000
  7
SN0
 71
     0
 72
     5
 11
5.141447
 21
1.071840
  0
POLYLINE
  8
0
  6
CONTINUOUS
 66
     1
 40
0.014080
 41
0.014080
  0
VERTEX
  8
0
  6
CONTINUOUS
 10
2.738120
 20
6.390560
  0
VERTEX
  8
0
  6
CONTINUOUS
 10
2.740320
 20
6.441160
  0
VERTEX
  8
0
  6
CONTINUOUS
 10
2.747360
 20
6.489560
  0
VERTEX
  8
0
  6
CONTINUOUS
 10
2.758800
 20
6.534880
  0
VERTEX
  8
0
  6
CONTINUOUS
 10
2.774200
 20
6.578000
  0
VERTEX
  8
0
  6
CONTINUOUS
 10
2.793560
 20
6.618040
  0
VERTEX
  8
0
  6
CONTINUOUS
 10
2.816880
 20
6.655440
  0
VERTEX
  8
0
  6
CONTINUOUS
 10
2.844160
 20
6.690640
  0
VERTEX
  8
0
  6
CONTINUOUS
 10
2.874520
 20
6.722760
  0
VERTEX
  8
0
  6
CONTINUOUS
 10
2.926440
 20
6.765880
  0
VERTEX
  8
0
  6
CONTINUOUS
 10
2.965160
 20
6.790960
  0
VERTEX
  8
0
  6
CONTINUOUS
 10
3.006520
 20
6.813400
  0
VERTEX
  8
0
  6
CONTINUOUS
 10
3.050520
 20
6.832760
  0
VERTEX
  8
0
  6
CONTINUOUS
 10
3.097160
 20
6.849480
  0
VERTEX
  8
0
  6
CONTINUOUS
 10
3.146000
 20
6.863120
  0
VERTEX
  8
0
  6
CONTINUOUS
 10
3.197040
 20
6.873680
  0
VERTEX
  8
0
  6
CONTINUOUS
 10
3.249840
 20
6.881600
  0
VERTEX
  8
0
  6
CONTINUOUS
 10
3.304840
 20
6.886440
  0
VERTEX
  8
0
  6
CONTINUOUS
 10
3.361160
 20
6.888200
  0
VERTEX
  8
0
  6
CONTINUOUS
 10
3.419240
 20
6.887320
  0
VERTEX
  8
0
  6
CONTINUOUS
 10
3.478640
 20
6.882920
  0
VERTEX
  8
0
  6
CONTINUOUS
 10
3.569280
 20
6.870600
  0
VERTEX
  8
0
  6
CONTINUOUS
 10
3.630880
 20
6.858720
  0
VERTEX
  8
0
  6
CONTINUOUS
 10
3.724600
 20
6.834520
  0
VERTEX
  8
0
  6
CONTINUOUS
 10
3.819200
 20
6.803280
  0
VERTEX
  8
0
  6
CONTINUOUS
 10
3.882560
 20
6.778200
  0
VERTEX
  8
0
  6
CONTINUOUS
 10
3.977160
 20
6.735080
  0
VERTEX
  8
0
  6
CONTINUOUS
 10
4.070880
 20
6.684040
  0
VERTEX
  8
0
  6
CONTINUOUS
 10
4.132920
 20
6.645760
  0
VERTEX
  8
0
  6
CONTINUOUS
 10
4.311120
 20
6.524320
  0
VERTEX
  8
0
  6
CONTINUOUS
 10
4.419360
 20
6.455680
  0
VERTEX
  8
0
  6
CONTINUOUS
 10
4.495480
 20
6.412120
  0
VERTEX
  8
0
  6
CONTINUOUS
 10
4.590080
 20
6.362840
  0
VERTEX
  8
0
  6
CONTINUOUS
 10
4.656520
 20
6.332920
  0
VERTEX
  8
0
  6
CONTINUOUS
 10
4.739240
 20
6.301680
  0
VERTEX
  8
0
  6
CONTINUOUS
 10
4.816240
 20
6.279680
  0
VERTEX
  8
0
  6
CONTINUOUS
 10
4.852320
 20
6.272200
  0
VERTEX
  8
0
  6
CONTINUOUS
 10
4.887520
 20
6.266480
  0
VERTEX
  8
0
  6
CONTINUOUS
 10
4.921400
 20
6.262520
  0
VERTEX
  8
0
  6
CONTINUOUS
 10
4.954400
 20
6.260760
  0
VERTEX
  8
0
  6
CONTINUOUS
 10
5.016880
 20
6.262960
  0
VERTEX
  8
0
  6
CONTINUOUS
 10
5.075840
 20
6.272200
  0
VERTEX
  8
0
  6
CONTINUOUS
 10
5.104000
 20
6.278800
  0
VERTEX
  8
0
  6
CONTINUOUS
 10
5.159000
 20
6.296840
  0
VERTEX
  8
0
  6
CONTINUOUS
 10
5.211800
 20
6.320600
  0
VERTEX
  8
0
  6
CONTINUOUS
 10
5.262840
 20
6.348760
  0
VERTEX
  8
0
  6
CONTINUOUS
 10
5.313000
 20
6.380880
  0
VERTEX
  8
0
  6
CONTINUOUS
 10
5.363160
 20
6.416960
  0
VERTEX
  8
0
  6
CONTINUOUS
 10
5.636840
 20
6.189920
  0
VERTEX
  8
0
  6
CONTINUOUS
 10
5.779400
 20
6.190360
  0
VERTEX
  8
0
  6
CONTINUOUS
 10
5.780720
 20
6.230400
  0
VERTEX
  8
0
  6
CONTINUOUS
 10
5.784240
 20
6.254600
  0
VERTEX
  8
0
  6
CONTINUOUS
 10
5.790400
 20
6.278360
  0
VERTEX
  8
0
  6
CONTINUOUS
 10
5.798760
 20
6.301240
  0
VERTEX
  8
0
  6
CONTINUOUS
 10
5.809320
 20
6.322800
  0
VERTEX
  8
0
  6
CONTINUOUS
 10
5.821640
 20
6.343480
  0
VERTEX
  8
0
  6
CONTINUOUS
 10
5.836160
 20
6.362400
  0
VERTEX
  8
0
  6
CONTINUOUS
 10
5.852000
 20
6.380000
  0
VERTEX
  8
0
  6
CONTINUOUS
 10
5.869600
 20
6.395840
  0
VERTEX
  8
0
  6
CONTINUOUS
 10
5.888520
 20
6.410360
  0
VERTEX
  8
0
  6
CONTINUOUS
 10
5.909200
 20
6.422680
  0
VERTEX
  8
0
  6
CONTINUOUS
 10
5.930760
 20
6.433240
  0
VERTEX
  8
0
  6
CONTINUOUS
 10
5.965080
 20
6.444680
  0
VERTEX
  8
0
  6
CONTINUOUS
 10
5.989280
 20
6.449960
  0
VERTEX
  8
0
  6
CONTINUOUS
 10
6.027120
 20
6.452600
  0
VERTEX
  8
0
  6
CONTINUOUS
 10
6.064960
 20
6.449960
  0
VERTEX
  8
0
  6
CONTINUOUS
 10
6.101040
 20
6.441600
  0
VERTEX
  8
0
  6
CONTINUOUS
 10
6.123480
 20
6.433240
  0
VERTEX
  8
0
  6
CONTINUOUS
 10
6.145480
 20
6.422680
  0
VERTEX
  8
0
  6
CONTINUOUS
 10
6.165720
 20
6.410360
  0
VERTEX
  8
0
  6
CONTINUOUS
 10
6.185080
 20
6.395840
  0
VERTEX
  8
0
  6
CONTINUOUS
 10
6.202680
 20
6.380000
  0
VERTEX
  8
0
  6
CONTINUOUS
 10
6.218520
 20
6.362400
  0
VERTEX
  8
0
  6
CONTINUOUS
 10
6.233040
 20
6.343480
  0
VERTEX
  8
0
  6
CONTINUOUS
 10
6.245360
 20
6.322800
  0
VERTEX
  8
0
  6
CONTINUOUS
 10
6.255920
 20
6.301240
  0
VERTEX
  8
0
  6
CONTINUOUS
 10
6.267360
 20
6.266920
  0
VERTEX
  8
0
  6
CONTINUOUS
 10
6.272200
 20
6.242720
  0
VERTEX
  8
0
  6
CONTINUOUS
 10
6.274840
 20
6.217640
  0
VERTEX
  8
0
  6
CONTINUOUS
 10
6.274840
 20
6.192120
  0
VERTEX
  8
0
  6
CONTINUOUS
 10
6.270440
 20
6.155160
  0
VERTEX
  8
0
  6
CONTINUOUS
 10
6.264280
 20
6.131400
  0
VERTEX
  8
0
  6
CONTINUOUS
 10
6.255920
 20
6.108520
  0
VERTEX
  8
0
  6
CONTINUOUS
 10
6.245360
 20
6.086960
  0
VERTEX
  8
0
  6
CONTINUOUS
 10
6.233040
 20
6.066280
  0
VERTEX
  8
0
  6
CONTINUOUS
 10
6.218520
 20
6.047360
  0
VERTEX
  8
0
  6
CONTINUOUS
 10
6.202680
 20
6.029760
  0
VERTEX
  8
0
  6
CONTINUOUS
 10
6.185080
 20
6.013920
  0
VERTEX
  8
0
  6
CONTINUOUS
 10
6.165720
 20
5.999400
  0
VERTEX
  8
0
  6
CONTINUOUS
 10
6.145480
 20
5.987080
  0
VERTEX
  8
0
  6
CONTINUOUS
 10
6.123480
 20
5.976520
  0
VERTEX
  8
0
  6
CONTINUOUS
 10
6.101040
 20
5.968160
  0
VERTEX
  8
0
  6
CONTINUOUS
 10
6.064960
 20
5.959800
  0
VERTEX
  8
0
  6
CONTINUOUS
 10
6.027120
 20
5.957160
  0
VERTEX
  8
0
  6
CONTINUOUS
 10
6.027120
 20
5.815040
  0
VERTEX
  8
0
  6
CONTINUOUS
 10
6.291560
 20
5.815040
  0
VERTEX
  8
0
  6
CONTINUOUS
 10
6.291560
 20
4.793360
  0
VERTEX
  8
0
  6
CONTINUOUS
 10
2.739000
 20
4.793360
  0
VERTEX
  8
0
  6
CONTINUOUS
 10
2.739000
 20
6.386600
  0
VERTEX
  8
0
  6
CONTINUOUS
 10
2.738120
 20
6.390560
  0
SEQEND
  8
0
  0
TEXT
  8
0
 10
3.837240
 20
5.117200
 40
0.137983
  1
BA  1068A & B
 41
1.000000
  7
SN0
 71
     0
 72
     5
 11
4.943411
 21
5.117200
  0
TEXT
  8
0
 10
3.773880
 20
4.925360
 40
0.137983
  1
  2-1/8" x 3-9/16"
 41
1.000000
  7
SN0
 71
     0
 72
     5
 11
5.011207
 21
4.925360
  0
ENDSEC
  0
EOF
