  0
SECTION
  2
HEADER
  9
$ACADVER
  1
AC1006
  9
$EXTMIN
 10
5.553240
 20
0.546480
  9
$EXTMAX
 10
8.097320
 20
2.692360
  9
$LTSCALE
 40
0.044000
  9
$PDMODE
 70
    35
  9
$PDSIZE
 40
0.035200
  0
ENDSEC
  0
SECTION
  2
TABLES
  0
TABLE
  2
LTYPE
 70
     9
  0
LTYPE
  2
CONTINUOUS
 70
    64
  3
Solid line
 72
    65
 73
     0
 40
0.000000
  0
LTYPE
  2
DASHED
 70
    64
  3
__ __ __ __ __ __ __ __ __ __ __ __ __ __ __
 72
    65
 73
     2
 40
0.000330
 49
0.000220
 49
-0.000110
  0
LTYPE
  2
HIDDEN
 70
    64
  3
 _ _ _ _ _ _ _ _ _ _ _ _ _ _ _ _ _ _ _ _ _ _
 72
    65
 73
     2
 40
0.000165
 49
0.000110
 49
-0.000055
  0
LTYPE
  2
CENTER
 70
    64
  3
____ _ ____ _ ____ _ ____ _ ____ _ ____ _ ____
 72
    65
 73
     4
 40
0.000880
 49
0.000550
 49
-0.000110
 49
0.000110
 49
-0.000110
  0
LTYPE
  2
PHANTOM
 70
    64
  3
_____ _ _ _____ _ _ _____ _ _ _____ _ _ ____
 72
    65
 73
     6
 40
0.001100
 49
0.000550
 49
-0.000110
 49
0.000110
 49
-0.000110
 49
0.000110
 49
-0.000110
  0
LTYPE
  2
DOT
 70
    64
  3
...............................................
 72
    65
 73
     2
 40
0.000110
 49
0.000000
 49
-0.000110
  0
LTYPE
  2
DASHDOT
 70
    64
  3
__ . __ . __ . __ . __ . __ . __ . __ . __ . __
 72
    65
 73
     4
 40
0.000440
 49
0.000220
 49
-0.000110
 49
0.000000
 49
-0.000110
  0
LTYPE
  2
BORDER
 70
    64
  3
__ __ . __ __ . __ __ . __ __ . __ __ . __ __
 72
    65
 73
     6
 40
0.000770
 49
0.000220
 49
-0.000110
 49
0.000220
 49
-0.000110
 49
0.000000
 49
-0.000110
  0
LTYPE
  2
DIVIDE
 70
    64
  3
__ . . __ . . __ . . __ . . __ . . __ . . __
 72
    65
 73
     6
 40
0.000550
 49
0.000220
 49
-0.000110
 49
0.000000
 49
-0.000110
 49
0.000000
 49
-0.000110
  0
LTYPE
  2
DOTDOT
 70
    64
  3
 . .  . .  . .  . .  . .  . . 
 72
    65
 73
     5
 40
0.000242
 49
-0.000110
 49
0.000000
 49
-0.000110
 49
0.000000
 49
-0.000110
  0
ENDTAB
  0
TABLE
  2
STYLE
 70
     2
  0
STYLE
 70
     0
  2
SN0
 40
0.000000
 41
0.000440
 50
0.000000
 71
     0
 42
0.000000
  3
ROMAND
  0
STYLE
 70
    68
  2
SV0
 40
0.000000
 41
0.000440
 50
0.000000
 71
     0
 42
0.000000
  3
ROMAND
  0
ENDTAB
  0
TABLE
  2
LAYER
 70
     3
  0
LAYER
  2
FOREGROUND
 70
    64
 62
     7
  6
CONTINUOUS
  0
LAYER
  2
BACKGROUND
 70
    65
 62
    -7
  6
CONTINUOUS
  0
LAYER
  2
0
 70
    64
 62
     7
  6
CONTINUOUS
  0
ENDTAB
  0
ENDSEC
  0
SECTION
  2
ENTITIES
  0
POLYLINE
  8
FOREGROUND
  6
CONTINUOUS
 66
     1
 40
0.000000
 41
0.000000
  0
VERTEX
  8
FOREGROUND
  6
CONTINUOUS
 10
0.000000
 20
3.238840
  0
VERTEX
  8
FOREGROUND
  6
CONTINUOUS
 10
8.499920
 20
3.238840
  0
VERTEX
  8
FOREGROUND
  6
CONTINUOUS
 10
8.499920
 20
-7.761160
  0
VERTEX
  8
FOREGROUND
  6
CONTINUOUS
 10
0.000000
 20
-7.761160
  0
VERTEX
  8
FOREGROUND
  6
CONTINUOUS
 10
0.000000
 20
3.238840
  0
SEQEND
  8
0
  0
POLYLINE
  8
FOREGROUND
  6
CONTINUOUS
 66
     1
 40
0.000000
 41
0.000000
  0
VERTEX
  8
FOREGROUND
  6
CONTINUOUS
 10
0.000000
 20
3.238840
  0
VERTEX
  8
FOREGROUND
  6
CONTINUOUS
 10
8.499920
 20
3.238840
  0
VERTEX
  8
FOREGROUND
  6
CONTINUOUS
 10
8.499920
 20
-7.761160
  0
VERTEX
  8
FOREGROUND
  6
CONTINUOUS
 10
0.000000
 20
-7.761160
  0
VERTEX
  8
FOREGROUND
  6
CONTINUOUS
 10
0.000000
 20
3.238840
  0
SEQEND
  8
0
  0
SOLID
  8
0
 62
    15
 10
7.306640
 20
1.474440
 11
7.944200
 21
1.851960
 12
7.333040
 22
1.457720
 13
7.970160
 23
1.835240
  0
POLYLINE
  8
0
  6
CONTINUOUS
 66
     1
 40
0.000000
 41
0.000000
  0
VERTEX
  8
0
  6
CONTINUOUS
 10
7.306640
 20
1.474440
  0
VERTEX
  8
0
  6
CONTINUOUS
 10
7.944200
 20
1.851960
  0
VERTEX
  8
0
  6
CONTINUOUS
 10
7.970160
 20
1.835240
  0
VERTEX
  8
0
  6
CONTINUOUS
 10
7.333040
 20
1.457720
  0
VERTEX
  8
0
  6
CONTINUOUS
 10
7.306640
 20
1.474440
  0
SEQEND
  8
0
  0
SOLID
  8
0
 62
    15
 10
5.734960
 20
1.487640
 11
6.372520
 21
1.864720
 12
5.765320
 22
1.496880
 13
6.402880
 23
1.874400
  0
POLYLINE
  8
0
  6
CONTINUOUS
 66
     1
 40
0.000000
 41
0.000000
  0
VERTEX
  8
0
  6
CONTINUOUS
 10
5.734960
 20
1.487640
  0
VERTEX
  8
0
  6
CONTINUOUS
 10
6.372520
 20
1.864720
  0
VERTEX
  8
0
  6
CONTINUOUS
 10
6.402880
 20
1.874400
  0
VERTEX
  8
0
  6
CONTINUOUS
 10
5.765320
 20
1.496880
  0
VERTEX
  8
0
  6
CONTINUOUS
 10
5.734960
 20
1.487640
  0
SEQEND
  8
0
  0
SOLID
  8
0
 62
    15
 10
5.765320
 20
1.496880
 11
6.402880
 21
1.874400
 12
5.797880
 22
1.503480
 13
6.435440
 23
1.880560
  0
POLYLINE
  8
0
  6
CONTINUOUS
 66
     1
 40
0.000000
 41
0.000000
  0
VERTEX
  8
0
  6
CONTINUOUS
 10
5.765320
 20
1.496880
  0
VERTEX
  8
0
  6
CONTINUOUS
 10
6.402880
 20
1.874400
  0
VERTEX
  8
0
  6
CONTINUOUS
 10
6.435440
 20
1.880560
  0
VERTEX
  8
0
  6
CONTINUOUS
 10
5.797880
 20
1.503480
  0
VERTEX
  8
0
  6
CONTINUOUS
 10
5.765320
 20
1.496880
  0
SEQEND
  8
0
  0
SOLID
  8
0
 62
    15
 10
5.797880
 20
1.503480
 11
6.435440
 21
1.880560
 12
5.832640
 22
1.507000
 13
6.470200
 23
1.884080
  0
POLYLINE
  8
0
  6
CONTINUOUS
 66
     1
 40
0.000000
 41
0.000000
  0
VERTEX
  8
0
  6
CONTINUOUS
 10
5.797880
 20
1.503480
  0
VERTEX
  8
0
  6
CONTINUOUS
 10
6.435440
 20
1.880560
  0
VERTEX
  8
0
  6
CONTINUOUS
 10
6.470200
 20
1.884080
  0
VERTEX
  8
0
  6
CONTINUOUS
 10
5.832640
 20
1.507000
  0
VERTEX
  8
0
  6
CONTINUOUS
 10
5.797880
 20
1.503480
  0
SEQEND
  8
0
  0
SOLID
  8
0
 62
    15
 10
5.832640
 20
1.507000
 11
6.470200
 21
1.884080
 12
5.869160
 22
1.507880
 13
6.506720
 23
1.885400
  0
POLYLINE
  8
0
  6
CONTINUOUS
 66
     1
 40
0.000000
 41
0.000000
  0
VERTEX
  8
0
  6
CONTINUOUS
 10
5.832640
 20
1.507000
  0
VERTEX
  8
0
  6
CONTINUOUS
 10
6.470200
 20
1.884080
  0
VERTEX
  8
0
  6
CONTINUOUS
 10
6.506720
 20
1.885400
  0
VERTEX
  8
0
  6
CONTINUOUS
 10
5.869160
 20
1.507880
  0
VERTEX
  8
0
  6
CONTINUOUS
 10
5.832640
 20
1.507000
  0
SEQEND
  8
0
  0
SOLID
  8
0
 62
    15
 10
5.706360
 20
1.474880
 11
6.343920
 21
1.851960
 12
5.734960
 22
1.487640
 13
6.372520
 23
1.864720
  0
POLYLINE
  8
0
  6
CONTINUOUS
 66
     1
 40
0.000000
 41
0.000000
  0
VERTEX
  8
0
  6
CONTINUOUS
 10
5.706360
 20
1.474880
  0
VERTEX
  8
0
  6
CONTINUOUS
 10
6.343920
 20
1.851960
  0
VERTEX
  8
0
  6
CONTINUOUS
 10
6.372520
 20
1.864720
  0
VERTEX
  8
0
  6
CONTINUOUS
 10
5.734960
 20
1.487640
  0
VERTEX
  8
0
  6
CONTINUOUS
 10
5.706360
 20
1.474880
  0
SEQEND
  8
0
  0
SOLID
  8
0
 62
    15
 10
7.143840
 20
1.576080
 11
7.781400
 21
1.953600
 12
7.143840
 22
1.507880
 13
7.781400
 23
1.885400
  0
POLYLINE
  8
0
  6
CONTINUOUS
 66
     1
 40
0.000000
 41
0.000000
  0
VERTEX
  8
0
  6
CONTINUOUS
 10
7.143840
 20
1.576080
  0
VERTEX
  8
0
  6
CONTINUOUS
 10
7.781400
 20
1.953600
  0
VERTEX
  8
0
  6
CONTINUOUS
 10
7.781400
 20
1.885400
  0
VERTEX
  8
0
  6
CONTINUOUS
 10
7.143840
 20
1.507880
  0
VERTEX
  8
0
  6
CONTINUOUS
 10
7.143840
 20
1.576080
  0
SEQEND
  8
0
  0
SOLID
  8
0
 62
    15
 10
7.143840
 20
1.507880
 11
7.781400
 21
1.885400
 12
7.180360
 22
1.507000
 13
7.817920
 23
1.884080
  0
POLYLINE
  8
0
  6
CONTINUOUS
 66
     1
 40
0.000000
 41
0.000000
  0
VERTEX
  8
0
  6
CONTINUOUS
 10
7.143840
 20
1.507880
  0
VERTEX
  8
0
  6
CONTINUOUS
 10
7.781400
 20
1.885400
  0
VERTEX
  8
0
  6
CONTINUOUS
 10
7.817920
 20
1.884080
  0
VERTEX
  8
0
  6
CONTINUOUS
 10
7.180360
 20
1.507000
  0
VERTEX
  8
0
  6
CONTINUOUS
 10
7.143840
 20
1.507880
  0
SEQEND
  8
0
  0
SOLID
  8
0
 62
    15
 10
7.180360
 20
1.507000
 11
7.817920
 21
1.884080
 12
7.215120
 22
1.503480
 13
7.852680
 23
1.880560
  0
POLYLINE
  8
0
  6
CONTINUOUS
 66
     1
 40
0.000000
 41
0.000000
  0
VERTEX
  8
0
  6
CONTINUOUS
 10
7.180360
 20
1.507000
  0
VERTEX
  8
0
  6
CONTINUOUS
 10
7.817920
 20
1.884080
  0
VERTEX
  8
0
  6
CONTINUOUS
 10
7.852680
 20
1.880560
  0
VERTEX
  8
0
  6
CONTINUOUS
 10
7.215120
 20
1.503480
  0
VERTEX
  8
0
  6
CONTINUOUS
 10
7.180360
 20
1.507000
  0
SEQEND
  8
0
  0
SOLID
  8
0
 62
    15
 10
7.215120
 20
1.503480
 11
7.852680
 21
1.880560
 12
7.247680
 22
1.496880
 13
7.885240
 23
1.874400
  0
POLYLINE
  8
0
  6
CONTINUOUS
 66
     1
 40
0.000000
 41
0.000000
  0
VERTEX
  8
0
  6
CONTINUOUS
 10
7.215120
 20
1.503480
  0
VERTEX
  8
0
  6
CONTINUOUS
 10
7.852680
 20
1.880560
  0
VERTEX
  8
0
  6
CONTINUOUS
 10
7.885240
 20
1.874400
  0
VERTEX
  8
0
  6
CONTINUOUS
 10
7.247680
 20
1.496880
  0
VERTEX
  8
0
  6
CONTINUOUS
 10
7.215120
 20
1.503480
  0
SEQEND
  8
0
  0
SOLID
  8
0
 62
    15
 10
7.247680
 20
1.496880
 11
7.885240
 21
1.874400
 12
7.278480
 22
1.487640
 13
7.915600
 23
1.864720
  0
POLYLINE
  8
0
  6
CONTINUOUS
 66
     1
 40
0.000000
 41
0.000000
  0
VERTEX
  8
0
  6
CONTINUOUS
 10
7.247680
 20
1.496880
  0
VERTEX
  8
0
  6
CONTINUOUS
 10
7.885240
 20
1.874400
  0
VERTEX
  8
0
  6
CONTINUOUS
 10
7.915600
 20
1.864720
  0
VERTEX
  8
0
  6
CONTINUOUS
 10
7.278480
 20
1.487640
  0
VERTEX
  8
0
  6
CONTINUOUS
 10
7.247680
 20
1.496880
  0
SEQEND
  8
0
  0
SOLID
  8
0
 62
    15
 10
7.278480
 20
1.487640
 11
7.915600
 21
1.864720
 12
7.306640
 22
1.474440
 13
7.944200
 23
1.851960
  0
POLYLINE
  8
0
  6
CONTINUOUS
 66
     1
 40
0.000000
 41
0.000000
  0
VERTEX
  8
0
  6
CONTINUOUS
 10
7.278480
 20
1.487640
  0
VERTEX
  8
0
  6
CONTINUOUS
 10
7.915600
 20
1.864720
  0
VERTEX
  8
0
  6
CONTINUOUS
 10
7.944200
 20
1.851960
  0
VERTEX
  8
0
  6
CONTINUOUS
 10
7.306640
 20
1.474440
  0
VERTEX
  8
0
  6
CONTINUOUS
 10
7.278480
 20
1.487640
  0
SEQEND
  8
0
  0
SOLID
  8
0
 62
    15
 10
5.869160
 20
1.576080
 11
6.506720
 21
1.953600
 12
7.143840
 22
1.576080
 13
7.781400
 23
1.953600
  0
POLYLINE
  8
0
  6
CONTINUOUS
 66
     1
 40
0.000000
 41
0.000000
  0
VERTEX
  8
0
  6
CONTINUOUS
 10
5.869160
 20
1.576080
  0
VERTEX
  8
0
  6
CONTINUOUS
 10
6.506720
 20
1.953600
  0
VERTEX
  8
0
  6
CONTINUOUS
 10
7.781400
 20
1.953600
  0
VERTEX
  8
0
  6
CONTINUOUS
 10
7.143840
 20
1.576080
  0
VERTEX
  8
0
  6
CONTINUOUS
 10
5.869160
 20
1.576080
  0
SEQEND
  8
0
  0
SOLID
  8
0
 62
    15
 10
7.333040
 20
1.457720
 11
7.970160
 21
1.835240
 12
7.356800
 22
1.437040
 13
7.994360
 23
1.814120
  0
POLYLINE
  8
0
  6
CONTINUOUS
 66
     1
 40
0.000000
 41
0.000000
  0
VERTEX
  8
0
  6
CONTINUOUS
 10
7.333040
 20
1.457720
  0
VERTEX
  8
0
  6
CONTINUOUS
 10
7.970160
 20
1.835240
  0
VERTEX
  8
0
  6
CONTINUOUS
 10
7.994360
 20
1.814120
  0
VERTEX
  8
0
  6
CONTINUOUS
 10
7.356800
 20
1.437040
  0
VERTEX
  8
0
  6
CONTINUOUS
 10
7.333040
 20
1.457720
  0
SEQEND
  8
0
  0
SOLID
  8
0
 62
    15
 10
7.356800
 20
1.437040
 11
7.994360
 21
1.814120
 12
7.378360
 22
1.411520
 13
8.015920
 23
1.788600
  0
POLYLINE
  8
0
  6
CONTINUOUS
 66
     1
 40
0.000000
 41
0.000000
  0
VERTEX
  8
0
  6
CONTINUOUS
 10
7.356800
 20
1.437040
  0
VERTEX
  8
0
  6
CONTINUOUS
 10
7.994360
 20
1.814120
  0
VERTEX
  8
0
  6
CONTINUOUS
 10
8.015920
 20
1.788600
  0
VERTEX
  8
0
  6
CONTINUOUS
 10
7.378360
 20
1.411520
  0
VERTEX
  8
0
  6
CONTINUOUS
 10
7.356800
 20
1.437040
  0
SEQEND
  8
0
  0
SOLID
  8
0
 62
    15
 10
7.378360
 20
1.411520
 11
8.015920
 21
1.788600
 12
7.397720
 22
1.381160
 13
8.034840
 23
1.758680
  0
POLYLINE
  8
0
  6
CONTINUOUS
 66
     1
 40
0.000000
 41
0.000000
  0
VERTEX
  8
0
  6
CONTINUOUS
 10
7.378360
 20
1.411520
  0
VERTEX
  8
0
  6
CONTINUOUS
 10
8.015920
 20
1.788600
  0
VERTEX
  8
0
  6
CONTINUOUS
 10
8.034840
 20
1.758680
  0
VERTEX
  8
0
  6
CONTINUOUS
 10
7.397720
 20
1.381160
  0
VERTEX
  8
0
  6
CONTINUOUS
 10
7.378360
 20
1.411520
  0
SEQEND
  8
0
  0
SOLID
  8
0
 62
    15
 10
7.397720
 20
1.381160
 11
8.034840
 21
1.758680
 12
7.414000
 22
1.345960
 13
8.051560
 23
1.723040
  0
POLYLINE
  8
0
  6
CONTINUOUS
 66
     1
 40
0.000000
 41
0.000000
  0
VERTEX
  8
0
  6
CONTINUOUS
 10
7.397720
 20
1.381160
  0
VERTEX
  8
0
  6
CONTINUOUS
 10
8.034840
 20
1.758680
  0
VERTEX
  8
0
  6
CONTINUOUS
 10
8.051560
 20
1.723040
  0
VERTEX
  8
0
  6
CONTINUOUS
 10
7.414000
 20
1.345960
  0
VERTEX
  8
0
  6
CONTINUOUS
 10
7.397720
 20
1.381160
  0
SEQEND
  8
0
  0
SOLID
  8
0
 62
    15
 10
7.414000
 20
1.345960
 11
8.051560
 21
1.723040
 12
7.428520
 22
1.305040
 13
8.066080
 23
1.682120
  0
POLYLINE
  8
0
  6
CONTINUOUS
 66
     1
 40
0.000000
 41
0.000000
  0
VERTEX
  8
0
  6
CONTINUOUS
 10
7.414000
 20
1.345960
  0
VERTEX
  8
0
  6
CONTINUOUS
 10
8.051560
 20
1.723040
  0
VERTEX
  8
0
  6
CONTINUOUS
 10
8.066080
 20
1.682120
  0
VERTEX
  8
0
  6
CONTINUOUS
 10
7.428520
 20
1.305040
  0
VERTEX
  8
0
  6
CONTINUOUS
 10
7.414000
 20
1.345960
  0
SEQEND
  8
0
  0
SOLID
  8
0
 62
    15
 10
7.428520
 20
1.305040
 11
8.066080
 21
1.682120
 12
7.439960
 22
1.257960
 13
8.077520
 23
1.635040
  0
POLYLINE
  8
0
  6
CONTINUOUS
 66
     1
 40
0.000000
 41
0.000000
  0
VERTEX
  8
0
  6
CONTINUOUS
 10
7.428520
 20
1.305040
  0
VERTEX
  8
0
  6
CONTINUOUS
 10
8.066080
 20
1.682120
  0
VERTEX
  8
0
  6
CONTINUOUS
 10
8.077520
 20
1.635040
  0
VERTEX
  8
0
  6
CONTINUOUS
 10
7.439960
 20
1.257960
  0
VERTEX
  8
0
  6
CONTINUOUS
 10
7.428520
 20
1.305040
  0
SEQEND
  8
0
  0
SOLID
  8
0
 62
    15
 10
7.439960
 20
1.257960
 11
8.077520
 21
1.635040
 12
7.448760
 22
1.205160
 13
8.086320
 23
1.582240
  0
POLYLINE
  8
0
  6
CONTINUOUS
 66
     1
 40
0.000000
 41
0.000000
  0
VERTEX
  8
0
  6
CONTINUOUS
 10
7.439960
 20
1.257960
  0
VERTEX
  8
0
  6
CONTINUOUS
 10
8.077520
 20
1.635040
  0
VERTEX
  8
0
  6
CONTINUOUS
 10
8.086320
 20
1.582240
  0
VERTEX
  8
0
  6
CONTINUOUS
 10
7.448760
 20
1.205160
  0
VERTEX
  8
0
  6
CONTINUOUS
 10
7.439960
 20
1.257960
  0
SEQEND
  8
0
  0
SOLID
  8
0
 62
    15
 10
7.448760
 20
1.205160
 11
8.086320
 21
1.582240
 12
7.455360
 22
1.145320
 13
8.092480
 23
1.522400
  0
POLYLINE
  8
0
  6
CONTINUOUS
 66
     1
 40
0.000000
 41
0.000000
  0
VERTEX
  8
0
  6
CONTINUOUS
 10
7.448760
 20
1.205160
  0
VERTEX
  8
0
  6
CONTINUOUS
 10
8.086320
 20
1.582240
  0
VERTEX
  8
0
  6
CONTINUOUS
 10
8.092480
 20
1.522400
  0
VERTEX
  8
0
  6
CONTINUOUS
 10
7.455360
 20
1.145320
  0
VERTEX
  8
0
  6
CONTINUOUS
 10
7.448760
 20
1.205160
  0
SEQEND
  8
0
  0
SOLID
  8
0
 62
    15
 10
7.455360
 20
1.145320
 11
8.092480
 21
1.522400
 12
7.458880
 22
1.078880
 13
8.096000
 23
1.455960
  0
POLYLINE
  8
0
  6
CONTINUOUS
 66
     1
 40
0.000000
 41
0.000000
  0
VERTEX
  8
0
  6
CONTINUOUS
 10
7.455360
 20
1.145320
  0
VERTEX
  8
0
  6
CONTINUOUS
 10
8.092480
 20
1.522400
  0
VERTEX
  8
0
  6
CONTINUOUS
 10
8.096000
 20
1.455960
  0
VERTEX
  8
0
  6
CONTINUOUS
 10
7.458880
 20
1.078880
  0
VERTEX
  8
0
  6
CONTINUOUS
 10
7.455360
 20
1.145320
  0
SEQEND
  8
0
  0
SOLID
  8
0
 62
    15
 10
7.458880
 20
1.078880
 11
8.096000
 21
1.455960
 12
7.459320
 22
1.004960
 13
8.096880
 23
1.382040
  0
POLYLINE
  8
0
  6
CONTINUOUS
 66
     1
 40
0.000000
 41
0.000000
  0
VERTEX
  8
0
  6
CONTINUOUS
 10
7.458880
 20
1.078880
  0
VERTEX
  8
0
  6
CONTINUOUS
 10
8.096000
 20
1.455960
  0
VERTEX
  8
0
  6
CONTINUOUS
 10
8.096880
 20
1.382040
  0
VERTEX
  8
0
  6
CONTINUOUS
 10
7.459320
 20
1.004960
  0
VERTEX
  8
0
  6
CONTINUOUS
 10
7.458880
 20
1.078880
  0
SEQEND
  8
0
  0
SOLID
  8
0
 62
    15
 10
7.459320
 20
1.004960
 11
8.096880
 21
1.382040
 12
7.459760
 22
1.004960
 13
8.097320
 23
1.382480
  0
POLYLINE
  8
0
  6
CONTINUOUS
 66
     1
 40
0.000000
 41
0.000000
  0
VERTEX
  8
0
  6
CONTINUOUS
 10
7.459320
 20
1.004960
  0
VERTEX
  8
0
  6
CONTINUOUS
 10
8.096880
 20
1.382040
  0
VERTEX
  8
0
  6
CONTINUOUS
 10
8.097320
 20
1.382480
  0
VERTEX
  8
0
  6
CONTINUOUS
 10
7.459760
 20
1.004960
  0
VERTEX
  8
0
  6
CONTINUOUS
 10
7.459320
 20
1.004960
  0
SEQEND
  8
0
  0
POLYLINE
  8
0
  6
CONTINUOUS
 66
     1
 40
0.000000
 41
0.000000
  0
VERTEX
  8
0
  6
CONTINUOUS
 10
7.459760
 20
1.004960
  0
VERTEX
  8
0
  6
CONTINUOUS
 10
5.553680
 20
1.004960
  0
VERTEX
  8
0
  6
CONTINUOUS
 10
5.554560
 20
1.078880
  0
VERTEX
  8
0
  6
CONTINUOUS
 10
5.558080
 20
1.145320
  0
VERTEX
  8
0
  6
CONTINUOUS
 10
5.564240
 20
1.205160
  0
VERTEX
  8
0
  6
CONTINUOUS
 10
5.573040
 20
1.257960
  0
VERTEX
  8
0
  6
CONTINUOUS
 10
5.584920
 20
1.305040
  0
VERTEX
  8
0
  6
CONTINUOUS
 10
5.599000
 20
1.345960
  0
VERTEX
  8
0
  6
CONTINUOUS
 10
5.615720
 20
1.381160
  0
VERTEX
  8
0
  6
CONTINUOUS
 10
5.634640
 20
1.411520
  0
VERTEX
  8
0
  6
CONTINUOUS
 10
5.656200
 20
1.437040
  0
VERTEX
  8
0
  6
CONTINUOUS
 10
5.680400
 20
1.457720
  0
VERTEX
  8
0
  6
CONTINUOUS
 10
5.706360
 20
1.474880
  0
VERTEX
  8
0
  6
CONTINUOUS
 10
5.734960
 20
1.487640
  0
VERTEX
  8
0
  6
CONTINUOUS
 10
5.765320
 20
1.496880
  0
VERTEX
  8
0
  6
CONTINUOUS
 10
5.797880
 20
1.503480
  0
VERTEX
  8
0
  6
CONTINUOUS
 10
5.832640
 20
1.507000
  0
VERTEX
  8
0
  6
CONTINUOUS
 10
5.869160
 20
1.507880
  0
VERTEX
  8
0
  6
CONTINUOUS
 10
5.869160
 20
1.576080
  0
VERTEX
  8
0
  6
CONTINUOUS
 10
7.143840
 20
1.576080
  0
VERTEX
  8
0
  6
CONTINUOUS
 10
7.143840
 20
1.507880
  0
VERTEX
  8
0
  6
CONTINUOUS
 10
7.180360
 20
1.507000
  0
VERTEX
  8
0
  6
CONTINUOUS
 10
7.215120
 20
1.503480
  0
VERTEX
  8
0
  6
CONTINUOUS
 10
7.247680
 20
1.496880
  0
VERTEX
  8
0
  6
CONTINUOUS
 10
7.278480
 20
1.487640
  0
VERTEX
  8
0
  6
CONTINUOUS
 10
7.306640
 20
1.474440
  0
VERTEX
  8
0
  6
CONTINUOUS
 10
7.333040
 20
1.457720
  0
VERTEX
  8
0
  6
CONTINUOUS
 10
7.356800
 20
1.437040
  0
VERTEX
  8
0
  6
CONTINUOUS
 10
7.378360
 20
1.411520
  0
VERTEX
  8
0
  6
CONTINUOUS
 10
7.397720
 20
1.381160
  0
VERTEX
  8
0
  6
CONTINUOUS
 10
7.414000
 20
1.345960
  0
VERTEX
  8
0
  6
CONTINUOUS
 10
7.428520
 20
1.305040
  0
VERTEX
  8
0
  6
CONTINUOUS
 10
7.439960
 20
1.257960
  0
VERTEX
  8
0
  6
CONTINUOUS
 10
7.448760
 20
1.205160
  0
VERTEX
  8
0
  6
CONTINUOUS
 10
7.455360
 20
1.145320
  0
VERTEX
  8
0
  6
CONTINUOUS
 10
7.458880
 20
1.078880
  0
VERTEX
  8
0
  6
CONTINUOUS
 10
7.459320
 20
1.004960
  0
VERTEX
  8
0
  6
CONTINUOUS
 10
7.459760
 20
1.004960
  0
SEQEND
  8
0
  0
TEXT
  8
0
 10
6.483840
 20
0.781440
 40
0.138064
  1
BA  1067
 41
1.000000
  7
SN0
 71
     0
 72
     5
 11
7.165272
 21
0.781440
  0
TEXT
  8
0
 10
6.328080
 20
0.589600
 40
0.138064
  1
9/16" x 1-7/8"
 41
1.000000
  7
SN0
 71
     0
 72
     5
 11
7.319381
 21
0.589600
  0
POLYLINE
  8
0
  6
CONTINUOUS
 66
     1
 40
0.000000
 41
0.000000
  0
VERTEX
  8
0
  6
CONTINUOUS
 10
8.024720
 20
2.120360
  0
VERTEX
  8
0
  6
CONTINUOUS
 10
6.119080
 20
2.120360
  0
VERTEX
  8
0
  6
CONTINUOUS
 10
6.119520
 20
2.194280
  0
VERTEX
  8
0
  6
CONTINUOUS
 10
6.123040
 20
2.260720
  0
VERTEX
  8
0
  6
CONTINUOUS
 10
6.129200
 20
2.320560
  0
VERTEX
  8
0
  6
CONTINUOUS
 10
6.143720
 20
2.397560
  0
VERTEX
  8
0
  6
CONTINUOUS
 10
6.156480
 20
2.441560
  0
VERTEX
  8
0
  6
CONTINUOUS
 10
6.172320
 20
2.479840
  0
VERTEX
  8
0
  6
CONTINUOUS
 10
6.189920
 20
2.512840
  0
VERTEX
  8
0
  6
CONTINUOUS
 10
6.210600
 20
2.540560
  0
VERTEX
  8
0
  6
CONTINUOUS
 10
6.233040
 20
2.563440
  0
VERTEX
  8
0
  6
CONTINUOUS
 10
6.258120
 20
2.582360
  0
VERTEX
  8
0
  6
CONTINUOUS
 10
6.285400
 20
2.597320
  0
VERTEX
  8
0
  6
CONTINUOUS
 10
6.314880
 20
2.608320
  0
VERTEX
  8
0
  6
CONTINUOUS
 10
6.346560
 20
2.616240
  0
VERTEX
  8
0
  6
CONTINUOUS
 10
6.380440
 20
2.621080
  0
VERTEX
  8
0
  6
CONTINUOUS
 10
6.434560
 20
2.623720
  0
VERTEX
  8
0
  6
CONTINUOUS
 10
6.434560
 20
2.691920
  0
VERTEX
  8
0
  6
CONTINUOUS
 10
7.709240
 20
2.691920
  0
VERTEX
  8
0
  6
CONTINUOUS
 10
7.709240
 20
2.623720
  0
VERTEX
  8
0
  6
CONTINUOUS
 10
7.763360
 20
2.621080
  0
VERTEX
  8
0
  6
CONTINUOUS
 10
7.796800
 20
2.616240
  0
VERTEX
  8
0
  6
CONTINUOUS
 10
7.828480
 20
2.608320
  0
VERTEX
  8
0
  6
CONTINUOUS
 10
7.857960
 20
2.597320
  0
VERTEX
  8
0
  6
CONTINUOUS
 10
7.885240
 20
2.582360
  0
VERTEX
  8
0
  6
CONTINUOUS
 10
7.910320
 20
2.563440
  0
VERTEX
  8
0
  6
CONTINUOUS
 10
7.933200
 20
2.540560
  0
VERTEX
  8
0
  6
CONTINUOUS
 10
7.953440
 20
2.512840
  0
VERTEX
  8
0
  6
CONTINUOUS
 10
7.971480
 20
2.479840
  0
VERTEX
  8
0
  6
CONTINUOUS
 10
7.986880
 20
2.441560
  0
VERTEX
  8
0
  6
CONTINUOUS
 10
7.999640
 20
2.397560
  0
VERTEX
  8
0
  6
CONTINUOUS
 10
8.010200
 20
2.347840
  0
VERTEX
  8
0
  6
CONTINUOUS
 10
8.017680
 20
2.291520
  0
VERTEX
  8
0
  6
CONTINUOUS
 10
8.022520
 20
2.228160
  0
VERTEX
  8
0
  6
CONTINUOUS
 10
8.024720
 20
2.158200
  0
VERTEX
  8
0
  6
CONTINUOUS
 10
8.024720
 20
2.120360
  0
SEQEND
  8
0
  0
TEXT
  8
0
 10
6.755320
 20
2.443760
 40
0.138064
  1
BA  1067
 41
1.000000
  7
SN0
 71
     0
 72
     5
 11
7.436752
 21
2.443760
  0
TEXT
  8
0
 10
6.599560
 20
2.251920
 40
0.138064
  1
9/16" x 1-7/8"
 41
1.000000
  7
SN0
 71
     0
 72
     5
 11
7.590861
 21
2.251920
  0
ENDSEC
  0
EOF
