  0
SECTION
  2
HEADER
  9
$ACADVER
  1
AC1006
  9
$EXTMIN
 10
1.633280
 20
0.412280
  9
$EXTMAX
 10
7.192240
 20
5.727920
  9
$LTSCALE
 40
0.044000
  9
$PDMODE
 70
    35
  9
$PDSIZE
 40
0.035200
  0
ENDSEC
  0
SECTION
  2
TABLES
  0
TABLE
  2
LTYPE
 70
     9
  0
LTYPE
  2
CONTINUOUS
 70
    64
  3
Solid line
 72
    65
 73
     0
 40
0.000000
  0
LTYPE
  2
DASHED
 70
    64
  3
__ __ __ __ __ __ __ __ __ __ __ __ __ __ __
 72
    65
 73
     2
 40
0.000330
 49
0.000220
 49
-0.000110
  0
LTYPE
  2
HIDDEN
 70
    64
  3
 _ _ _ _ _ _ _ _ _ _ _ _ _ _ _ _ _ _ _ _ _ _
 72
    65
 73
     2
 40
0.000165
 49
0.000110
 49
-0.000055
  0
LTYPE
  2
CENTER
 70
    64
  3
____ _ ____ _ ____ _ ____ _ ____ _ ____ _ ____
 72
    65
 73
     4
 40
0.000880
 49
0.000550
 49
-0.000110
 49
0.000110
 49
-0.000110
  0
LTYPE
  2
PHANTOM
 70
    64
  3
_____ _ _ _____ _ _ _____ _ _ _____ _ _ ____
 72
    65
 73
     6
 40
0.001100
 49
0.000550
 49
-0.000110
 49
0.000110
 49
-0.000110
 49
0.000110
 49
-0.000110
  0
LTYPE
  2
DOT
 70
    64
  3
...............................................
 72
    65
 73
     2
 40
0.000110
 49
0.000000
 49
-0.000110
  0
LTYPE
  2
DASHDOT
 70
    64
  3
__ . __ . __ . __ . __ . __ . __ . __ . __ . __
 72
    65
 73
     4
 40
0.000440
 49
0.000220
 49
-0.000110
 49
0.000000
 49
-0.000110
  0
LTYPE
  2
BORDER
 70
    64
  3
__ __ . __ __ . __ __ . __ __ . __ __ . __ __
 72
    65
 73
     6
 40
0.000770
 49
0.000220
 49
-0.000110
 49
0.000220
 49
-0.000110
 49
0.000000
 49
-0.000110
  0
LTYPE
  2
DIVIDE
 70
    64
  3
__ . . __ . . __ . . __ . . __ . . __ . . __
 72
    65
 73
     6
 40
0.000550
 49
0.000220
 49
-0.000110
 49
0.000000
 49
-0.000110
 49
0.000000
 49
-0.000110
  0
LTYPE
  2
DOTDOT
 70
    64
  3
 . .  . .  . .  . .  . .  . . 
 72
    65
 73
     5
 40
0.000242
 49
-0.000110
 49
0.000000
 49
-0.000110
 49
0.000000
 49
-0.000110
  0
ENDTAB
  0
TABLE
  2
STYLE
 70
     2
  0
STYLE
 70
     0
  2
SN0
 40
0.000000
 41
0.000440
 50
0.000000
 71
     0
 42
0.000000
  3
ROMAND
  0
STYLE
 70
    68
  2
SV0
 40
0.000000
 41
0.000440
 50
0.000000
 71
     0
 42
0.000000
  3
ROMAND
  0
ENDTAB
  0
TABLE
  2
LAYER
 70
     3
  0
LAYER
  2
FOREGROUND
 70
    64
 62
     7
  6
CONTINUOUS
  0
LAYER
  2
BACKGROUND
 70
    65
 62
    -7
  6
CONTINUOUS
  0
LAYER
  2
0
 70
    64
 62
     7
  6
CONTINUOUS
  0
ENDTAB
  0
ENDSEC
  0
SECTION
  2
ENTITIES
  0
POLYLINE
  8
FOREGROUND
  6
CONTINUOUS
 66
     1
 40
0.000000
 41
0.000000
  0
VERTEX
  8
FOREGROUND
  6
CONTINUOUS
 10
0.000000
 20
6.140200
  0
VERTEX
  8
FOREGROUND
  6
CONTINUOUS
 10
8.499920
 20
6.140200
  0
VERTEX
  8
FOREGROUND
  6
CONTINUOUS
 10
8.499920
 20
-4.859800
  0
VERTEX
  8
FOREGROUND
  6
CONTINUOUS
 10
0.000000
 20
-4.859800
  0
VERTEX
  8
FOREGROUND
  6
CONTINUOUS
 10
0.000000
 20
6.140200
  0
SEQEND
  8
0
  0
POLYLINE
  8
FOREGROUND
  6
CONTINUOUS
 66
     1
 40
0.000000
 41
0.000000
  0
VERTEX
  8
FOREGROUND
  6
CONTINUOUS
 10
0.000000
 20
6.140200
  0
VERTEX
  8
FOREGROUND
  6
CONTINUOUS
 10
8.499920
 20
6.140200
  0
VERTEX
  8
FOREGROUND
  6
CONTINUOUS
 10
8.499920
 20
-4.859800
  0
VERTEX
  8
FOREGROUND
  6
CONTINUOUS
 10
0.000000
 20
-4.859800
  0
VERTEX
  8
FOREGROUND
  6
CONTINUOUS
 10
0.000000
 20
6.140200
  0
SEQEND
  8
0
  0
SOLID
  8
0
 62
    15
 10
3.402960
 20
2.492160
 11
4.028200
 21
2.849000
 12
3.402960
 22
2.372480
 13
4.028200
 23
2.729320
  0
POLYLINE
  8
0
  6
CONTINUOUS
 66
     1
 40
0.000000
 41
0.000000
  0
VERTEX
  8
0
  6
CONTINUOUS
 10
3.402960
 20
2.492160
  0
VERTEX
  8
0
  6
CONTINUOUS
 10
4.028200
 20
2.849000
  0
VERTEX
  8
0
  6
CONTINUOUS
 10
4.028200
 20
2.729320
  0
VERTEX
  8
0
  6
CONTINUOUS
 10
3.402960
 20
2.372480
  0
VERTEX
  8
0
  6
CONTINUOUS
 10
3.402960
 20
2.492160
  0
SEQEND
  8
0
  0
SOLID
  8
0
 62
    15
 10
3.402960
 20
2.372480
 11
4.028200
 21
2.729320
 12
3.647160
 22
2.372480
 13
4.272840
 23
2.729320
  0
POLYLINE
  8
0
  6
CONTINUOUS
 66
     1
 40
0.000000
 41
0.000000
  0
VERTEX
  8
0
  6
CONTINUOUS
 10
3.402960
 20
2.372480
  0
VERTEX
  8
0
  6
CONTINUOUS
 10
4.028200
 20
2.729320
  0
VERTEX
  8
0
  6
CONTINUOUS
 10
4.272840
 20
2.729320
  0
VERTEX
  8
0
  6
CONTINUOUS
 10
3.647160
 20
2.372480
  0
VERTEX
  8
0
  6
CONTINUOUS
 10
3.402960
 20
2.372480
  0
SEQEND
  8
0
  0
SOLID
  8
0
 62
    15
 10
3.319360
 20
2.122560
 11
3.945040
 21
2.479840
 12
3.319360
 22
1.123760
 13
3.945040
 23
1.480600
  0
POLYLINE
  8
0
  6
CONTINUOUS
 66
     1
 40
0.000000
 41
0.000000
  0
VERTEX
  8
0
  6
CONTINUOUS
 10
3.319360
 20
2.122560
  0
VERTEX
  8
0
  6
CONTINUOUS
 10
3.945040
 20
2.479840
  0
VERTEX
  8
0
  6
CONTINUOUS
 10
3.945040
 20
1.480600
  0
VERTEX
  8
0
  6
CONTINUOUS
 10
3.319360
 20
1.123760
  0
VERTEX
  8
0
  6
CONTINUOUS
 10
3.319360
 20
2.122560
  0
SEQEND
  8
0
  0
SOLID
  8
0
 62
    15
 10
3.647160
 20
2.372480
 11
4.272840
 21
2.729320
 12
3.751440
 22
2.122560
 13
4.377120
 23
2.479840
  0
POLYLINE
  8
0
  6
CONTINUOUS
 66
     1
 40
0.000000
 41
0.000000
  0
VERTEX
  8
0
  6
CONTINUOUS
 10
3.647160
 20
2.372480
  0
VERTEX
  8
0
  6
CONTINUOUS
 10
4.272840
 20
2.729320
  0
VERTEX
  8
0
  6
CONTINUOUS
 10
4.377120
 20
2.479840
  0
VERTEX
  8
0
  6
CONTINUOUS
 10
3.751440
 20
2.122560
  0
VERTEX
  8
0
  6
CONTINUOUS
 10
3.647160
 20
2.372480
  0
SEQEND
  8
0
  0
SOLID
  8
0
 62
    15
 10
3.319360
 20
1.123760
 11
3.945040
 21
1.480600
 12
3.751440
 22
1.123760
 13
4.377120
 23
1.480600
  0
POLYLINE
  8
0
  6
CONTINUOUS
 66
     1
 40
0.000000
 41
0.000000
  0
VERTEX
  8
0
  6
CONTINUOUS
 10
3.319360
 20
1.123760
  0
VERTEX
  8
0
  6
CONTINUOUS
 10
3.945040
 20
1.480600
  0
VERTEX
  8
0
  6
CONTINUOUS
 10
4.377120
 20
1.480600
  0
VERTEX
  8
0
  6
CONTINUOUS
 10
3.751440
 20
1.123760
  0
VERTEX
  8
0
  6
CONTINUOUS
 10
3.319360
 20
1.123760
  0
SEQEND
  8
0
  0
SOLID
  8
0
 62
    15
 10
3.751440
 20
1.123760
 11
4.377120
 21
1.480600
 12
3.751440
 22
0.743600
 13
4.377120
 23
1.100880
  0
POLYLINE
  8
0
  6
CONTINUOUS
 66
     1
 40
0.000000
 41
0.000000
  0
VERTEX
  8
0
  6
CONTINUOUS
 10
3.751440
 20
1.123760
  0
VERTEX
  8
0
  6
CONTINUOUS
 10
4.377120
 20
1.480600
  0
VERTEX
  8
0
  6
CONTINUOUS
 10
4.377120
 20
1.100880
  0
VERTEX
  8
0
  6
CONTINUOUS
 10
3.751440
 20
0.743600
  0
VERTEX
  8
0
  6
CONTINUOUS
 10
3.751440
 20
1.123760
  0
SEQEND
  8
0
  0
SOLID
  8
0
 62
    15
 10
3.751440
 20
0.743600
 11
4.377120
 21
1.100880
 12
3.751880
 22
0.742720
 13
4.377560
 23
1.100000
  0
POLYLINE
  8
0
  6
CONTINUOUS
 66
     1
 40
0.000000
 41
0.000000
  0
VERTEX
  8
0
  6
CONTINUOUS
 10
3.751440
 20
0.743600
  0
VERTEX
  8
0
  6
CONTINUOUS
 10
4.377120
 20
1.100880
  0
VERTEX
  8
0
  6
CONTINUOUS
 10
4.377560
 20
1.100000
  0
VERTEX
  8
0
  6
CONTINUOUS
 10
3.751880
 20
0.742720
  0
VERTEX
  8
0
  6
CONTINUOUS
 10
3.751440
 20
0.743600
  0
SEQEND
  8
0
  0
SOLID
  8
0
 62
    15
 10
1.633720
 20
2.492160
 11
2.259400
 21
2.849000
 12
3.402960
 22
2.492160
 13
4.028200
 23
2.849000
  0
POLYLINE
  8
0
  6
CONTINUOUS
 66
     1
 40
0.000000
 41
0.000000
  0
VERTEX
  8
0
  6
CONTINUOUS
 10
1.633720
 20
2.492160
  0
VERTEX
  8
0
  6
CONTINUOUS
 10
2.259400
 20
2.849000
  0
VERTEX
  8
0
  6
CONTINUOUS
 10
4.028200
 20
2.849000
  0
VERTEX
  8
0
  6
CONTINUOUS
 10
3.402960
 20
2.492160
  0
VERTEX
  8
0
  6
CONTINUOUS
 10
1.633720
 20
2.492160
  0
SEQEND
  8
0
  0
POLYLINE
  8
0
  6
CONTINUOUS
 66
     1
 40
0.000000
 41
0.000000
  0
VERTEX
  8
0
  6
CONTINUOUS
 10
3.751880
 20
0.742720
  0
VERTEX
  8
0
  6
CONTINUOUS
 10
1.633720
 20
0.742720
  0
VERTEX
  8
0
  6
CONTINUOUS
 10
1.633720
 20
2.492160
  0
VERTEX
  8
0
  6
CONTINUOUS
 10
3.402960
 20
2.492160
  0
VERTEX
  8
0
  6
CONTINUOUS
 10
3.402960
 20
2.372480
  0
VERTEX
  8
0
  6
CONTINUOUS
 10
3.647160
 20
2.372480
  0
VERTEX
  8
0
  6
CONTINUOUS
 10
3.751440
 20
2.122560
  0
VERTEX
  8
0
  6
CONTINUOUS
 10
3.319360
 20
2.122560
  0
VERTEX
  8
0
  6
CONTINUOUS
 10
3.319360
 20
1.123760
  0
VERTEX
  8
0
  6
CONTINUOUS
 10
3.751440
 20
1.123760
  0
VERTEX
  8
0
  6
CONTINUOUS
 10
3.751440
 20
0.743600
  0
VERTEX
  8
0
  6
CONTINUOUS
 10
3.751880
 20
0.742720
  0
SEQEND
  8
0
  0
SOLID
  8
0
 62
    15
 10
4.434760
 20
2.115080
 11
5.076280
 21
2.486440
 12
4.866400
 22
2.115080
 13
5.507920
 23
2.486440
  0
POLYLINE
  8
0
  6
CONTINUOUS
 66
     1
 40
0.000000
 41
0.000000
  0
VERTEX
  8
0
  6
CONTINUOUS
 10
4.434760
 20
2.115080
  0
VERTEX
  8
0
  6
CONTINUOUS
 10
5.076280
 20
2.486440
  0
VERTEX
  8
0
  6
CONTINUOUS
 10
5.507920
 20
2.486440
  0
VERTEX
  8
0
  6
CONTINUOUS
 10
4.866400
 20
2.115080
  0
VERTEX
  8
0
  6
CONTINUOUS
 10
4.434760
 20
2.115080
  0
SEQEND
  8
0
  0
SOLID
  8
0
 62
    15
 10
6.550280
 20
2.484680
 11
7.191800
 21
2.856040
 12
6.550280
 22
0.738760
 13
7.191800
 23
1.110120
  0
POLYLINE
  8
0
  6
CONTINUOUS
 66
     1
 40
0.000000
 41
0.000000
  0
VERTEX
  8
0
  6
CONTINUOUS
 10
6.550280
 20
2.484680
  0
VERTEX
  8
0
  6
CONTINUOUS
 10
7.191800
 20
2.856040
  0
VERTEX
  8
0
  6
CONTINUOUS
 10
7.191800
 20
1.110120
  0
VERTEX
  8
0
  6
CONTINUOUS
 10
6.550280
 20
0.738760
  0
VERTEX
  8
0
  6
CONTINUOUS
 10
6.550280
 20
2.484680
  0
SEQEND
  8
0
  0
SOLID
  8
0
 62
    15
 10
4.866400
 20
0.738760
 11
5.507920
 21
1.110120
 12
4.866400
 22
0.736120
 13
5.507920
 23
1.107480
  0
POLYLINE
  8
0
  6
CONTINUOUS
 66
     1
 40
0.000000
 41
0.000000
  0
VERTEX
  8
0
  6
CONTINUOUS
 10
4.866400
 20
0.738760
  0
VERTEX
  8
0
  6
CONTINUOUS
 10
5.507920
 20
1.110120
  0
VERTEX
  8
0
  6
CONTINUOUS
 10
5.507920
 20
1.107480
  0
VERTEX
  8
0
  6
CONTINUOUS
 10
4.866400
 20
0.736120
  0
VERTEX
  8
0
  6
CONTINUOUS
 10
4.866400
 20
0.738760
  0
SEQEND
  8
0
  0
SOLID
  8
0
 62
    15
 10
4.517920
 20
2.484680
 11
5.159440
 21
2.856040
 12
6.550280
 22
2.484680
 13
7.191800
 23
2.856040
  0
POLYLINE
  8
0
  6
CONTINUOUS
 66
     1
 40
0.000000
 41
0.000000
  0
VERTEX
  8
0
  6
CONTINUOUS
 10
4.517920
 20
2.484680
  0
VERTEX
  8
0
  6
CONTINUOUS
 10
5.159440
 20
2.856040
  0
VERTEX
  8
0
  6
CONTINUOUS
 10
7.191800
 20
2.856040
  0
VERTEX
  8
0
  6
CONTINUOUS
 10
6.550280
 20
2.484680
  0
VERTEX
  8
0
  6
CONTINUOUS
 10
4.517920
 20
2.484680
  0
SEQEND
  8
0
  0
POLYLINE
  8
0
  6
CONTINUOUS
 66
     1
 40
0.000000
 41
0.000000
  0
VERTEX
  8
0
  6
CONTINUOUS
 10
4.866400
 20
0.736120
  0
VERTEX
  8
0
  6
CONTINUOUS
 10
4.866400
 20
1.115840
  0
VERTEX
  8
0
  6
CONTINUOUS
 10
4.434760
 20
1.115840
  0
VERTEX
  8
0
  6
CONTINUOUS
 10
4.434760
 20
2.115080
  0
VERTEX
  8
0
  6
CONTINUOUS
 10
4.866400
 20
2.115080
  0
VERTEX
  8
0
  6
CONTINUOUS
 10
4.762560
 20
2.365000
  0
VERTEX
  8
0
  6
CONTINUOUS
 10
4.517920
 20
2.365000
  0
VERTEX
  8
0
  6
CONTINUOUS
 10
4.517920
 20
2.484680
  0
VERTEX
  8
0
  6
CONTINUOUS
 10
6.550280
 20
2.484680
  0
VERTEX
  8
0
  6
CONTINUOUS
 10
6.550280
 20
0.738760
  0
VERTEX
  8
0
  6
CONTINUOUS
 10
4.866400
 20
0.738760
  0
VERTEX
  8
0
  6
CONTINUOUS
 10
4.866400
 20
0.736120
  0
SEQEND
  8
0
  0
TEXT
  8
0
 10
3.594360
 20
0.453640
 40
0.138099
  1
BA  1065 A & B 1-3/4"
 41
1.000000
  7
SN0
 71
     0
 72
     5
 11
5.230084
 21
0.453640
  0
POLYLINE
  8
0
  6
CONTINUOUS
 66
     1
 40
0.014080
 41
0.014080
  0
VERTEX
  8
0
  6
CONTINUOUS
 10
4.323000
 20
3.966600
  0
VERTEX
  8
0
  6
CONTINUOUS
 10
2.204840
 20
3.966600
  0
VERTEX
  8
0
  6
CONTINUOUS
 10
2.204840
 20
5.716040
  0
VERTEX
  8
0
  6
CONTINUOUS
 10
3.973640
 20
5.716040
  0
VERTEX
  8
0
  6
CONTINUOUS
 10
3.973640
 20
5.596360
  0
VERTEX
  8
0
  6
CONTINUOUS
 10
4.218280
 20
5.596360
  0
VERTEX
  8
0
  6
CONTINUOUS
 10
4.322560
 20
5.346440
  0
VERTEX
  8
0
  6
CONTINUOUS
 10
3.890480
 20
5.346440
  0
VERTEX
  8
0
  6
CONTINUOUS
 10
3.890480
 20
4.347640
  0
VERTEX
  8
0
  6
CONTINUOUS
 10
4.322560
 20
4.347640
  0
VERTEX
  8
0
  6
CONTINUOUS
 10
4.322560
 20
3.967480
  0
VERTEX
  8
0
  6
CONTINUOUS
 10
4.323000
 20
3.966600
  0
SEQEND
  8
0
  0
POLYLINE
  8
0
  6
CONTINUOUS
 66
     1
 40
0.014080
 41
0.014080
  0
VERTEX
  8
0
  6
CONTINUOUS
 10
4.936800
 20
3.974520
  0
VERTEX
  8
0
  6
CONTINUOUS
 10
6.620680
 20
3.974520
  0
VERTEX
  8
0
  6
CONTINUOUS
 10
6.620680
 20
5.720440
  0
VERTEX
  8
0
  6
CONTINUOUS
 10
4.588320
 20
5.720440
  0
VERTEX
  8
0
  6
CONTINUOUS
 10
4.588320
 20
5.600760
  0
VERTEX
  8
0
  6
CONTINUOUS
 10
4.832960
 20
5.600760
  0
VERTEX
  8
0
  6
CONTINUOUS
 10
4.936800
 20
5.350840
  0
VERTEX
  8
0
  6
CONTINUOUS
 10
4.505160
 20
5.350840
  0
VERTEX
  8
0
  6
CONTINUOUS
 10
4.505160
 20
4.351600
  0
VERTEX
  8
0
  6
CONTINUOUS
 10
4.936800
 20
4.351600
  0
VERTEX
  8
0
  6
CONTINUOUS
 10
4.936800
 20
3.971880
  0
VERTEX
  8
0
  6
CONTINUOUS
 10
4.936800
 20
3.974520
  0
SEQEND
  8
0
  0
TEXT
  8
0
 10
2.406800
 20
4.101240
 40
0.138099
  1
BA  1065 A & B 1-3/4"
 41
1.000000
  7
SN0
 71
     0
 72
     5
 11
4.042524
 21
4.101240
  0
ENDSEC
  0
EOF
