  0
SECTION
  2
HEADER
  9
$ACADVER
  1
AC1006
  9
$EXTMIN
 10
1.510960
 20
1.063040
  9
$EXTMAX
 10
7.382760
 20
5.803600
  9
$LTSCALE
 40
0.044000
  9
$PDMODE
 70
    35
  9
$PDSIZE
 40
0.035200
  0
ENDSEC
  0
SECTION
  2
TABLES
  0
TABLE
  2
LTYPE
 70
     9
  0
LTYPE
  2
CONTINUOUS
 70
    64
  3
Solid line
 72
    65
 73
     0
 40
0.000000
  0
LTYPE
  2
DASHED
 70
    64
  3
__ __ __ __ __ __ __ __ __ __ __ __ __ __ __
 72
    65
 73
     2
 40
0.000330
 49
0.000220
 49
-0.000110
  0
LTYPE
  2
HIDDEN
 70
    64
  3
 _ _ _ _ _ _ _ _ _ _ _ _ _ _ _ _ _ _ _ _ _ _
 72
    65
 73
     2
 40
0.000165
 49
0.000110
 49
-0.000055
  0
LTYPE
  2
CENTER
 70
    64
  3
____ _ ____ _ ____ _ ____ _ ____ _ ____ _ ____
 72
    65
 73
     4
 40
0.000880
 49
0.000550
 49
-0.000110
 49
0.000110
 49
-0.000110
  0
LTYPE
  2
PHANTOM
 70
    64
  3
_____ _ _ _____ _ _ _____ _ _ _____ _ _ ____
 72
    65
 73
     6
 40
0.001100
 49
0.000550
 49
-0.000110
 49
0.000110
 49
-0.000110
 49
0.000110
 49
-0.000110
  0
LTYPE
  2
DOT
 70
    64
  3
...............................................
 72
    65
 73
     2
 40
0.000110
 49
0.000000
 49
-0.000110
  0
LTYPE
  2
DASHDOT
 70
    64
  3
__ . __ . __ . __ . __ . __ . __ . __ . __ . __
 72
    65
 73
     4
 40
0.000440
 49
0.000220
 49
-0.000110
 49
0.000000
 49
-0.000110
  0
LTYPE
  2
BORDER
 70
    64
  3
__ __ . __ __ . __ __ . __ __ . __ __ . __ __
 72
    65
 73
     6
 40
0.000770
 49
0.000220
 49
-0.000110
 49
0.000220
 49
-0.000110
 49
0.000000
 49
-0.000110
  0
LTYPE
  2
DIVIDE
 70
    64
  3
__ . . __ . . __ . . __ . . __ . . __ . . __
 72
    65
 73
     6
 40
0.000550
 49
0.000220
 49
-0.000110
 49
0.000000
 49
-0.000110
 49
0.000000
 49
-0.000110
  0
LTYPE
  2
DOTDOT
 70
    64
  3
 . .  . .  . .  . .  . .  . . 
 72
    65
 73
     5
 40
0.000242
 49
-0.000110
 49
0.000000
 49
-0.000110
 49
0.000000
 49
-0.000110
  0
ENDTAB
  0
TABLE
  2
STYLE
 70
     2
  0
STYLE
 70
     0
  2
SN0
 40
0.000000
 41
0.000440
 50
0.000000
 71
     0
 42
0.000000
  3
ROMAND
  0
STYLE
 70
    68
  2
SV0
 40
0.000000
 41
0.000440
 50
0.000000
 71
     0
 42
0.000000
  3
ROMAND
  0
ENDTAB
  0
TABLE
  2
LAYER
 70
     3
  0
LAYER
  2
FOREGROUND
 70
    64
 62
     7
  6
CONTINUOUS
  0
LAYER
  2
BACKGROUND
 70
    65
 62
    -7
  6
CONTINUOUS
  0
LAYER
  2
0
 70
    64
 62
     7
  6
CONTINUOUS
  0
ENDTAB
  0
ENDSEC
  0
SECTION
  2
ENTITIES
  0
POLYLINE
  8
FOREGROUND
  6
CONTINUOUS
 66
     1
 40
0.000000
 41
0.000000
  0
VERTEX
  8
FOREGROUND
  6
CONTINUOUS
 10
0.000000
 20
6.866640
  0
VERTEX
  8
FOREGROUND
  6
CONTINUOUS
 10
8.499920
 20
6.866640
  0
VERTEX
  8
FOREGROUND
  6
CONTINUOUS
 10
8.499920
 20
-4.133360
  0
VERTEX
  8
FOREGROUND
  6
CONTINUOUS
 10
0.000000
 20
-4.133360
  0
VERTEX
  8
FOREGROUND
  6
CONTINUOUS
 10
0.000000
 20
6.866640
  0
SEQEND
  8
0
  0
POLYLINE
  8
FOREGROUND
  6
CONTINUOUS
 66
     1
 40
0.000000
 41
0.000000
  0
VERTEX
  8
FOREGROUND
  6
CONTINUOUS
 10
0.000000
 20
6.866640
  0
VERTEX
  8
FOREGROUND
  6
CONTINUOUS
 10
8.499920
 20
6.866640
  0
VERTEX
  8
FOREGROUND
  6
CONTINUOUS
 10
8.499920
 20
-4.133360
  0
VERTEX
  8
FOREGROUND
  6
CONTINUOUS
 10
0.000000
 20
-4.133360
  0
VERTEX
  8
FOREGROUND
  6
CONTINUOUS
 10
0.000000
 20
6.866640
  0
SEQEND
  8
0
  0
SOLID
  8
0
 62
    15
 10
3.260840
 20
3.174160
 11
3.908080
 21
3.555640
 12
3.260840
 22
3.052280
 13
3.908080
 23
3.433760
  0
POLYLINE
  8
0
  6
CONTINUOUS
 66
     1
 40
0.000000
 41
0.000000
  0
VERTEX
  8
0
  6
CONTINUOUS
 10
3.260840
 20
3.174160
  0
VERTEX
  8
0
  6
CONTINUOUS
 10
3.908080
 20
3.555640
  0
VERTEX
  8
0
  6
CONTINUOUS
 10
3.908080
 20
3.433760
  0
VERTEX
  8
0
  6
CONTINUOUS
 10
3.260840
 20
3.052280
  0
VERTEX
  8
0
  6
CONTINUOUS
 10
3.260840
 20
3.174160
  0
SEQEND
  8
0
  0
SOLID
  8
0
 62
    15
 10
3.758480
 20
2.046440
 11
4.405720
 21
2.427920
 12
3.754080
 22
1.981760
 13
4.400880
 23
2.363240
  0
POLYLINE
  8
0
  6
CONTINUOUS
 66
     1
 40
0.000000
 41
0.000000
  0
VERTEX
  8
0
  6
CONTINUOUS
 10
3.758480
 20
2.046440
  0
VERTEX
  8
0
  6
CONTINUOUS
 10
4.405720
 20
2.427920
  0
VERTEX
  8
0
  6
CONTINUOUS
 10
4.400880
 20
2.363240
  0
VERTEX
  8
0
  6
CONTINUOUS
 10
3.754080
 20
1.981760
  0
VERTEX
  8
0
  6
CONTINUOUS
 10
3.758480
 20
2.046440
  0
SEQEND
  8
0
  0
SOLID
  8
0
 62
    15
 10
3.754080
 20
1.981760
 11
4.400880
 21
2.363240
 12
3.735160
 22
1.904320
 13
4.381960
 23
2.285800
  0
POLYLINE
  8
0
  6
CONTINUOUS
 66
     1
 40
0.000000
 41
0.000000
  0
VERTEX
  8
0
  6
CONTINUOUS
 10
3.754080
 20
1.981760
  0
VERTEX
  8
0
  6
CONTINUOUS
 10
4.400880
 20
2.363240
  0
VERTEX
  8
0
  6
CONTINUOUS
 10
4.381960
 20
2.285800
  0
VERTEX
  8
0
  6
CONTINUOUS
 10
3.735160
 20
1.904320
  0
VERTEX
  8
0
  6
CONTINUOUS
 10
3.754080
 20
1.981760
  0
SEQEND
  8
0
  0
SOLID
  8
0
 62
    15
 10
3.735160
 20
1.904320
 11
4.381960
 21
2.285800
 12
3.701280
 22
1.820280
 13
4.348080
 23
2.201760
  0
POLYLINE
  8
0
  6
CONTINUOUS
 66
     1
 40
0.000000
 41
0.000000
  0
VERTEX
  8
0
  6
CONTINUOUS
 10
3.735160
 20
1.904320
  0
VERTEX
  8
0
  6
CONTINUOUS
 10
4.381960
 20
2.285800
  0
VERTEX
  8
0
  6
CONTINUOUS
 10
4.348080
 20
2.201760
  0
VERTEX
  8
0
  6
CONTINUOUS
 10
3.701280
 20
1.820280
  0
VERTEX
  8
0
  6
CONTINUOUS
 10
3.735160
 20
1.904320
  0
SEQEND
  8
0
  0
SOLID
  8
0
 62
    15
 10
3.260840
 20
1.537800
 11
3.907640
 21
1.919280
 12
3.260840
 22
1.415920
 13
3.907640
 23
1.797400
  0
POLYLINE
  8
0
  6
CONTINUOUS
 66
     1
 40
0.000000
 41
0.000000
  0
VERTEX
  8
0
  6
CONTINUOUS
 10
3.260840
 20
1.537800
  0
VERTEX
  8
0
  6
CONTINUOUS
 10
3.907640
 20
1.919280
  0
VERTEX
  8
0
  6
CONTINUOUS
 10
3.907640
 20
1.797400
  0
VERTEX
  8
0
  6
CONTINUOUS
 10
3.260840
 20
1.415920
  0
VERTEX
  8
0
  6
CONTINUOUS
 10
3.260840
 20
1.537800
  0
SEQEND
  8
0
  0
SOLID
  8
0
 62
    15
 10
3.582480
 20
1.659680
 11
4.229720
 21
2.041160
 12
3.495800
 22
1.596320
 13
4.142600
 23
1.977800
  0
POLYLINE
  8
0
  6
CONTINUOUS
 66
     1
 40
0.000000
 41
0.000000
  0
VERTEX
  8
0
  6
CONTINUOUS
 10
3.582480
 20
1.659680
  0
VERTEX
  8
0
  6
CONTINUOUS
 10
4.229720
 20
2.041160
  0
VERTEX
  8
0
  6
CONTINUOUS
 10
4.142600
 20
1.977800
  0
VERTEX
  8
0
  6
CONTINUOUS
 10
3.495800
 20
1.596320
  0
VERTEX
  8
0
  6
CONTINUOUS
 10
3.582480
 20
1.659680
  0
SEQEND
  8
0
  0
SOLID
  8
0
 62
    15
 10
3.650680
 20
1.736680
 11
4.297920
 21
2.117720
 12
3.582480
 22
1.659680
 13
4.229720
 23
2.041160
  0
POLYLINE
  8
0
  6
CONTINUOUS
 66
     1
 40
0.000000
 41
0.000000
  0
VERTEX
  8
0
  6
CONTINUOUS
 10
3.650680
 20
1.736680
  0
VERTEX
  8
0
  6
CONTINUOUS
 10
4.297920
 20
2.117720
  0
VERTEX
  8
0
  6
CONTINUOUS
 10
4.229720
 20
2.041160
  0
VERTEX
  8
0
  6
CONTINUOUS
 10
3.582480
 20
1.659680
  0
VERTEX
  8
0
  6
CONTINUOUS
 10
3.650680
 20
1.736680
  0
SEQEND
  8
0
  0
SOLID
  8
0
 62
    15
 10
3.701280
 20
1.820280
 11
4.348080
 21
2.201760
 12
3.650680
 22
1.736680
 13
4.297920
 23
2.117720
  0
POLYLINE
  8
0
  6
CONTINUOUS
 66
     1
 40
0.000000
 41
0.000000
  0
VERTEX
  8
0
  6
CONTINUOUS
 10
3.701280
 20
1.820280
  0
VERTEX
  8
0
  6
CONTINUOUS
 10
4.348080
 20
2.201760
  0
VERTEX
  8
0
  6
CONTINUOUS
 10
4.297920
 20
2.117720
  0
VERTEX
  8
0
  6
CONTINUOUS
 10
3.650680
 20
1.736680
  0
VERTEX
  8
0
  6
CONTINUOUS
 10
3.701280
 20
1.820280
  0
SEQEND
  8
0
  0
SOLID
  8
0
 62
    15
 10
3.260840
 20
1.415920
 11
3.907640
 21
1.797400
 12
3.259080
 22
1.413720
 13
3.905880
 23
1.794760
  0
POLYLINE
  8
0
  6
CONTINUOUS
 66
     1
 40
0.000000
 41
0.000000
  0
VERTEX
  8
0
  6
CONTINUOUS
 10
3.260840
 20
1.415920
  0
VERTEX
  8
0
  6
CONTINUOUS
 10
3.907640
 20
1.797400
  0
VERTEX
  8
0
  6
CONTINUOUS
 10
3.905880
 20
1.794760
  0
VERTEX
  8
0
  6
CONTINUOUS
 10
3.259080
 20
1.413720
  0
VERTEX
  8
0
  6
CONTINUOUS
 10
3.260840
 20
1.415920
  0
SEQEND
  8
0
  0
SOLID
  8
0
 62
    15
 10
1.511840
 20
3.174160
 11
2.158640
 21
3.555640
 12
3.260840
 22
3.174160
 13
3.908080
 23
3.555640
  0
POLYLINE
  8
0
  6
CONTINUOUS
 66
     1
 40
0.000000
 41
0.000000
  0
VERTEX
  8
0
  6
CONTINUOUS
 10
1.511840
 20
3.174160
  0
VERTEX
  8
0
  6
CONTINUOUS
 10
2.158640
 20
3.555640
  0
VERTEX
  8
0
  6
CONTINUOUS
 10
3.908080
 20
3.555640
  0
VERTEX
  8
0
  6
CONTINUOUS
 10
3.260840
 20
3.174160
  0
VERTEX
  8
0
  6
CONTINUOUS
 10
1.511840
 20
3.174160
  0
SEQEND
  8
0
  0
SOLID
  8
0
 62
    15
 10
3.260840
 20
2.046440
 11
3.907640
 21
2.427920
 12
3.758480
 22
2.046440
 13
4.405720
 23
2.427920
  0
POLYLINE
  8
0
  6
CONTINUOUS
 66
     1
 40
0.000000
 41
0.000000
  0
VERTEX
  8
0
  6
CONTINUOUS
 10
3.260840
 20
2.046440
  0
VERTEX
  8
0
  6
CONTINUOUS
 10
3.907640
 20
2.427920
  0
VERTEX
  8
0
  6
CONTINUOUS
 10
4.405720
 20
2.427920
  0
VERTEX
  8
0
  6
CONTINUOUS
 10
3.758480
 20
2.046440
  0
VERTEX
  8
0
  6
CONTINUOUS
 10
3.260840
 20
2.046440
  0
SEQEND
  8
0
  0
SOLID
  8
0
 62
    15
 10
3.260840
 20
3.052280
 11
3.908080
 21
3.433760
 12
3.327720
 22
3.048320
 13
3.974520
 23
3.429800
  0
POLYLINE
  8
0
  6
CONTINUOUS
 66
     1
 40
0.000000
 41
0.000000
  0
VERTEX
  8
0
  6
CONTINUOUS
 10
3.260840
 20
3.052280
  0
VERTEX
  8
0
  6
CONTINUOUS
 10
3.908080
 20
3.433760
  0
VERTEX
  8
0
  6
CONTINUOUS
 10
3.974520
 20
3.429800
  0
VERTEX
  8
0
  6
CONTINUOUS
 10
3.327720
 20
3.048320
  0
VERTEX
  8
0
  6
CONTINUOUS
 10
3.260840
 20
3.052280
  0
SEQEND
  8
0
  0
SOLID
  8
0
 62
    15
 10
3.327720
 20
3.048320
 11
3.974520
 21
3.429800
 12
3.388880
 22
3.036440
 13
4.036120
 23
3.417920
  0
POLYLINE
  8
0
  6
CONTINUOUS
 66
     1
 40
0.000000
 41
0.000000
  0
VERTEX
  8
0
  6
CONTINUOUS
 10
3.327720
 20
3.048320
  0
VERTEX
  8
0
  6
CONTINUOUS
 10
3.974520
 20
3.429800
  0
VERTEX
  8
0
  6
CONTINUOUS
 10
4.036120
 20
3.417920
  0
VERTEX
  8
0
  6
CONTINUOUS
 10
3.388880
 20
3.036440
  0
VERTEX
  8
0
  6
CONTINUOUS
 10
3.327720
 20
3.048320
  0
SEQEND
  8
0
  0
SOLID
  8
0
 62
    15
 10
3.388880
 20
3.036440
 11
4.036120
 21
3.417920
 12
3.495800
 22
2.993760
 13
4.143040
 23
3.375240
  0
POLYLINE
  8
0
  6
CONTINUOUS
 66
     1
 40
0.000000
 41
0.000000
  0
VERTEX
  8
0
  6
CONTINUOUS
 10
3.388880
 20
3.036440
  0
VERTEX
  8
0
  6
CONTINUOUS
 10
4.036120
 20
3.417920
  0
VERTEX
  8
0
  6
CONTINUOUS
 10
4.143040
 20
3.375240
  0
VERTEX
  8
0
  6
CONTINUOUS
 10
3.495800
 20
2.993760
  0
VERTEX
  8
0
  6
CONTINUOUS
 10
3.388880
 20
3.036440
  0
SEQEND
  8
0
  0
SOLID
  8
0
 62
    15
 10
3.495800
 20
2.993760
 11
4.143040
 21
3.375240
 12
3.582920
 22
2.930840
 13
4.229720
 23
3.311880
  0
POLYLINE
  8
0
  6
CONTINUOUS
 66
     1
 40
0.000000
 41
0.000000
  0
VERTEX
  8
0
  6
CONTINUOUS
 10
3.495800
 20
2.993760
  0
VERTEX
  8
0
  6
CONTINUOUS
 10
4.143040
 20
3.375240
  0
VERTEX
  8
0
  6
CONTINUOUS
 10
4.229720
 20
3.311880
  0
VERTEX
  8
0
  6
CONTINUOUS
 10
3.582920
 20
2.930840
  0
VERTEX
  8
0
  6
CONTINUOUS
 10
3.495800
 20
2.993760
  0
SEQEND
  8
0
  0
SOLID
  8
0
 62
    15
 10
3.582920
 20
2.930840
 11
4.229720
 21
3.311880
 12
3.651120
 22
2.853840
 13
4.297920
 23
3.235320
  0
POLYLINE
  8
0
  6
CONTINUOUS
 66
     1
 40
0.000000
 41
0.000000
  0
VERTEX
  8
0
  6
CONTINUOUS
 10
3.582920
 20
2.930840
  0
VERTEX
  8
0
  6
CONTINUOUS
 10
4.229720
 20
3.311880
  0
VERTEX
  8
0
  6
CONTINUOUS
 10
4.297920
 20
3.235320
  0
VERTEX
  8
0
  6
CONTINUOUS
 10
3.651120
 20
2.853840
  0
VERTEX
  8
0
  6
CONTINUOUS
 10
3.582920
 20
2.930840
  0
SEQEND
  8
0
  0
SOLID
  8
0
 62
    15
 10
3.260840
 20
2.544080
 11
3.908080
 21
2.925560
 12
3.260840
 22
2.046440
 13
3.908080
 23
2.427920
  0
POLYLINE
  8
0
  6
CONTINUOUS
 66
     1
 40
0.000000
 41
0.000000
  0
VERTEX
  8
0
  6
CONTINUOUS
 10
3.260840
 20
2.544080
  0
VERTEX
  8
0
  6
CONTINUOUS
 10
3.908080
 20
2.925560
  0
VERTEX
  8
0
  6
CONTINUOUS
 10
3.908080
 20
2.427920
  0
VERTEX
  8
0
  6
CONTINUOUS
 10
3.260840
 20
2.046440
  0
VERTEX
  8
0
  6
CONTINUOUS
 10
3.260840
 20
2.544080
  0
SEQEND
  8
0
  0
SOLID
  8
0
 62
    15
 10
3.701280
 20
2.770240
 11
4.348080
 21
3.151280
 12
3.735160
 22
2.686200
 13
4.382400
 23
3.067240
  0
POLYLINE
  8
0
  6
CONTINUOUS
 66
     1
 40
0.000000
 41
0.000000
  0
VERTEX
  8
0
  6
CONTINUOUS
 10
3.701280
 20
2.770240
  0
VERTEX
  8
0
  6
CONTINUOUS
 10
4.348080
 20
3.151280
  0
VERTEX
  8
0
  6
CONTINUOUS
 10
4.382400
 20
3.067240
  0
VERTEX
  8
0
  6
CONTINUOUS
 10
3.735160
 20
2.686200
  0
VERTEX
  8
0
  6
CONTINUOUS
 10
3.701280
 20
2.770240
  0
SEQEND
  8
0
  0
SOLID
  8
0
 62
    15
 10
3.735160
 20
2.686200
 11
4.382400
 21
3.067240
 12
3.754080
 22
2.608320
 13
4.400880
 23
2.989800
  0
POLYLINE
  8
0
  6
CONTINUOUS
 66
     1
 40
0.000000
 41
0.000000
  0
VERTEX
  8
0
  6
CONTINUOUS
 10
3.735160
 20
2.686200
  0
VERTEX
  8
0
  6
CONTINUOUS
 10
4.382400
 20
3.067240
  0
VERTEX
  8
0
  6
CONTINUOUS
 10
4.400880
 20
2.989800
  0
VERTEX
  8
0
  6
CONTINUOUS
 10
3.754080
 20
2.608320
  0
VERTEX
  8
0
  6
CONTINUOUS
 10
3.735160
 20
2.686200
  0
SEQEND
  8
0
  0
SOLID
  8
0
 62
    15
 10
3.754080
 20
2.608320
 11
4.400880
 21
2.989800
 12
3.758920
 22
2.544080
 13
4.405720
 23
2.925560
  0
POLYLINE
  8
0
  6
CONTINUOUS
 66
     1
 40
0.000000
 41
0.000000
  0
VERTEX
  8
0
  6
CONTINUOUS
 10
3.754080
 20
2.608320
  0
VERTEX
  8
0
  6
CONTINUOUS
 10
4.400880
 20
2.989800
  0
VERTEX
  8
0
  6
CONTINUOUS
 10
4.405720
 20
2.925560
  0
VERTEX
  8
0
  6
CONTINUOUS
 10
3.758920
 20
2.544080
  0
VERTEX
  8
0
  6
CONTINUOUS
 10
3.754080
 20
2.608320
  0
SEQEND
  8
0
  0
SOLID
  8
0
 62
    15
 10
3.651120
 20
2.853840
 11
4.297920
 21
3.235320
 12
3.701280
 22
2.770240
 13
4.348080
 23
3.151280
  0
POLYLINE
  8
0
  6
CONTINUOUS
 66
     1
 40
0.000000
 41
0.000000
  0
VERTEX
  8
0
  6
CONTINUOUS
 10
3.651120
 20
2.853840
  0
VERTEX
  8
0
  6
CONTINUOUS
 10
4.297920
 20
3.235320
  0
VERTEX
  8
0
  6
CONTINUOUS
 10
4.348080
 20
3.151280
  0
VERTEX
  8
0
  6
CONTINUOUS
 10
3.701280
 20
2.770240
  0
VERTEX
  8
0
  6
CONTINUOUS
 10
3.651120
 20
2.853840
  0
SEQEND
  8
0
  0
POLYLINE
  8
0
  6
CONTINUOUS
 66
     1
 40
0.000000
 41
0.000000
  0
VERTEX
  8
0
  6
CONTINUOUS
 10
3.260840
 20
2.046440
  0
VERTEX
  8
0
  6
CONTINUOUS
 10
3.758480
 20
2.046440
  0
VERTEX
  8
0
  6
CONTINUOUS
 10
3.754080
 20
1.981760
  0
VERTEX
  8
0
  6
CONTINUOUS
 10
3.735160
 20
1.904320
  0
VERTEX
  8
0
  6
CONTINUOUS
 10
3.701280
 20
1.820280
  0
VERTEX
  8
0
  6
CONTINUOUS
 10
3.650680
 20
1.736680
  0
VERTEX
  8
0
  6
CONTINUOUS
 10
3.582480
 20
1.659680
  0
VERTEX
  8
0
  6
CONTINUOUS
 10
3.495800
 20
1.596320
  0
VERTEX
  8
0
  6
CONTINUOUS
 10
3.388880
 20
1.553640
  0
VERTEX
  8
0
  6
CONTINUOUS
 10
3.327720
 20
1.542200
  0
VERTEX
  8
0
  6
CONTINUOUS
 10
3.260840
 20
1.537800
  0
VERTEX
  8
0
  6
CONTINUOUS
 10
3.260840
 20
1.415920
  0
VERTEX
  8
0
  6
CONTINUOUS
 10
3.259080
 20
1.413720
  0
VERTEX
  8
0
  6
CONTINUOUS
 10
1.511840
 20
1.413720
  0
VERTEX
  8
0
  6
CONTINUOUS
 10
1.511840
 20
3.174160
  0
VERTEX
  8
0
  6
CONTINUOUS
 10
3.260840
 20
3.174160
  0
VERTEX
  8
0
  6
CONTINUOUS
 10
3.260840
 20
3.052280
  0
VERTEX
  8
0
  6
CONTINUOUS
 10
3.327720
 20
3.048320
  0
VERTEX
  8
0
  6
CONTINUOUS
 10
3.388880
 20
3.036440
  0
VERTEX
  8
0
  6
CONTINUOUS
 10
3.495800
 20
2.993760
  0
VERTEX
  8
0
  6
CONTINUOUS
 10
3.582920
 20
2.930840
  0
VERTEX
  8
0
  6
CONTINUOUS
 10
3.651120
 20
2.853840
  0
VERTEX
  8
0
  6
CONTINUOUS
 10
3.701280
 20
2.770240
  0
VERTEX
  8
0
  6
CONTINUOUS
 10
3.735160
 20
2.686200
  0
VERTEX
  8
0
  6
CONTINUOUS
 10
3.754080
 20
2.608320
  0
VERTEX
  8
0
  6
CONTINUOUS
 10
3.758920
 20
2.544080
  0
VERTEX
  8
0
  6
CONTINUOUS
 10
3.260840
 20
2.544080
  0
VERTEX
  8
0
  6
CONTINUOUS
 10
3.260840
 20
2.046440
  0
SEQEND
  8
0
  0
SOLID
  8
0
 62
    15
 10
4.559280
 20
1.553200
 11
5.206080
 21
1.923680
 12
4.620440
 22
1.564640
 13
5.267240
 23
1.935120
  0
POLYLINE
  8
0
  6
CONTINUOUS
 66
     1
 40
0.000000
 41
0.000000
  0
VERTEX
  8
0
  6
CONTINUOUS
 10
4.559280
 20
1.553200
  0
VERTEX
  8
0
  6
CONTINUOUS
 10
5.206080
 20
1.923680
  0
VERTEX
  8
0
  6
CONTINUOUS
 10
5.267240
 20
1.935120
  0
VERTEX
  8
0
  6
CONTINUOUS
 10
4.620440
 20
1.564640
  0
VERTEX
  8
0
  6
CONTINUOUS
 10
4.559280
 20
1.553200
  0
SEQEND
  8
0
  0
SOLID
  8
0
 62
    15
 10
4.620440
 20
1.564640
 11
5.267240
 21
1.935120
 12
4.727360
 22
1.607760
 13
5.374160
 23
1.978240
  0
POLYLINE
  8
0
  6
CONTINUOUS
 66
     1
 40
0.000000
 41
0.000000
  0
VERTEX
  8
0
  6
CONTINUOUS
 10
4.620440
 20
1.564640
  0
VERTEX
  8
0
  6
CONTINUOUS
 10
5.267240
 20
1.935120
  0
VERTEX
  8
0
  6
CONTINUOUS
 10
5.374160
 20
1.978240
  0
VERTEX
  8
0
  6
CONTINUOUS
 10
4.727360
 20
1.607760
  0
VERTEX
  8
0
  6
CONTINUOUS
 10
4.620440
 20
1.564640
  0
SEQEND
  8
0
  0
SOLID
  8
0
 62
    15
 10
4.492400
 20
2.555080
 11
5.139200
 21
2.925560
 12
4.990040
 22
2.555080
 13
5.637280
 23
2.925560
  0
POLYLINE
  8
0
  6
CONTINUOUS
 66
     1
 40
0.000000
 41
0.000000
  0
VERTEX
  8
0
  6
CONTINUOUS
 10
4.492400
 20
2.555080
  0
VERTEX
  8
0
  6
CONTINUOUS
 10
5.139200
 20
2.925560
  0
VERTEX
  8
0
  6
CONTINUOUS
 10
5.637280
 20
2.925560
  0
VERTEX
  8
0
  6
CONTINUOUS
 10
4.990040
 20
2.555080
  0
VERTEX
  8
0
  6
CONTINUOUS
 10
4.492400
 20
2.555080
  0
SEQEND
  8
0
  0
SOLID
  8
0
 62
    15
 10
4.492400
 20
3.185160
 11
5.139200
 21
3.555640
 12
6.735960
 22
3.185160
 13
7.382760
 23
3.555640
  0
POLYLINE
  8
0
  6
CONTINUOUS
 66
     1
 40
0.000000
 41
0.000000
  0
VERTEX
  8
0
  6
CONTINUOUS
 10
4.492400
 20
3.185160
  0
VERTEX
  8
0
  6
CONTINUOUS
 10
5.139200
 20
3.555640
  0
VERTEX
  8
0
  6
CONTINUOUS
 10
7.382760
 20
3.555640
  0
VERTEX
  8
0
  6
CONTINUOUS
 10
6.735960
 20
3.185160
  0
VERTEX
  8
0
  6
CONTINUOUS
 10
4.492400
 20
3.185160
  0
SEQEND
  8
0
  0
SOLID
  8
0
 62
    15
 10
6.735960
 20
3.185160
 11
7.382760
 21
3.555640
 12
6.735960
 22
1.424280
 13
7.382760
 23
1.795200
  0
POLYLINE
  8
0
  6
CONTINUOUS
 66
     1
 40
0.000000
 41
0.000000
  0
VERTEX
  8
0
  6
CONTINUOUS
 10
6.735960
 20
3.185160
  0
VERTEX
  8
0
  6
CONTINUOUS
 10
7.382760
 20
3.555640
  0
VERTEX
  8
0
  6
CONTINUOUS
 10
7.382760
 20
1.795200
  0
VERTEX
  8
0
  6
CONTINUOUS
 10
6.735960
 20
1.424280
  0
VERTEX
  8
0
  6
CONTINUOUS
 10
6.735960
 20
3.185160
  0
SEQEND
  8
0
  0
SOLID
  8
0
 62
    15
 10
4.492400
 20
1.548800
 11
5.139200
 21
1.919280
 12
4.559280
 22
1.553200
 13
5.206080
 23
1.923680
  0
POLYLINE
  8
0
  6
CONTINUOUS
 66
     1
 40
0.000000
 41
0.000000
  0
VERTEX
  8
0
  6
CONTINUOUS
 10
4.492400
 20
1.548800
  0
VERTEX
  8
0
  6
CONTINUOUS
 10
5.139200
 20
1.919280
  0
VERTEX
  8
0
  6
CONTINUOUS
 10
5.206080
 20
1.923680
  0
VERTEX
  8
0
  6
CONTINUOUS
 10
4.559280
 20
1.553200
  0
VERTEX
  8
0
  6
CONTINUOUS
 10
4.492400
 20
1.548800
  0
SEQEND
  8
0
  0
POLYLINE
  8
0
  6
CONTINUOUS
 66
     1
 40
0.000000
 41
0.000000
  0
VERTEX
  8
0
  6
CONTINUOUS
 10
4.490640
 20
1.424720
  0
VERTEX
  8
0
  6
CONTINUOUS
 10
4.492400
 20
1.427360
  0
VERTEX
  8
0
  6
CONTINUOUS
 10
4.492400
 20
1.548800
  0
VERTEX
  8
0
  6
CONTINUOUS
 10
4.559280
 20
1.553200
  0
VERTEX
  8
0
  6
CONTINUOUS
 10
4.620440
 20
1.564640
  0
VERTEX
  8
0
  6
CONTINUOUS
 10
4.727360
 20
1.607760
  0
VERTEX
  8
0
  6
CONTINUOUS
 10
4.814040
 20
1.670680
  0
VERTEX
  8
0
  6
CONTINUOUS
 10
4.882240
 20
1.747680
  0
VERTEX
  8
0
  6
CONTINUOUS
 10
4.932840
 20
1.831280
  0
VERTEX
  8
0
  6
CONTINUOUS
 10
4.966720
 20
1.915320
  0
VERTEX
  8
0
  6
CONTINUOUS
 10
4.985640
 20
1.992760
  0
VERTEX
  8
0
  6
CONTINUOUS
 10
4.990040
 20
2.057440
  0
VERTEX
  8
0
  6
CONTINUOUS
 10
4.492400
 20
2.057440
  0
VERTEX
  8
0
  6
CONTINUOUS
 10
4.492400
 20
2.555080
  0
VERTEX
  8
0
  6
CONTINUOUS
 10
4.990040
 20
2.555080
  0
VERTEX
  8
0
  6
CONTINUOUS
 10
4.985640
 20
2.619320
  0
VERTEX
  8
0
  6
CONTINUOUS
 10
4.966720
 20
2.697200
  0
VERTEX
  8
0
  6
CONTINUOUS
 10
4.932840
 20
2.781240
  0
VERTEX
  8
0
  6
CONTINUOUS
 10
4.882240
 20
2.864840
  0
VERTEX
  8
0
  6
CONTINUOUS
 10
4.814040
 20
2.941840
  0
VERTEX
  8
0
  6
CONTINUOUS
 10
4.727360
 20
3.004760
  0
VERTEX
  8
0
  6
CONTINUOUS
 10
4.620440
 20
3.047880
  0
VERTEX
  8
0
  6
CONTINUOUS
 10
4.559280
 20
3.059320
  0
VERTEX
  8
0
  6
CONTINUOUS
 10
4.492400
 20
3.063280
  0
VERTEX
  8
0
  6
CONTINUOUS
 10
4.492400
 20
3.185160
  0
VERTEX
  8
0
  6
CONTINUOUS
 10
6.735960
 20
3.185160
  0
VERTEX
  8
0
  6
CONTINUOUS
 10
6.735960
 20
1.424280
  0
VERTEX
  8
0
  6
CONTINUOUS
 10
4.497240
 20
1.424280
  0
VERTEX
  8
0
  6
CONTINUOUS
 10
4.490640
 20
1.424720
  0
SEQEND
  8
0
  0
TEXT
  8
0
 10
3.651560
 20
1.105720
 40
0.138066
  1
BA  1064A & B 1-3/4"
 41
1.000000
  7
SN0
 71
     0
 72
     5
 11
5.241056
 21
1.105720
  0
POLYLINE
  8
0
  6
CONTINUOUS
 66
     1
 40
0.014080
 41
0.014080
  0
VERTEX
  8
0
  6
CONTINUOUS
 10
3.909400
 20
4.668400
  0
VERTEX
  8
0
  6
CONTINUOUS
 10
3.909400
 20
5.166040
  0
VERTEX
  8
0
  6
CONTINUOUS
 10
4.407480
 20
5.166040
  0
VERTEX
  8
0
  6
CONTINUOUS
 10
4.407040
 20
5.196400
  0
VERTEX
  8
0
  6
CONTINUOUS
 10
4.399560
 20
5.248760
  0
VERTEX
  8
0
  6
CONTINUOUS
 10
4.390320
 20
5.287920
  0
VERTEX
  8
0
  6
CONTINUOUS
 10
4.369200
 20
5.349520
  0
VERTEX
  8
0
  6
CONTINUOUS
 10
4.338840
 20
5.413320
  0
VERTEX
  8
0
  6
CONTINUOUS
 10
4.313760
 20
5.455120
  0
VERTEX
  8
0
  6
CONTINUOUS
 10
4.284280
 20
5.496040
  0
VERTEX
  8
0
  6
CONTINUOUS
 10
4.249960
 20
5.534320
  0
VERTEX
  8
0
  6
CONTINUOUS
 10
4.211680
 20
5.569960
  0
VERTEX
  8
0
  6
CONTINUOUS
 10
4.168120
 20
5.601640
  0
VERTEX
  8
0
  6
CONTINUOUS
 10
4.119720
 20
5.628480
  0
VERTEX
  8
0
  6
CONTINUOUS
 10
4.093760
 20
5.639920
  0
VERTEX
  8
0
  6
CONTINUOUS
 10
4.066040
 20
5.650040
  0
VERTEX
  8
0
  6
CONTINUOUS
 10
4.007520
 20
5.665440
  0
VERTEX
  8
0
  6
CONTINUOUS
 10
3.976280
 20
5.670280
  0
VERTEX
  8
0
  6
CONTINUOUS
 10
3.943280
 20
5.673360
  0
VERTEX
  8
0
  6
CONTINUOUS
 10
3.909400
 20
5.674240
  0
VERTEX
  8
0
  6
CONTINUOUS
 10
3.909400
 20
5.796120
  0
VERTEX
  8
0
  6
CONTINUOUS
 10
2.160400
 20
5.796120
  0
VERTEX
  8
0
  6
CONTINUOUS
 10
2.160400
 20
4.035240
  0
VERTEX
  8
0
  6
CONTINUOUS
 10
3.907640
 20
4.035240
  0
VERTEX
  8
0
  6
CONTINUOUS
 10
3.909400
 20
4.037880
  0
VERTEX
  8
0
  6
CONTINUOUS
 10
3.909400
 20
4.159760
  0
VERTEX
  8
0
  6
CONTINUOUS
 10
3.943280
 20
4.160640
  0
VERTEX
  8
0
  6
CONTINUOUS
 10
3.976280
 20
4.163720
  0
VERTEX
  8
0
  6
CONTINUOUS
 10
4.037440
 20
4.175600
  0
VERTEX
  8
0
  6
CONTINUOUS
 10
4.066040
 20
4.183960
  0
VERTEX
  8
0
  6
CONTINUOUS
 10
4.119720
 20
4.205520
  0
VERTEX
  8
0
  6
CONTINUOUS
 10
4.168120
 20
4.232360
  0
VERTEX
  8
0
  6
CONTINUOUS
 10
4.211240
 20
4.264040
  0
VERTEX
  8
0
  6
CONTINUOUS
 10
4.249960
 20
4.299680
  0
VERTEX
  8
0
  6
CONTINUOUS
 10
4.283840
 20
4.338400
  0
VERTEX
  8
0
  6
CONTINUOUS
 10
4.313320
 20
4.378880
  0
VERTEX
  8
0
  6
CONTINUOUS
 10
4.338840
 20
4.421120
  0
VERTEX
  8
0
  6
CONTINUOUS
 10
4.359520
 20
4.463360
  0
VERTEX
  8
0
  6
CONTINUOUS
 10
4.376680
 20
4.505600
  0
VERTEX
  8
0
  6
CONTINUOUS
 10
4.389880
 20
4.546520
  0
VERTEX
  8
0
  6
CONTINUOUS
 10
4.399120
 20
4.585680
  0
VERTEX
  8
0
  6
CONTINUOUS
 10
4.406600
 20
4.638040
  0
VERTEX
  8
0
  6
CONTINUOUS
 10
4.407040
 20
4.668400
  0
VERTEX
  8
0
  6
CONTINUOUS
 10
3.909400
 20
4.668400
  0
SEQEND
  8
0
  0
POLYLINE
  8
0
  6
CONTINUOUS
 66
     1
 40
0.014080
 41
0.014080
  0
VERTEX
  8
0
  6
CONTINUOUS
 10
4.495480
 20
4.030400
  0
VERTEX
  8
0
  6
CONTINUOUS
 10
6.734200
 20
4.030400
  0
VERTEX
  8
0
  6
CONTINUOUS
 10
6.734200
 20
5.790840
  0
VERTEX
  8
0
  6
CONTINUOUS
 10
4.490640
 20
5.790840
  0
VERTEX
  8
0
  6
CONTINUOUS
 10
4.490640
 20
5.669400
  0
VERTEX
  8
0
  6
CONTINUOUS
 10
4.524520
 20
5.668520
  0
VERTEX
  8
0
  6
CONTINUOUS
 10
4.557520
 20
5.665440
  0
VERTEX
  8
0
  6
CONTINUOUS
 10
4.588760
 20
5.660160
  0
VERTEX
  8
0
  6
CONTINUOUS
 10
4.618680
 20
5.653560
  0
VERTEX
  8
0
  6
CONTINUOUS
 10
4.647280
 20
5.645200
  0
VERTEX
  8
0
  6
CONTINUOUS
 10
4.675000
 20
5.635080
  0
VERTEX
  8
0
  6
CONTINUOUS
 10
4.700960
 20
5.623640
  0
VERTEX
  8
0
  6
CONTINUOUS
 10
4.749360
 20
5.596800
  0
VERTEX
  8
0
  6
CONTINUOUS
 10
4.792920
 20
5.565120
  0
VERTEX
  8
0
  6
CONTINUOUS
 10
4.831200
 20
5.529480
  0
VERTEX
  8
0
  6
CONTINUOUS
 10
4.865520
 20
5.490760
  0
VERTEX
  8
0
  6
CONTINUOUS
 10
4.895000
 20
5.450280
  0
VERTEX
  8
0
  6
CONTINUOUS
 10
4.920080
 20
5.408040
  0
VERTEX
  8
0
  6
CONTINUOUS
 10
4.941200
 20
5.365800
  0
VERTEX
  8
0
  6
CONTINUOUS
 10
4.958360
 20
5.323560
  0
VERTEX
  8
0
  6
CONTINUOUS
 10
4.971560
 20
5.282640
  0
VERTEX
  8
0
  6
CONTINUOUS
 10
4.980800
 20
5.243480
  0
VERTEX
  8
0
  6
CONTINUOUS
 10
4.988280
 20
5.191120
  0
VERTEX
  8
0
  6
CONTINUOUS
 10
4.988720
 20
5.160760
  0
VERTEX
  8
0
  6
CONTINUOUS
 10
4.490640
 20
5.160760
  0
VERTEX
  8
0
  6
CONTINUOUS
 10
4.490640
 20
4.663120
  0
VERTEX
  8
0
  6
CONTINUOUS
 10
4.988280
 20
4.663120
  0
VERTEX
  8
0
  6
CONTINUOUS
 10
4.987840
 20
4.632760
  0
VERTEX
  8
0
  6
CONTINUOUS
 10
4.980360
 20
4.580400
  0
VERTEX
  8
0
  6
CONTINUOUS
 10
4.971120
 20
4.541240
  0
VERTEX
  8
0
  6
CONTINUOUS
 10
4.950000
 20
4.479640
  0
VERTEX
  8
0
  6
CONTINUOUS
 10
4.931080
 20
4.436960
  0
VERTEX
  8
0
  6
CONTINUOUS
 10
4.907760
 20
4.394720
  0
VERTEX
  8
0
  6
CONTINUOUS
 10
4.880480
 20
4.353360
  0
VERTEX
  8
0
  6
CONTINUOUS
 10
4.848800
 20
4.313760
  0
VERTEX
  8
0
  6
CONTINUOUS
 10
4.812280
 20
4.276800
  0
VERTEX
  8
0
  6
CONTINUOUS
 10
4.792480
 20
4.259200
  0
VERTEX
  8
0
  6
CONTINUOUS
 10
4.749360
 20
4.227520
  0
VERTEX
  8
0
  6
CONTINUOUS
 10
4.700960
 20
4.200680
  0
VERTEX
  8
0
  6
CONTINUOUS
 10
4.647280
 20
4.179120
  0
VERTEX
  8
0
  6
CONTINUOUS
 10
4.618680
 20
4.170760
  0
VERTEX
  8
0
  6
CONTINUOUS
 10
4.588760
 20
4.163720
  0
VERTEX
  8
0
  6
CONTINUOUS
 10
4.557520
 20
4.158880
  0
VERTEX
  8
0
  6
CONTINUOUS
 10
4.524520
 20
4.155800
  0
VERTEX
  8
0
  6
CONTINUOUS
 10
4.490640
 20
4.154920
  0
VERTEX
  8
0
  6
CONTINUOUS
 10
4.490640
 20
4.033040
  0
VERTEX
  8
0
  6
CONTINUOUS
 10
4.488880
 20
4.030400
  0
VERTEX
  8
0
  6
CONTINUOUS
 10
4.495480
 20
4.030400
  0
SEQEND
  8
0
  0
TEXT
  8
0
 10
2.398000
 20
4.379760
 40
0.138066
  1
BA  1064A & B 1-3/4"
 41
1.000000
  7
SN0
 71
     0
 72
     5
 11
3.987496
 21
4.379760
  0
ENDSEC
  0
EOF
