  0
SECTION
  2
HEADER
  9
$ACADVER
  1
AC1006
  9
$EXTMIN
 10
5.738480
 20
0.528000
  9
$EXTMAX
 10
7.967520
 20
2.026640
  9
$LTSCALE
 40
0.044000
  9
$PDMODE
 70
    35
  9
$PDSIZE
 40
0.035200
  0
ENDSEC
  0
SECTION
  2
TABLES
  0
TABLE
  2
LTYPE
 70
     9
  0
LTYPE
  2
CONTINUOUS
 70
    64
  3
Solid line
 72
    65
 73
     0
 40
0.000000
  0
LTYPE
  2
DASHED
 70
    64
  3
__ __ __ __ __ __ __ __ __ __ __ __ __ __ __
 72
    65
 73
     2
 40
0.000330
 49
0.000220
 49
-0.000110
  0
LTYPE
  2
HIDDEN
 70
    64
  3
 _ _ _ _ _ _ _ _ _ _ _ _ _ _ _ _ _ _ _ _ _ _
 72
    65
 73
     2
 40
0.000165
 49
0.000110
 49
-0.000055
  0
LTYPE
  2
CENTER
 70
    64
  3
____ _ ____ _ ____ _ ____ _ ____ _ ____ _ ____
 72
    65
 73
     4
 40
0.000880
 49
0.000550
 49
-0.000110
 49
0.000110
 49
-0.000110
  0
LTYPE
  2
PHANTOM
 70
    64
  3
_____ _ _ _____ _ _ _____ _ _ _____ _ _ ____
 72
    65
 73
     6
 40
0.001100
 49
0.000550
 49
-0.000110
 49
0.000110
 49
-0.000110
 49
0.000110
 49
-0.000110
  0
LTYPE
  2
DOT
 70
    64
  3
...............................................
 72
    65
 73
     2
 40
0.000110
 49
0.000000
 49
-0.000110
  0
LTYPE
  2
DASHDOT
 70
    64
  3
__ . __ . __ . __ . __ . __ . __ . __ . __ . __
 72
    65
 73
     4
 40
0.000440
 49
0.000220
 49
-0.000110
 49
0.000000
 49
-0.000110
  0
LTYPE
  2
BORDER
 70
    64
  3
__ __ . __ __ . __ __ . __ __ . __ __ . __ __
 72
    65
 73
     6
 40
0.000770
 49
0.000220
 49
-0.000110
 49
0.000220
 49
-0.000110
 49
0.000000
 49
-0.000110
  0
LTYPE
  2
DIVIDE
 70
    64
  3
__ . . __ . . __ . . __ . . __ . . __ . . __
 72
    65
 73
     6
 40
0.000550
 49
0.000220
 49
-0.000110
 49
0.000000
 49
-0.000110
 49
0.000000
 49
-0.000110
  0
LTYPE
  2
DOTDOT
 70
    64
  3
 . .  . .  . .  . .  . .  . . 
 72
    65
 73
     5
 40
0.000242
 49
-0.000110
 49
0.000000
 49
-0.000110
 49
0.000000
 49
-0.000110
  0
ENDTAB
  0
TABLE
  2
STYLE
 70
     2
  0
STYLE
 70
     0
  2
SN0
 40
0.000000
 41
0.000440
 50
0.000000
 71
     0
 42
0.000000
  3
ROMAND
  0
STYLE
 70
    68
  2
SV0
 40
0.000000
 41
0.000440
 50
0.000000
 71
     0
 42
0.000000
  3
ROMAND
  0
ENDTAB
  0
TABLE
  2
LAYER
 70
     3
  0
LAYER
  2
FOREGROUND
 70
    64
 62
     7
  6
CONTINUOUS
  0
LAYER
  2
BACKGROUND
 70
    65
 62
    -7
  6
CONTINUOUS
  0
LAYER
  2
0
 70
    64
 62
     7
  6
CONTINUOUS
  0
ENDTAB
  0
ENDSEC
  0
SECTION
  2
ENTITIES
  0
POLYLINE
  8
FOREGROUND
  6
CONTINUOUS
 66
     1
 40
0.000000
 41
0.000000
  0
VERTEX
  8
FOREGROUND
  6
CONTINUOUS
 10
0.000000
 20
2.554640
  0
VERTEX
  8
FOREGROUND
  6
CONTINUOUS
 10
8.499920
 20
2.554640
  0
VERTEX
  8
FOREGROUND
  6
CONTINUOUS
 10
8.499920
 20
-8.445360
  0
VERTEX
  8
FOREGROUND
  6
CONTINUOUS
 10
0.000000
 20
-8.445360
  0
VERTEX
  8
FOREGROUND
  6
CONTINUOUS
 10
0.000000
 20
2.554640
  0
SEQEND
  8
0
  0
POLYLINE
  8
FOREGROUND
  6
CONTINUOUS
 66
     1
 40
0.000000
 41
0.000000
  0
VERTEX
  8
FOREGROUND
  6
CONTINUOUS
 10
0.000000
 20
2.554640
  0
VERTEX
  8
FOREGROUND
  6
CONTINUOUS
 10
8.499920
 20
2.554640
  0
VERTEX
  8
FOREGROUND
  6
CONTINUOUS
 10
8.499920
 20
-8.445360
  0
VERTEX
  8
FOREGROUND
  6
CONTINUOUS
 10
0.000000
 20
-8.445360
  0
VERTEX
  8
FOREGROUND
  6
CONTINUOUS
 10
0.000000
 20
2.554640
  0
SEQEND
  8
0
  0
SOLID
  8
0
 62
    15
 10
6.149000
 20
1.260160
 11
6.138880
 21
2.006400
 12
6.160440
 22
1.251800
 13
6.150320
 23
1.998040
  0
POLYLINE
  8
0
  6
CONTINUOUS
 66
     1
 40
0.000000
 41
0.000000
  0
VERTEX
  8
0
  6
CONTINUOUS
 10
6.149000
 20
1.260160
  0
VERTEX
  8
0
  6
CONTINUOUS
 10
6.138880
 20
2.006400
  0
VERTEX
  8
0
  6
CONTINUOUS
 10
6.150320
 20
1.998040
  0
VERTEX
  8
0
  6
CONTINUOUS
 10
6.160440
 20
1.251800
  0
VERTEX
  8
0
  6
CONTINUOUS
 10
6.149000
 20
1.260160
  0
SEQEND
  8
0
  0
SOLID
  8
0
 62
     7
 10
5.954960
 20
1.210880
 11
5.944840
 21
1.956680
 12
5.991040
 22
1.210880
 13
5.980920
 23
1.956680
  0
POLYLINE
  8
0
  6
CONTINUOUS
 66
     1
 40
0.000000
 41
0.000000
  0
VERTEX
  8
0
  6
CONTINUOUS
 10
5.954960
 20
1.210880
  0
VERTEX
  8
0
  6
CONTINUOUS
 10
5.944840
 20
1.956680
  0
VERTEX
  8
0
  6
CONTINUOUS
 10
5.980920
 20
1.956680
  0
VERTEX
  8
0
  6
CONTINUOUS
 10
5.991040
 20
1.210880
  0
VERTEX
  8
0
  6
CONTINUOUS
 10
5.954960
 20
1.210880
  0
SEQEND
  8
0
  0
SOLID
  8
0
 62
    15
 10
5.991040
 20
1.210880
 11
5.980920
 21
1.956680
 12
5.998960
 22
1.227600
 13
5.988840
 23
1.973840
  0
POLYLINE
  8
0
  6
CONTINUOUS
 66
     1
 40
0.000000
 41
0.000000
  0
VERTEX
  8
0
  6
CONTINUOUS
 10
5.991040
 20
1.210880
  0
VERTEX
  8
0
  6
CONTINUOUS
 10
5.980920
 20
1.956680
  0
VERTEX
  8
0
  6
CONTINUOUS
 10
5.988840
 20
1.973840
  0
VERTEX
  8
0
  6
CONTINUOUS
 10
5.998960
 20
1.227600
  0
VERTEX
  8
0
  6
CONTINUOUS
 10
5.991040
 20
1.210880
  0
SEQEND
  8
0
  0
SOLID
  8
0
 62
     7
 10
5.998960
 20
1.227600
 11
5.988840
 21
1.973840
 12
6.008200
 22
1.242120
 13
5.998080
 23
1.987920
  0
POLYLINE
  8
0
  6
CONTINUOUS
 66
     1
 40
0.000000
 41
0.000000
  0
VERTEX
  8
0
  6
CONTINUOUS
 10
5.998960
 20
1.227600
  0
VERTEX
  8
0
  6
CONTINUOUS
 10
5.988840
 20
1.973840
  0
VERTEX
  8
0
  6
CONTINUOUS
 10
5.998080
 20
1.987920
  0
VERTEX
  8
0
  6
CONTINUOUS
 10
6.008200
 20
1.242120
  0
VERTEX
  8
0
  6
CONTINUOUS
 10
5.998960
 20
1.227600
  0
SEQEND
  8
0
  0
SOLID
  8
0
 62
     7
 10
6.008200
 20
1.242120
 11
5.998080
 21
1.987920
 12
6.018760
 22
1.254000
 13
6.008640
 23
2.000240
  0
POLYLINE
  8
0
  6
CONTINUOUS
 66
     1
 40
0.000000
 41
0.000000
  0
VERTEX
  8
0
  6
CONTINUOUS
 10
6.008200
 20
1.242120
  0
VERTEX
  8
0
  6
CONTINUOUS
 10
5.998080
 20
1.987920
  0
VERTEX
  8
0
  6
CONTINUOUS
 10
6.008640
 20
2.000240
  0
VERTEX
  8
0
  6
CONTINUOUS
 10
6.018760
 20
1.254000
  0
VERTEX
  8
0
  6
CONTINUOUS
 10
6.008200
 20
1.242120
  0
SEQEND
  8
0
  0
SOLID
  8
0
 62
     7
 10
6.018760
 20
1.254000
 11
6.008640
 21
2.000240
 12
6.030200
 22
1.263680
 13
6.020080
 23
2.009480
  0
POLYLINE
  8
0
  6
CONTINUOUS
 66
     1
 40
0.000000
 41
0.000000
  0
VERTEX
  8
0
  6
CONTINUOUS
 10
6.018760
 20
1.254000
  0
VERTEX
  8
0
  6
CONTINUOUS
 10
6.008640
 20
2.000240
  0
VERTEX
  8
0
  6
CONTINUOUS
 10
6.020080
 20
2.009480
  0
VERTEX
  8
0
  6
CONTINUOUS
 10
6.030200
 20
1.263680
  0
VERTEX
  8
0
  6
CONTINUOUS
 10
6.018760
 20
1.254000
  0
SEQEND
  8
0
  0
SOLID
  8
0
 62
     7
 10
6.030200
 20
1.263680
 11
6.020080
 21
2.009480
 12
6.042520
 22
1.270720
 13
6.032400
 23
2.016960
  0
POLYLINE
  8
0
  6
CONTINUOUS
 66
     1
 40
0.000000
 41
0.000000
  0
VERTEX
  8
0
  6
CONTINUOUS
 10
6.030200
 20
1.263680
  0
VERTEX
  8
0
  6
CONTINUOUS
 10
6.020080
 20
2.009480
  0
VERTEX
  8
0
  6
CONTINUOUS
 10
6.032400
 20
2.016960
  0
VERTEX
  8
0
  6
CONTINUOUS
 10
6.042520
 20
1.270720
  0
VERTEX
  8
0
  6
CONTINUOUS
 10
6.030200
 20
1.263680
  0
SEQEND
  8
0
  0
SOLID
  8
0
 62
     7
 10
6.042520
 20
1.270720
 11
6.032400
 21
2.016960
 12
6.055720
 22
1.276000
 13
6.045600
 23
2.021800
  0
POLYLINE
  8
0
  6
CONTINUOUS
 66
     1
 40
0.000000
 41
0.000000
  0
VERTEX
  8
0
  6
CONTINUOUS
 10
6.042520
 20
1.270720
  0
VERTEX
  8
0
  6
CONTINUOUS
 10
6.032400
 20
2.016960
  0
VERTEX
  8
0
  6
CONTINUOUS
 10
6.045600
 20
2.021800
  0
VERTEX
  8
0
  6
CONTINUOUS
 10
6.055720
 20
1.276000
  0
VERTEX
  8
0
  6
CONTINUOUS
 10
6.042520
 20
1.270720
  0
SEQEND
  8
0
  0
SOLID
  8
0
 62
     7
 10
6.055720
 20
1.276000
 11
6.045600
 21
2.021800
 12
6.068920
 22
1.279080
 13
6.058800
 23
2.024880
  0
POLYLINE
  8
0
  6
CONTINUOUS
 66
     1
 40
0.000000
 41
0.000000
  0
VERTEX
  8
0
  6
CONTINUOUS
 10
6.055720
 20
1.276000
  0
VERTEX
  8
0
  6
CONTINUOUS
 10
6.045600
 20
2.021800
  0
VERTEX
  8
0
  6
CONTINUOUS
 10
6.058800
 20
2.024880
  0
VERTEX
  8
0
  6
CONTINUOUS
 10
6.068920
 20
1.279080
  0
VERTEX
  8
0
  6
CONTINUOUS
 10
6.055720
 20
1.276000
  0
SEQEND
  8
0
  0
SOLID
  8
0
 62
     7
 10
6.068920
 20
1.279080
 11
6.058800
 21
2.024880
 12
6.082560
 22
1.280400
 13
6.072440
 23
2.026200
  0
POLYLINE
  8
0
  6
CONTINUOUS
 66
     1
 40
0.000000
 41
0.000000
  0
VERTEX
  8
0
  6
CONTINUOUS
 10
6.068920
 20
1.279080
  0
VERTEX
  8
0
  6
CONTINUOUS
 10
6.058800
 20
2.024880
  0
VERTEX
  8
0
  6
CONTINUOUS
 10
6.072440
 20
2.026200
  0
VERTEX
  8
0
  6
CONTINUOUS
 10
6.082560
 20
1.280400
  0
VERTEX
  8
0
  6
CONTINUOUS
 10
6.068920
 20
1.279080
  0
SEQEND
  8
0
  0
SOLID
  8
0
 62
    15
 10
6.082560
 20
1.280400
 11
6.072440
 21
2.026200
 12
6.096200
 22
1.279520
 13
6.086080
 23
2.025320
  0
POLYLINE
  8
0
  6
CONTINUOUS
 66
     1
 40
0.000000
 41
0.000000
  0
VERTEX
  8
0
  6
CONTINUOUS
 10
6.082560
 20
1.280400
  0
VERTEX
  8
0
  6
CONTINUOUS
 10
6.072440
 20
2.026200
  0
VERTEX
  8
0
  6
CONTINUOUS
 10
6.086080
 20
2.025320
  0
VERTEX
  8
0
  6
CONTINUOUS
 10
6.096200
 20
1.279520
  0
VERTEX
  8
0
  6
CONTINUOUS
 10
6.082560
 20
1.280400
  0
SEQEND
  8
0
  0
SOLID
  8
0
 62
    15
 10
6.096200
 20
1.279520
 11
6.086080
 21
2.025320
 12
6.109840
 22
1.276880
 13
6.099720
 23
2.023120
  0
POLYLINE
  8
0
  6
CONTINUOUS
 66
     1
 40
0.000000
 41
0.000000
  0
VERTEX
  8
0
  6
CONTINUOUS
 10
6.096200
 20
1.279520
  0
VERTEX
  8
0
  6
CONTINUOUS
 10
6.086080
 20
2.025320
  0
VERTEX
  8
0
  6
CONTINUOUS
 10
6.099720
 20
2.023120
  0
VERTEX
  8
0
  6
CONTINUOUS
 10
6.109840
 20
1.276880
  0
VERTEX
  8
0
  6
CONTINUOUS
 10
6.096200
 20
1.279520
  0
SEQEND
  8
0
  0
SOLID
  8
0
 62
    15
 10
6.109840
 20
1.276880
 11
6.099720
 21
2.023120
 12
6.123480
 22
1.272920
 13
6.113360
 23
2.018720
  0
POLYLINE
  8
0
  6
CONTINUOUS
 66
     1
 40
0.000000
 41
0.000000
  0
VERTEX
  8
0
  6
CONTINUOUS
 10
6.109840
 20
1.276880
  0
VERTEX
  8
0
  6
CONTINUOUS
 10
6.099720
 20
2.023120
  0
VERTEX
  8
0
  6
CONTINUOUS
 10
6.113360
 20
2.018720
  0
VERTEX
  8
0
  6
CONTINUOUS
 10
6.123480
 20
1.272920
  0
VERTEX
  8
0
  6
CONTINUOUS
 10
6.109840
 20
1.276880
  0
SEQEND
  8
0
  0
SOLID
  8
0
 62
    15
 10
6.123480
 20
1.272920
 11
6.113360
 21
2.018720
 12
6.136240
 22
1.267200
 13
6.126120
 23
2.013440
  0
POLYLINE
  8
0
  6
CONTINUOUS
 66
     1
 40
0.000000
 41
0.000000
  0
VERTEX
  8
0
  6
CONTINUOUS
 10
6.123480
 20
1.272920
  0
VERTEX
  8
0
  6
CONTINUOUS
 10
6.113360
 20
2.018720
  0
VERTEX
  8
0
  6
CONTINUOUS
 10
6.126120
 20
2.013440
  0
VERTEX
  8
0
  6
CONTINUOUS
 10
6.136240
 20
1.267200
  0
VERTEX
  8
0
  6
CONTINUOUS
 10
6.123480
 20
1.272920
  0
SEQEND
  8
0
  0
SOLID
  8
0
 62
    15
 10
6.136240
 20
1.267200
 11
6.126120
 21
2.013440
 12
6.149000
 22
1.260160
 13
6.138880
 23
2.006400
  0
POLYLINE
  8
0
  6
CONTINUOUS
 66
     1
 40
0.000000
 41
0.000000
  0
VERTEX
  8
0
  6
CONTINUOUS
 10
6.136240
 20
1.267200
  0
VERTEX
  8
0
  6
CONTINUOUS
 10
6.126120
 20
2.013440
  0
VERTEX
  8
0
  6
CONTINUOUS
 10
6.138880
 20
2.006400
  0
VERTEX
  8
0
  6
CONTINUOUS
 10
6.149000
 20
1.260160
  0
VERTEX
  8
0
  6
CONTINUOUS
 10
6.136240
 20
1.267200
  0
SEQEND
  8
0
  0
SOLID
  8
0
 62
    15
 10
5.954960
 20
0.983840
 11
5.944840
 21
1.730080
 12
5.954960
 22
1.210880
 13
5.944840
 23
1.956680
  0
POLYLINE
  8
0
  6
CONTINUOUS
 66
     1
 40
0.000000
 41
0.000000
  0
VERTEX
  8
0
  6
CONTINUOUS
 10
5.954960
 20
0.983840
  0
VERTEX
  8
0
  6
CONTINUOUS
 10
5.944840
 20
1.730080
  0
VERTEX
  8
0
  6
CONTINUOUS
 10
5.944840
 20
1.956680
  0
VERTEX
  8
0
  6
CONTINUOUS
 10
5.954960
 20
1.210880
  0
VERTEX
  8
0
  6
CONTINUOUS
 10
5.954960
 20
0.983840
  0
SEQEND
  8
0
  0
SOLID
  8
0
 62
    15
 10
6.160440
 20
1.251800
 11
6.150320
 21
1.998040
 12
6.171000
 22
1.242120
 13
6.160880
 23
1.988360
  0
POLYLINE
  8
0
  6
CONTINUOUS
 66
     1
 40
0.000000
 41
0.000000
  0
VERTEX
  8
0
  6
CONTINUOUS
 10
6.160440
 20
1.251800
  0
VERTEX
  8
0
  6
CONTINUOUS
 10
6.150320
 20
1.998040
  0
VERTEX
  8
0
  6
CONTINUOUS
 10
6.160880
 20
1.988360
  0
VERTEX
  8
0
  6
CONTINUOUS
 10
6.171000
 20
1.242120
  0
VERTEX
  8
0
  6
CONTINUOUS
 10
6.160440
 20
1.251800
  0
SEQEND
  8
0
  0
SOLID
  8
0
 62
    15
 10
6.171000
 20
1.242120
 11
6.160880
 21
1.988360
 12
6.200040
 22
1.210000
 13
6.189920
 23
1.956240
  0
POLYLINE
  8
0
  6
CONTINUOUS
 66
     1
 40
0.000000
 41
0.000000
  0
VERTEX
  8
0
  6
CONTINUOUS
 10
6.171000
 20
1.242120
  0
VERTEX
  8
0
  6
CONTINUOUS
 10
6.160880
 20
1.988360
  0
VERTEX
  8
0
  6
CONTINUOUS
 10
6.189920
 20
1.956240
  0
VERTEX
  8
0
  6
CONTINUOUS
 10
6.200040
 20
1.210000
  0
VERTEX
  8
0
  6
CONTINUOUS
 10
6.171000
 20
1.242120
  0
SEQEND
  8
0
  0
SOLID
  8
0
 62
    15
 10
6.200040
 20
1.210000
 11
6.189920
 21
1.956240
 12
6.222040
 22
1.190640
 13
6.211920
 23
1.936440
  0
POLYLINE
  8
0
  6
CONTINUOUS
 66
     1
 40
0.000000
 41
0.000000
  0
VERTEX
  8
0
  6
CONTINUOUS
 10
6.200040
 20
1.210000
  0
VERTEX
  8
0
  6
CONTINUOUS
 10
6.189920
 20
1.956240
  0
VERTEX
  8
0
  6
CONTINUOUS
 10
6.211920
 20
1.936440
  0
VERTEX
  8
0
  6
CONTINUOUS
 10
6.222040
 20
1.190640
  0
VERTEX
  8
0
  6
CONTINUOUS
 10
6.200040
 20
1.210000
  0
SEQEND
  8
0
  0
SOLID
  8
0
 62
    15
 10
6.222040
 20
1.190640
 11
6.211920
 21
1.936440
 12
6.247120
 22
1.173920
 13
6.237000
 23
1.919720
  0
POLYLINE
  8
0
  6
CONTINUOUS
 66
     1
 40
0.000000
 41
0.000000
  0
VERTEX
  8
0
  6
CONTINUOUS
 10
6.222040
 20
1.190640
  0
VERTEX
  8
0
  6
CONTINUOUS
 10
6.211920
 20
1.936440
  0
VERTEX
  8
0
  6
CONTINUOUS
 10
6.237000
 20
1.919720
  0
VERTEX
  8
0
  6
CONTINUOUS
 10
6.247120
 20
1.173920
  0
VERTEX
  8
0
  6
CONTINUOUS
 10
6.222040
 20
1.190640
  0
SEQEND
  8
0
  0
SOLID
  8
0
 62
    15
 10
6.247120
 20
1.173920
 11
6.237000
 21
1.919720
 12
6.275280
 22
1.159840
 13
6.265160
 23
1.906080
  0
POLYLINE
  8
0
  6
CONTINUOUS
 66
     1
 40
0.000000
 41
0.000000
  0
VERTEX
  8
0
  6
CONTINUOUS
 10
6.247120
 20
1.173920
  0
VERTEX
  8
0
  6
CONTINUOUS
 10
6.237000
 20
1.919720
  0
VERTEX
  8
0
  6
CONTINUOUS
 10
6.265160
 20
1.906080
  0
VERTEX
  8
0
  6
CONTINUOUS
 10
6.275280
 20
1.159840
  0
VERTEX
  8
0
  6
CONTINUOUS
 10
6.247120
 20
1.173920
  0
SEQEND
  8
0
  0
SOLID
  8
0
 62
    15
 10
6.275280
 20
1.159840
 11
6.265160
 21
1.906080
 12
6.306080
 22
1.149720
 13
6.295960
 23
1.895520
  0
POLYLINE
  8
0
  6
CONTINUOUS
 66
     1
 40
0.000000
 41
0.000000
  0
VERTEX
  8
0
  6
CONTINUOUS
 10
6.275280
 20
1.159840
  0
VERTEX
  8
0
  6
CONTINUOUS
 10
6.265160
 20
1.906080
  0
VERTEX
  8
0
  6
CONTINUOUS
 10
6.295960
 20
1.895520
  0
VERTEX
  8
0
  6
CONTINUOUS
 10
6.306080
 20
1.149720
  0
VERTEX
  8
0
  6
CONTINUOUS
 10
6.275280
 20
1.159840
  0
SEQEND
  8
0
  0
SOLID
  8
0
 62
    15
 10
6.306080
 20
1.149720
 11
6.295960
 21
1.895520
 12
6.340400
 22
1.143120
 13
6.330280
 23
1.889360
  0
POLYLINE
  8
0
  6
CONTINUOUS
 66
     1
 40
0.000000
 41
0.000000
  0
VERTEX
  8
0
  6
CONTINUOUS
 10
6.306080
 20
1.149720
  0
VERTEX
  8
0
  6
CONTINUOUS
 10
6.295960
 20
1.895520
  0
VERTEX
  8
0
  6
CONTINUOUS
 10
6.330280
 20
1.889360
  0
VERTEX
  8
0
  6
CONTINUOUS
 10
6.340400
 20
1.143120
  0
VERTEX
  8
0
  6
CONTINUOUS
 10
6.306080
 20
1.149720
  0
SEQEND
  8
0
  0
SOLID
  8
0
 62
     7
 10
6.340400
 20
1.143120
 11
6.330280
 21
1.889360
 12
6.358880
 22
1.141800
 13
6.348760
 23
1.887600
  0
POLYLINE
  8
0
  6
CONTINUOUS
 66
     1
 40
0.000000
 41
0.000000
  0
VERTEX
  8
0
  6
CONTINUOUS
 10
6.340400
 20
1.143120
  0
VERTEX
  8
0
  6
CONTINUOUS
 10
6.330280
 20
1.889360
  0
VERTEX
  8
0
  6
CONTINUOUS
 10
6.348760
 20
1.887600
  0
VERTEX
  8
0
  6
CONTINUOUS
 10
6.358880
 20
1.141800
  0
VERTEX
  8
0
  6
CONTINUOUS
 10
6.340400
 20
1.143120
  0
SEQEND
  8
0
  0
SOLID
  8
0
 62
     7
 10
6.358880
 20
1.141800
 11
6.348760
 21
1.887600
 12
6.377800
 22
1.141360
 13
6.367680
 23
1.887160
  0
POLYLINE
  8
0
  6
CONTINUOUS
 66
     1
 40
0.000000
 41
0.000000
  0
VERTEX
  8
0
  6
CONTINUOUS
 10
6.358880
 20
1.141800
  0
VERTEX
  8
0
  6
CONTINUOUS
 10
6.348760
 20
1.887600
  0
VERTEX
  8
0
  6
CONTINUOUS
 10
6.367680
 20
1.887160
  0
VERTEX
  8
0
  6
CONTINUOUS
 10
6.377800
 20
1.141360
  0
VERTEX
  8
0
  6
CONTINUOUS
 10
6.358880
 20
1.141800
  0
SEQEND
  8
0
  0
SOLID
  8
0
 62
     7
 10
6.377800
 20
1.141360
 11
6.367680
 21
1.887160
 12
6.397600
 22
1.142240
 13
6.387480
 23
1.888040
  0
POLYLINE
  8
0
  6
CONTINUOUS
 66
     1
 40
0.000000
 41
0.000000
  0
VERTEX
  8
0
  6
CONTINUOUS
 10
6.377800
 20
1.141360
  0
VERTEX
  8
0
  6
CONTINUOUS
 10
6.367680
 20
1.887160
  0
VERTEX
  8
0
  6
CONTINUOUS
 10
6.387480
 20
1.888040
  0
VERTEX
  8
0
  6
CONTINUOUS
 10
6.397600
 20
1.142240
  0
VERTEX
  8
0
  6
CONTINUOUS
 10
6.377800
 20
1.141360
  0
SEQEND
  8
0
  0
SOLID
  8
0
 62
     7
 10
6.397600
 20
1.142240
 11
6.387480
 21
1.888040
 12
6.418720
 22
1.144440
 13
6.408600
 23
1.890240
  0
POLYLINE
  8
0
  6
CONTINUOUS
 66
     1
 40
0.000000
 41
0.000000
  0
VERTEX
  8
0
  6
CONTINUOUS
 10
6.397600
 20
1.142240
  0
VERTEX
  8
0
  6
CONTINUOUS
 10
6.387480
 20
1.888040
  0
VERTEX
  8
0
  6
CONTINUOUS
 10
6.408600
 20
1.890240
  0
VERTEX
  8
0
  6
CONTINUOUS
 10
6.418720
 20
1.144440
  0
VERTEX
  8
0
  6
CONTINUOUS
 10
6.397600
 20
1.142240
  0
SEQEND
  8
0
  0
SOLID
  8
0
 62
    15
 10
6.418720
 20
1.144440
 11
6.408600
 21
1.890240
 12
6.444240
 22
1.109240
 13
6.434120
 23
1.855480
  0
POLYLINE
  8
0
  6
CONTINUOUS
 66
     1
 40
0.000000
 41
0.000000
  0
VERTEX
  8
0
  6
CONTINUOUS
 10
6.418720
 20
1.144440
  0
VERTEX
  8
0
  6
CONTINUOUS
 10
6.408600
 20
1.890240
  0
VERTEX
  8
0
  6
CONTINUOUS
 10
6.434120
 20
1.855480
  0
VERTEX
  8
0
  6
CONTINUOUS
 10
6.444240
 20
1.109240
  0
VERTEX
  8
0
  6
CONTINUOUS
 10
6.418720
 20
1.144440
  0
SEQEND
  8
0
  0
SOLID
  8
0
 62
     7
 10
6.575360
 20
0.983840
 11
6.565240
 21
1.729640
 12
6.575360
 22
0.983840
 13
6.565240
 23
1.730080
  0
POLYLINE
  8
0
  6
CONTINUOUS
 66
     1
 40
0.000000
 41
0.000000
  0
VERTEX
  8
0
  6
CONTINUOUS
 10
6.575360
 20
0.983840
  0
VERTEX
  8
0
  6
CONTINUOUS
 10
6.565240
 20
1.729640
  0
VERTEX
  8
0
  6
CONTINUOUS
 10
6.565240
 20
1.730080
  0
VERTEX
  8
0
  6
CONTINUOUS
 10
6.575360
 20
0.983840
  0
SEQEND
  8
0
  0
SOLID
  8
0
 62
    15
 10
6.444240
 20
1.109240
 11
6.434120
 21
1.855480
 12
6.575360
 22
1.092080
 13
6.565240
 23
1.838320
  0
POLYLINE
  8
0
  6
CONTINUOUS
 66
     1
 40
0.000000
 41
0.000000
  0
VERTEX
  8
0
  6
CONTINUOUS
 10
6.444240
 20
1.109240
  0
VERTEX
  8
0
  6
CONTINUOUS
 10
6.434120
 20
1.855480
  0
VERTEX
  8
0
  6
CONTINUOUS
 10
6.565240
 20
1.838320
  0
VERTEX
  8
0
  6
CONTINUOUS
 10
6.575360
 20
1.092080
  0
VERTEX
  8
0
  6
CONTINUOUS
 10
6.444240
 20
1.109240
  0
SEQEND
  8
0
  0
POLYLINE
  8
0
  6
CONTINUOUS
 66
     1
 40
0.000000
 41
0.000000
  0
VERTEX
  8
0
  6
CONTINUOUS
 10
6.575360
 20
0.983840
  0
VERTEX
  8
0
  6
CONTINUOUS
 10
5.954960
 20
0.983840
  0
VERTEX
  8
0
  6
CONTINUOUS
 10
5.954960
 20
1.210880
  0
VERTEX
  8
0
  6
CONTINUOUS
 10
5.991040
 20
1.210880
  0
VERTEX
  8
0
  6
CONTINUOUS
 10
5.998960
 20
1.227600
  0
VERTEX
  8
0
  6
CONTINUOUS
 10
6.008200
 20
1.242120
  0
VERTEX
  8
0
  6
CONTINUOUS
 10
6.018760
 20
1.254000
  0
VERTEX
  8
0
  6
CONTINUOUS
 10
6.030200
 20
1.263680
  0
VERTEX
  8
0
  6
CONTINUOUS
 10
6.042520
 20
1.270720
  0
VERTEX
  8
0
  6
CONTINUOUS
 10
6.055720
 20
1.276000
  0
VERTEX
  8
0
  6
CONTINUOUS
 10
6.068920
 20
1.279080
  0
VERTEX
  8
0
  6
CONTINUOUS
 10
6.082560
 20
1.280400
  0
VERTEX
  8
0
  6
CONTINUOUS
 10
6.096200
 20
1.279520
  0
VERTEX
  8
0
  6
CONTINUOUS
 10
6.109840
 20
1.276880
  0
VERTEX
  8
0
  6
CONTINUOUS
 10
6.123480
 20
1.272920
  0
VERTEX
  8
0
  6
CONTINUOUS
 10
6.136240
 20
1.267200
  0
VERTEX
  8
0
  6
CONTINUOUS
 10
6.149000
 20
1.260160
  0
VERTEX
  8
0
  6
CONTINUOUS
 10
6.160440
 20
1.251800
  0
VERTEX
  8
0
  6
CONTINUOUS
 10
6.171000
 20
1.242120
  0
VERTEX
  8
0
  6
CONTINUOUS
 10
6.200040
 20
1.210000
  0
VERTEX
  8
0
  6
CONTINUOUS
 10
6.222040
 20
1.190640
  0
VERTEX
  8
0
  6
CONTINUOUS
 10
6.247120
 20
1.173920
  0
VERTEX
  8
0
  6
CONTINUOUS
 10
6.275280
 20
1.159840
  0
VERTEX
  8
0
  6
CONTINUOUS
 10
6.306080
 20
1.149720
  0
VERTEX
  8
0
  6
CONTINUOUS
 10
6.340400
 20
1.143120
  0
VERTEX
  8
0
  6
CONTINUOUS
 10
6.358880
 20
1.141800
  0
VERTEX
  8
0
  6
CONTINUOUS
 10
6.377800
 20
1.141360
  0
VERTEX
  8
0
  6
CONTINUOUS
 10
6.397600
 20
1.142240
  0
VERTEX
  8
0
  6
CONTINUOUS
 10
6.418720
 20
1.144440
  0
VERTEX
  8
0
  6
CONTINUOUS
 10
6.444240
 20
1.109240
  0
VERTEX
  8
0
  6
CONTINUOUS
 10
6.575360
 20
1.092080
  0
VERTEX
  8
0
  6
CONTINUOUS
 10
6.575360
 20
0.983840
  0
SEQEND
  8
0
  0
TEXT
  8
0
 10
5.917560
 20
0.764280
 40
0.138131
  1
BA  1062
 41
1.000000
  7
SN0
 71
     0
 72
     5
 11
6.599758
 21
0.764280
  0
TEXT
  8
0
 10
5.835720
 20
0.572440
 40
0.138131
  1
5/16" x 5/8"
 41
1.000000
  7
SN0
 71
     0
 72
     5
 11
6.680972
 21
0.572440
  0
POLYLINE
  8
0
  6
CONTINUOUS
 66
     1
 40
0.014080
 41
0.014080
  0
VERTEX
  8
0
  6
CONTINUOUS
 10
7.735640
 20
1.510080
  0
VERTEX
  8
0
  6
CONTINUOUS
 10
7.735640
 20
1.618760
  0
VERTEX
  8
0
  6
CONTINUOUS
 10
7.604960
 20
1.635480
  0
VERTEX
  8
0
  6
CONTINUOUS
 10
7.579000
 20
1.670680
  0
VERTEX
  8
0
  6
CONTINUOUS
 10
7.558320
 20
1.668480
  0
VERTEX
  8
0
  6
CONTINUOUS
 10
7.538520
 20
1.667600
  0
VERTEX
  8
0
  6
CONTINUOUS
 10
7.519160
 20
1.668040
  0
VERTEX
  8
0
  6
CONTINUOUS
 10
7.501120
 20
1.669800
  0
VERTEX
  8
0
  6
CONTINUOUS
 10
7.483520
 20
1.672440
  0
VERTEX
  8
0
  6
CONTINUOUS
 10
7.466800
 20
1.675960
  0
VERTEX
  8
0
  6
CONTINUOUS
 10
7.450960
 20
1.680800
  0
VERTEX
  8
0
  6
CONTINUOUS
 10
7.435560
 20
1.686520
  0
VERTEX
  8
0
  6
CONTINUOUS
 10
7.421040
 20
1.692680
  0
VERTEX
  8
0
  6
CONTINUOUS
 10
7.407400
 20
1.700160
  0
VERTEX
  8
0
  6
CONTINUOUS
 10
7.394640
 20
1.708080
  0
VERTEX
  8
0
  6
CONTINUOUS
 10
7.382760
 20
1.716880
  0
VERTEX
  8
0
  6
CONTINUOUS
 10
7.371320
 20
1.726560
  0
VERTEX
  8
0
  6
CONTINUOUS
 10
7.360320
 20
1.736240
  0
VERTEX
  8
0
  6
CONTINUOUS
 10
7.350640
 20
1.746800
  0
VERTEX
  8
0
  6
CONTINUOUS
 10
7.341400
 20
1.757800
  0
VERTEX
  8
0
  6
CONTINUOUS
 10
7.331720
 20
1.768360
  0
VERTEX
  8
0
  6
CONTINUOUS
 10
7.321160
 20
1.778040
  0
VERTEX
  8
0
  6
CONTINUOUS
 10
7.309720
 20
1.786400
  0
VERTEX
  8
0
  6
CONTINUOUS
 10
7.296960
 20
1.793440
  0
VERTEX
  8
0
  6
CONTINUOUS
 10
7.284200
 20
1.799160
  0
VERTEX
  8
0
  6
CONTINUOUS
 10
7.270560
 20
1.803120
  0
VERTEX
  8
0
  6
CONTINUOUS
 10
7.256920
 20
1.805760
  0
VERTEX
  8
0
  6
CONTINUOUS
 10
7.243280
 20
1.806640
  0
VERTEX
  8
0
  6
CONTINUOUS
 10
7.229640
 20
1.805320
  0
VERTEX
  8
0
  6
CONTINUOUS
 10
7.216000
 20
1.802240
  0
VERTEX
  8
0
  6
CONTINUOUS
 10
7.203240
 20
1.797400
  0
VERTEX
  8
0
  6
CONTINUOUS
 10
7.190920
 20
1.789920
  0
VERTEX
  8
0
  6
CONTINUOUS
 10
7.185200
 20
1.785520
  0
VERTEX
  8
0
  6
CONTINUOUS
 10
7.179480
 20
1.780240
  0
VERTEX
  8
0
  6
CONTINUOUS
 10
7.174200
 20
1.774960
  0
VERTEX
  8
0
  6
CONTINUOUS
 10
7.168920
 20
1.768360
  0
VERTEX
  8
0
  6
CONTINUOUS
 10
7.164080
 20
1.761760
  0
VERTEX
  8
0
  6
CONTINUOUS
 10
7.159680
 20
1.754280
  0
VERTEX
  8
0
  6
CONTINUOUS
 10
7.155720
 20
1.745920
  0
VERTEX
  8
0
  6
CONTINUOUS
 10
7.151760
 20
1.737120
  0
VERTEX
  8
0
  6
CONTINUOUS
 10
7.115240
 20
1.737120
  0
VERTEX
  8
0
  6
CONTINUOUS
 10
7.115240
 20
1.510080
  0
VERTEX
  8
0
  6
CONTINUOUS
 10
7.736080
 20
1.510080
  0
VERTEX
  8
0
  6
CONTINUOUS
 10
7.735640
 20
1.510080
  0
SEQEND
  8
0
  0
TEXT
  8
0
 10
7.104240
 20
1.223640
 40
0.138131
  1
BA  1062
 41
1.000000
  7
SN0
 71
     0
 72
     5
 11
7.786438
 21
1.223640
  0
TEXT
  8
0
 10
7.022400
 20
1.031800
 40
0.138131
  1
5/16" x 5/8"
 41
1.000000
  7
SN0
 71
     0
 72
     5
 11
7.867652
 21
1.031800
  0
ENDSEC
  0
EOF
