  0
SECTION
  2
HEADER
  9
$ACADVER
  1
AC1006
  9
$EXTMIN
 10
2.923360
 20
1.990120
  9
$EXTMAX
 10
7.459760
 20
4.491960
  9
$LTSCALE
 40
0.044000
  9
$PDMODE
 70
    35
  9
$PDSIZE
 40
0.035200
  0
ENDSEC
  0
SECTION
  2
TABLES
  0
TABLE
  2
LTYPE
 70
     9
  0
LTYPE
  2
CONTINUOUS
 70
    64
  3
Solid line
 72
    65
 73
     0
 40
0.000000
  0
LTYPE
  2
DASHED
 70
    64
  3
__ __ __ __ __ __ __ __ __ __ __ __ __ __ __
 72
    65
 73
     2
 40
0.000330
 49
0.000220
 49
-0.000110
  0
LTYPE
  2
HIDDEN
 70
    64
  3
 _ _ _ _ _ _ _ _ _ _ _ _ _ _ _ _ _ _ _ _ _ _
 72
    65
 73
     2
 40
0.000165
 49
0.000110
 49
-0.000055
  0
LTYPE
  2
CENTER
 70
    64
  3
____ _ ____ _ ____ _ ____ _ ____ _ ____ _ ____
 72
    65
 73
     4
 40
0.000880
 49
0.000550
 49
-0.000110
 49
0.000110
 49
-0.000110
  0
LTYPE
  2
PHANTOM
 70
    64
  3
_____ _ _ _____ _ _ _____ _ _ _____ _ _ ____
 72
    65
 73
     6
 40
0.001100
 49
0.000550
 49
-0.000110
 49
0.000110
 49
-0.000110
 49
0.000110
 49
-0.000110
  0
LTYPE
  2
DOT
 70
    64
  3
...............................................
 72
    65
 73
     2
 40
0.000110
 49
0.000000
 49
-0.000110
  0
LTYPE
  2
DASHDOT
 70
    64
  3
__ . __ . __ . __ . __ . __ . __ . __ . __ . __
 72
    65
 73
     4
 40
0.000440
 49
0.000220
 49
-0.000110
 49
0.000000
 49
-0.000110
  0
LTYPE
  2
BORDER
 70
    64
  3
__ __ . __ __ . __ __ . __ __ . __ __ . __ __
 72
    65
 73
     6
 40
0.000770
 49
0.000220
 49
-0.000110
 49
0.000220
 49
-0.000110
 49
0.000000
 49
-0.000110
  0
LTYPE
  2
DIVIDE
 70
    64
  3
__ . . __ . . __ . . __ . . __ . . __ . . __
 72
    65
 73
     6
 40
0.000550
 49
0.000220
 49
-0.000110
 49
0.000000
 49
-0.000110
 49
0.000000
 49
-0.000110
  0
LTYPE
  2
DOTDOT
 70
    64
  3
 . .  . .  . .  . .  . .  . . 
 72
    65
 73
     5
 40
0.000242
 49
-0.000110
 49
0.000000
 49
-0.000110
 49
0.000000
 49
-0.000110
  0
ENDTAB
  0
TABLE
  2
STYLE
 70
     2
  0
STYLE
 70
     0
  2
SN0
 40
0.000000
 41
0.000440
 50
0.000000
 71
     0
 42
0.000000
  3
ROMAND
  0
STYLE
 70
    68
  2
SV0
 40
0.000000
 41
0.000440
 50
0.000000
 71
     0
 42
0.000000
  3
ROMAND
  0
ENDTAB
  0
TABLE
  2
LAYER
 70
     3
  0
LAYER
  2
FOREGROUND
 70
    64
 62
     7
  6
CONTINUOUS
  0
LAYER
  2
BACKGROUND
 70
    65
 62
    -7
  6
CONTINUOUS
  0
LAYER
  2
0
 70
    64
 62
     7
  6
CONTINUOUS
  0
ENDTAB
  0
ENDSEC
  0
SECTION
  2
ENTITIES
  0
POLYLINE
  8
FOREGROUND
  6
CONTINUOUS
 66
     1
 40
0.000000
 41
0.000000
  0
VERTEX
  8
FOREGROUND
  6
CONTINUOUS
 10
0.000000
 20
6.482080
  0
VERTEX
  8
FOREGROUND
  6
CONTINUOUS
 10
8.499920
 20
6.482080
  0
VERTEX
  8
FOREGROUND
  6
CONTINUOUS
 10
8.499920
 20
-4.517920
  0
VERTEX
  8
FOREGROUND
  6
CONTINUOUS
 10
0.000000
 20
-4.517920
  0
VERTEX
  8
FOREGROUND
  6
CONTINUOUS
 10
0.000000
 20
6.482080
  0
SEQEND
  8
0
  0
POLYLINE
  8
FOREGROUND
  6
CONTINUOUS
 66
     1
 40
0.000000
 41
0.000000
  0
VERTEX
  8
FOREGROUND
  6
CONTINUOUS
 10
0.000000
 20
6.482080
  0
VERTEX
  8
FOREGROUND
  6
CONTINUOUS
 10
8.499920
 20
6.482080
  0
VERTEX
  8
FOREGROUND
  6
CONTINUOUS
 10
8.499920
 20
-4.517920
  0
VERTEX
  8
FOREGROUND
  6
CONTINUOUS
 10
0.000000
 20
-4.517920
  0
VERTEX
  8
FOREGROUND
  6
CONTINUOUS
 10
0.000000
 20
6.482080
  0
SEQEND
  8
0
  0
SOLID
  8
0
 62
    15
 10
4.040080
 20
3.657720
 11
4.045360
 21
4.403080
 12
4.079680
 22
3.631320
 13
4.084960
 23
4.376240
  0
POLYLINE
  8
0
  6
CONTINUOUS
 66
     1
 40
0.000000
 41
0.000000
  0
VERTEX
  8
0
  6
CONTINUOUS
 10
4.040080
 20
3.657720
  0
VERTEX
  8
0
  6
CONTINUOUS
 10
4.045360
 20
4.403080
  0
VERTEX
  8
0
  6
CONTINUOUS
 10
4.084960
 20
4.376240
  0
VERTEX
  8
0
  6
CONTINUOUS
 10
4.079680
 20
3.631320
  0
VERTEX
  8
0
  6
CONTINUOUS
 10
4.040080
 20
3.657720
  0
SEQEND
  8
0
  0
SOLID
  8
0
 62
    15
 10
4.541680
 20
3.190000
 11
4.547400
 21
3.934920
 12
4.541680
 22
2.497440
 13
4.547400
 23
3.242800
  0
POLYLINE
  8
0
  6
CONTINUOUS
 66
     1
 40
0.000000
 41
0.000000
  0
VERTEX
  8
0
  6
CONTINUOUS
 10
4.541680
 20
3.190000
  0
VERTEX
  8
0
  6
CONTINUOUS
 10
4.547400
 20
3.934920
  0
VERTEX
  8
0
  6
CONTINUOUS
 10
4.547400
 20
3.242800
  0
VERTEX
  8
0
  6
CONTINUOUS
 10
4.541680
 20
2.497440
  0
VERTEX
  8
0
  6
CONTINUOUS
 10
4.541680
 20
3.190000
  0
SEQEND
  8
0
  0
SOLID
  8
0
 62
    15
 10
2.924240
 20
3.745280
 11
2.929520
 21
4.490640
 12
3.683680
 22
3.745280
 13
3.688960
 23
4.490640
  0
POLYLINE
  8
0
  6
CONTINUOUS
 66
     1
 40
0.000000
 41
0.000000
  0
VERTEX
  8
0
  6
CONTINUOUS
 10
2.924240
 20
3.745280
  0
VERTEX
  8
0
  6
CONTINUOUS
 10
2.929520
 20
4.490640
  0
VERTEX
  8
0
  6
CONTINUOUS
 10
3.688960
 20
4.490640
  0
VERTEX
  8
0
  6
CONTINUOUS
 10
3.683680
 20
3.745280
  0
VERTEX
  8
0
  6
CONTINUOUS
 10
2.924240
 20
3.745280
  0
SEQEND
  8
0
  0
SOLID
  8
0
 62
    15
 10
3.683680
 20
3.745280
 11
3.688960
 21
4.490640
 12
3.689400
 22
3.745720
 13
3.694680
 23
4.491080
  0
POLYLINE
  8
0
  6
CONTINUOUS
 66
     1
 40
0.000000
 41
0.000000
  0
VERTEX
  8
0
  6
CONTINUOUS
 10
3.683680
 20
3.745280
  0
VERTEX
  8
0
  6
CONTINUOUS
 10
3.688960
 20
4.490640
  0
VERTEX
  8
0
  6
CONTINUOUS
 10
3.694680
 20
4.491080
  0
VERTEX
  8
0
  6
CONTINUOUS
 10
3.689400
 20
3.745720
  0
VERTEX
  8
0
  6
CONTINUOUS
 10
3.683680
 20
3.745280
  0
SEQEND
  8
0
  0
SOLID
  8
0
 62
    15
 10
3.689400
 20
3.745720
 11
3.694680
 21
4.491080
 12
3.699080
 22
3.697320
 13
3.704360
 23
4.442680
  0
POLYLINE
  8
0
  6
CONTINUOUS
 66
     1
 40
0.000000
 41
0.000000
  0
VERTEX
  8
0
  6
CONTINUOUS
 10
3.689400
 20
3.745720
  0
VERTEX
  8
0
  6
CONTINUOUS
 10
3.694680
 20
4.491080
  0
VERTEX
  8
0
  6
CONTINUOUS
 10
3.704360
 20
4.442680
  0
VERTEX
  8
0
  6
CONTINUOUS
 10
3.699080
 20
3.697320
  0
VERTEX
  8
0
  6
CONTINUOUS
 10
3.689400
 20
3.745720
  0
SEQEND
  8
0
  0
SOLID
  8
0
 62
    15
 10
3.699080
 20
3.697320
 11
3.704360
 21
4.442680
 12
3.725920
 22
3.658160
 13
3.731200
 23
4.403080
  0
POLYLINE
  8
0
  6
CONTINUOUS
 66
     1
 40
0.000000
 41
0.000000
  0
VERTEX
  8
0
  6
CONTINUOUS
 10
3.699080
 20
3.697320
  0
VERTEX
  8
0
  6
CONTINUOUS
 10
3.704360
 20
4.442680
  0
VERTEX
  8
0
  6
CONTINUOUS
 10
3.731200
 20
4.403080
  0
VERTEX
  8
0
  6
CONTINUOUS
 10
3.725920
 20
3.658160
  0
VERTEX
  8
0
  6
CONTINUOUS
 10
3.699080
 20
3.697320
  0
SEQEND
  8
0
  0
SOLID
  8
0
 62
    15
 10
3.725920
 20
3.658160
 11
3.731200
 21
4.403080
 12
3.765080
 22
3.631320
 13
3.770800
 23
4.376680
  0
POLYLINE
  8
0
  6
CONTINUOUS
 66
     1
 40
0.000000
 41
0.000000
  0
VERTEX
  8
0
  6
CONTINUOUS
 10
3.725920
 20
3.658160
  0
VERTEX
  8
0
  6
CONTINUOUS
 10
3.731200
 20
4.403080
  0
VERTEX
  8
0
  6
CONTINUOUS
 10
3.770800
 20
4.376680
  0
VERTEX
  8
0
  6
CONTINUOUS
 10
3.765080
 20
3.631320
  0
VERTEX
  8
0
  6
CONTINUOUS
 10
3.725920
 20
3.658160
  0
SEQEND
  8
0
  0
SOLID
  8
0
 62
    15
 10
3.765080
 20
3.631320
 11
3.770800
 21
4.376680
 12
3.813480
 22
3.621640
 13
3.819200
 23
4.366560
  0
POLYLINE
  8
0
  6
CONTINUOUS
 66
     1
 40
0.000000
 41
0.000000
  0
VERTEX
  8
0
  6
CONTINUOUS
 10
3.765080
 20
3.631320
  0
VERTEX
  8
0
  6
CONTINUOUS
 10
3.770800
 20
4.376680
  0
VERTEX
  8
0
  6
CONTINUOUS
 10
3.819200
 20
4.366560
  0
VERTEX
  8
0
  6
CONTINUOUS
 10
3.813480
 20
3.621640
  0
VERTEX
  8
0
  6
CONTINUOUS
 10
3.765080
 20
3.631320
  0
SEQEND
  8
0
  0
SOLID
  8
0
 62
    15
 10
3.813480
 20
3.621640
 11
3.819200
 21
4.366560
 12
3.861880
 22
3.631320
 13
3.867600
 23
4.376680
  0
POLYLINE
  8
0
  6
CONTINUOUS
 66
     1
 40
0.000000
 41
0.000000
  0
VERTEX
  8
0
  6
CONTINUOUS
 10
3.813480
 20
3.621640
  0
VERTEX
  8
0
  6
CONTINUOUS
 10
3.819200
 20
4.366560
  0
VERTEX
  8
0
  6
CONTINUOUS
 10
3.867600
 20
4.376680
  0
VERTEX
  8
0
  6
CONTINUOUS
 10
3.861880
 20
3.631320
  0
VERTEX
  8
0
  6
CONTINUOUS
 10
3.813480
 20
3.621640
  0
SEQEND
  8
0
  0
SOLID
  8
0
 62
    15
 10
3.861880
 20
3.631320
 11
3.867600
 21
4.376680
 12
3.901480
 22
3.658160
 13
3.907200
 23
4.403080
  0
POLYLINE
  8
0
  6
CONTINUOUS
 66
     1
 40
0.000000
 41
0.000000
  0
VERTEX
  8
0
  6
CONTINUOUS
 10
3.861880
 20
3.631320
  0
VERTEX
  8
0
  6
CONTINUOUS
 10
3.867600
 20
4.376680
  0
VERTEX
  8
0
  6
CONTINUOUS
 10
3.907200
 20
4.403080
  0
VERTEX
  8
0
  6
CONTINUOUS
 10
3.901480
 20
3.658160
  0
VERTEX
  8
0
  6
CONTINUOUS
 10
3.861880
 20
3.631320
  0
SEQEND
  8
0
  0
SOLID
  8
0
 62
    15
 10
3.901480
 20
3.658160
 11
3.907200
 21
4.403080
 12
3.928320
 22
3.697320
 13
3.933600
 23
4.442680
  0
POLYLINE
  8
0
  6
CONTINUOUS
 66
     1
 40
0.000000
 41
0.000000
  0
VERTEX
  8
0
  6
CONTINUOUS
 10
3.901480
 20
3.658160
  0
VERTEX
  8
0
  6
CONTINUOUS
 10
3.907200
 20
4.403080
  0
VERTEX
  8
0
  6
CONTINUOUS
 10
3.933600
 20
4.442680
  0
VERTEX
  8
0
  6
CONTINUOUS
 10
3.928320
 20
3.697320
  0
VERTEX
  8
0
  6
CONTINUOUS
 10
3.901480
 20
3.658160
  0
SEQEND
  8
0
  0
SOLID
  8
0
 62
    15
 10
3.928320
 20
3.697320
 11
3.933600
 21
4.442680
 12
3.938000
 22
3.745720
 13
3.943280
 23
4.491080
  0
POLYLINE
  8
0
  6
CONTINUOUS
 66
     1
 40
0.000000
 41
0.000000
  0
VERTEX
  8
0
  6
CONTINUOUS
 10
3.928320
 20
3.697320
  0
VERTEX
  8
0
  6
CONTINUOUS
 10
3.933600
 20
4.442680
  0
VERTEX
  8
0
  6
CONTINUOUS
 10
3.943280
 20
4.491080
  0
VERTEX
  8
0
  6
CONTINUOUS
 10
3.938000
 20
3.745720
  0
VERTEX
  8
0
  6
CONTINUOUS
 10
3.928320
 20
3.697320
  0
SEQEND
  8
0
  0
SOLID
  8
0
 62
    15
 10
3.937560
 20
3.745720
 11
3.943280
 21
4.491080
 12
4.003560
 22
3.745720
 13
4.009280
 23
4.491080
  0
POLYLINE
  8
0
  6
CONTINUOUS
 66
     1
 40
0.000000
 41
0.000000
  0
VERTEX
  8
0
  6
CONTINUOUS
 10
3.937560
 20
3.745720
  0
VERTEX
  8
0
  6
CONTINUOUS
 10
3.943280
 20
4.491080
  0
VERTEX
  8
0
  6
CONTINUOUS
 10
4.009280
 20
4.491080
  0
VERTEX
  8
0
  6
CONTINUOUS
 10
4.003560
 20
3.745720
  0
VERTEX
  8
0
  6
CONTINUOUS
 10
3.937560
 20
3.745720
  0
SEQEND
  8
0
  0
POLYLINE
  8
0
  6
CONTINUOUS
 66
     1
 40
0.000000
 41
0.000000
  0
VERTEX
  8
0
  6
CONTINUOUS
 10
3.943280
 20
4.491080
  0
VERTEX
  8
0
  6
CONTINUOUS
 10
3.938000
 20
3.745720
  0
VERTEX
  8
0
  6
CONTINUOUS
 10
3.943280
 20
4.491080
  0
SEQEND
  8
0
  0
SOLID
  8
0
 62
    15
 10
4.003560
 20
3.745720
 11
4.009280
 21
4.491080
 12
4.013240
 22
3.697320
 13
4.018960
 23
4.442680
  0
POLYLINE
  8
0
  6
CONTINUOUS
 66
     1
 40
0.000000
 41
0.000000
  0
VERTEX
  8
0
  6
CONTINUOUS
 10
4.003560
 20
3.745720
  0
VERTEX
  8
0
  6
CONTINUOUS
 10
4.009280
 20
4.491080
  0
VERTEX
  8
0
  6
CONTINUOUS
 10
4.018960
 20
4.442680
  0
VERTEX
  8
0
  6
CONTINUOUS
 10
4.013240
 20
3.697320
  0
VERTEX
  8
0
  6
CONTINUOUS
 10
4.003560
 20
3.745720
  0
SEQEND
  8
0
  0
SOLID
  8
0
 62
    15
 10
4.013240
 20
3.697320
 11
4.018960
 21
4.442680
 12
4.040080
 22
3.657720
 13
4.045360
 23
4.403080
  0
POLYLINE
  8
0
  6
CONTINUOUS
 66
     1
 40
0.000000
 41
0.000000
  0
VERTEX
  8
0
  6
CONTINUOUS
 10
4.013240
 20
3.697320
  0
VERTEX
  8
0
  6
CONTINUOUS
 10
4.018960
 20
4.442680
  0
VERTEX
  8
0
  6
CONTINUOUS
 10
4.045360
 20
4.403080
  0
VERTEX
  8
0
  6
CONTINUOUS
 10
4.040080
 20
3.657720
  0
VERTEX
  8
0
  6
CONTINUOUS
 10
4.013240
 20
3.697320
  0
SEQEND
  8
0
  0
SOLID
  8
0
 62
    15
 10
5.039320
 20
3.432440
 11
5.045040
 21
4.177800
 12
5.039320
 22
3.190000
 13
5.045040
 23
3.934920
  0
POLYLINE
  8
0
  6
CONTINUOUS
 66
     1
 40
0.000000
 41
0.000000
  0
VERTEX
  8
0
  6
CONTINUOUS
 10
5.039320
 20
3.432440
  0
VERTEX
  8
0
  6
CONTINUOUS
 10
5.045040
 20
4.177800
  0
VERTEX
  8
0
  6
CONTINUOUS
 10
5.045040
 20
3.934920
  0
VERTEX
  8
0
  6
CONTINUOUS
 10
5.039320
 20
3.190000
  0
VERTEX
  8
0
  6
CONTINUOUS
 10
5.039320
 20
3.432440
  0
SEQEND
  8
0
  0
SOLID
  8
0
 62
    15
 10
4.079680
 20
3.631320
 11
4.084960
 21
4.376240
 12
4.128080
 22
3.621200
 13
4.133360
 23
4.366560
  0
POLYLINE
  8
0
  6
CONTINUOUS
 66
     1
 40
0.000000
 41
0.000000
  0
VERTEX
  8
0
  6
CONTINUOUS
 10
4.079680
 20
3.631320
  0
VERTEX
  8
0
  6
CONTINUOUS
 10
4.084960
 20
4.376240
  0
VERTEX
  8
0
  6
CONTINUOUS
 10
4.133360
 20
4.366560
  0
VERTEX
  8
0
  6
CONTINUOUS
 10
4.128080
 20
3.621200
  0
VERTEX
  8
0
  6
CONTINUOUS
 10
4.079680
 20
3.631320
  0
SEQEND
  8
0
  0
SOLID
  8
0
 62
    15
 10
4.128080
 20
3.621200
 11
4.133360
 21
4.366560
 12
4.176480
 22
3.631320
 13
4.181760
 23
4.376240
  0
POLYLINE
  8
0
  6
CONTINUOUS
 66
     1
 40
0.000000
 41
0.000000
  0
VERTEX
  8
0
  6
CONTINUOUS
 10
4.128080
 20
3.621200
  0
VERTEX
  8
0
  6
CONTINUOUS
 10
4.133360
 20
4.366560
  0
VERTEX
  8
0
  6
CONTINUOUS
 10
4.181760
 20
4.376240
  0
VERTEX
  8
0
  6
CONTINUOUS
 10
4.176480
 20
3.631320
  0
VERTEX
  8
0
  6
CONTINUOUS
 10
4.128080
 20
3.621200
  0
SEQEND
  8
0
  0
SOLID
  8
0
 62
    15
 10
4.176480
 20
3.631320
 11
4.181760
 21
4.376240
 12
4.215640
 22
3.657720
 13
4.221360
 23
4.403080
  0
POLYLINE
  8
0
  6
CONTINUOUS
 66
     1
 40
0.000000
 41
0.000000
  0
VERTEX
  8
0
  6
CONTINUOUS
 10
4.176480
 20
3.631320
  0
VERTEX
  8
0
  6
CONTINUOUS
 10
4.181760
 20
4.376240
  0
VERTEX
  8
0
  6
CONTINUOUS
 10
4.221360
 20
4.403080
  0
VERTEX
  8
0
  6
CONTINUOUS
 10
4.215640
 20
3.657720
  0
VERTEX
  8
0
  6
CONTINUOUS
 10
4.176480
 20
3.631320
  0
SEQEND
  8
0
  0
SOLID
  8
0
 62
    15
 10
4.215640
 20
3.657720
 11
4.221360
 21
4.403080
 12
4.242480
 22
3.697320
 13
4.248200
 23
4.442680
  0
POLYLINE
  8
0
  6
CONTINUOUS
 66
     1
 40
0.000000
 41
0.000000
  0
VERTEX
  8
0
  6
CONTINUOUS
 10
4.215640
 20
3.657720
  0
VERTEX
  8
0
  6
CONTINUOUS
 10
4.221360
 20
4.403080
  0
VERTEX
  8
0
  6
CONTINUOUS
 10
4.248200
 20
4.442680
  0
VERTEX
  8
0
  6
CONTINUOUS
 10
4.242480
 20
3.697320
  0
VERTEX
  8
0
  6
CONTINUOUS
 10
4.215640
 20
3.657720
  0
SEQEND
  8
0
  0
SOLID
  8
0
 62
    15
 10
4.242480
 20
3.697320
 11
4.248200
 21
4.442680
 12
4.252160
 22
3.745720
 13
4.257880
 23
4.491080
  0
POLYLINE
  8
0
  6
CONTINUOUS
 66
     1
 40
0.000000
 41
0.000000
  0
VERTEX
  8
0
  6
CONTINUOUS
 10
4.242480
 20
3.697320
  0
VERTEX
  8
0
  6
CONTINUOUS
 10
4.248200
 20
4.442680
  0
VERTEX
  8
0
  6
CONTINUOUS
 10
4.257880
 20
4.491080
  0
VERTEX
  8
0
  6
CONTINUOUS
 10
4.252160
 20
3.745720
  0
VERTEX
  8
0
  6
CONTINUOUS
 10
4.242480
 20
3.697320
  0
SEQEND
  8
0
  0
SOLID
  8
0
 62
    15
 10
4.252160
 20
3.745720
 11
4.257880
 21
4.491080
 12
4.416720
 22
3.745720
 13
4.422440
 23
4.491080
  0
POLYLINE
  8
0
  6
CONTINUOUS
 66
     1
 40
0.000000
 41
0.000000
  0
VERTEX
  8
0
  6
CONTINUOUS
 10
4.252160
 20
3.745720
  0
VERTEX
  8
0
  6
CONTINUOUS
 10
4.257880
 20
4.491080
  0
VERTEX
  8
0
  6
CONTINUOUS
 10
4.422440
 20
4.491080
  0
VERTEX
  8
0
  6
CONTINUOUS
 10
4.416720
 20
3.745720
  0
VERTEX
  8
0
  6
CONTINUOUS
 10
4.252160
 20
3.745720
  0
SEQEND
  8
0
  0
SOLID
  8
0
 62
    15
 10
4.416720
 20
3.745720
 11
4.422440
 21
4.491080
 12
4.425960
 22
3.697760
 13
4.431240
 23
4.443120
  0
POLYLINE
  8
0
  6
CONTINUOUS
 66
     1
 40
0.000000
 41
0.000000
  0
VERTEX
  8
0
  6
CONTINUOUS
 10
4.416720
 20
3.745720
  0
VERTEX
  8
0
  6
CONTINUOUS
 10
4.422440
 20
4.491080
  0
VERTEX
  8
0
  6
CONTINUOUS
 10
4.431240
 20
4.443120
  0
VERTEX
  8
0
  6
CONTINUOUS
 10
4.425960
 20
3.697760
  0
VERTEX
  8
0
  6
CONTINUOUS
 10
4.416720
 20
3.745720
  0
SEQEND
  8
0
  0
SOLID
  8
0
 62
    15
 10
4.425960
 20
3.697760
 11
4.431240
 21
4.443120
 12
4.444880
 22
3.648040
 13
4.450600
 23
4.393400
  0
POLYLINE
  8
0
  6
CONTINUOUS
 66
     1
 40
0.000000
 41
0.000000
  0
VERTEX
  8
0
  6
CONTINUOUS
 10
4.425960
 20
3.697760
  0
VERTEX
  8
0
  6
CONTINUOUS
 10
4.431240
 20
4.443120
  0
VERTEX
  8
0
  6
CONTINUOUS
 10
4.450600
 20
4.393400
  0
VERTEX
  8
0
  6
CONTINUOUS
 10
4.444880
 20
3.648040
  0
VERTEX
  8
0
  6
CONTINUOUS
 10
4.425960
 20
3.697760
  0
SEQEND
  8
0
  0
SOLID
  8
0
 62
    15
 10
4.444880
 20
3.648040
 11
4.450600
 21
4.393400
 12
4.475240
 22
3.598320
 13
4.480960
 23
4.343680
  0
POLYLINE
  8
0
  6
CONTINUOUS
 66
     1
 40
0.000000
 41
0.000000
  0
VERTEX
  8
0
  6
CONTINUOUS
 10
4.444880
 20
3.648040
  0
VERTEX
  8
0
  6
CONTINUOUS
 10
4.450600
 20
4.393400
  0
VERTEX
  8
0
  6
CONTINUOUS
 10
4.480960
 20
4.343680
  0
VERTEX
  8
0
  6
CONTINUOUS
 10
4.475240
 20
3.598320
  0
VERTEX
  8
0
  6
CONTINUOUS
 10
4.444880
 20
3.648040
  0
SEQEND
  8
0
  0
SOLID
  8
0
 62
    15
 10
4.475240
 20
3.598320
 11
4.480960
 21
4.343680
 12
4.517040
 22
3.551240
 13
4.522320
 23
4.296600
  0
POLYLINE
  8
0
  6
CONTINUOUS
 66
     1
 40
0.000000
 41
0.000000
  0
VERTEX
  8
0
  6
CONTINUOUS
 10
4.475240
 20
3.598320
  0
VERTEX
  8
0
  6
CONTINUOUS
 10
4.480960
 20
4.343680
  0
VERTEX
  8
0
  6
CONTINUOUS
 10
4.522320
 20
4.296600
  0
VERTEX
  8
0
  6
CONTINUOUS
 10
4.517040
 20
3.551240
  0
VERTEX
  8
0
  6
CONTINUOUS
 10
4.475240
 20
3.598320
  0
SEQEND
  8
0
  0
SOLID
  8
0
 62
    15
 10
4.517040
 20
3.551240
 11
4.522320
 21
4.296600
 12
4.570720
 22
3.509000
 13
4.576000
 23
4.254360
  0
POLYLINE
  8
0
  6
CONTINUOUS
 66
     1
 40
0.000000
 41
0.000000
  0
VERTEX
  8
0
  6
CONTINUOUS
 10
4.517040
 20
3.551240
  0
VERTEX
  8
0
  6
CONTINUOUS
 10
4.522320
 20
4.296600
  0
VERTEX
  8
0
  6
CONTINUOUS
 10
4.576000
 20
4.254360
  0
VERTEX
  8
0
  6
CONTINUOUS
 10
4.570720
 20
3.509000
  0
VERTEX
  8
0
  6
CONTINUOUS
 10
4.517040
 20
3.551240
  0
SEQEND
  8
0
  0
SOLID
  8
0
 62
    15
 10
4.570720
 20
3.509000
 11
4.576000
 21
4.254360
 12
4.637160
 22
3.473800
 13
4.642880
 23
4.219160
  0
POLYLINE
  8
0
  6
CONTINUOUS
 66
     1
 40
0.000000
 41
0.000000
  0
VERTEX
  8
0
  6
CONTINUOUS
 10
4.570720
 20
3.509000
  0
VERTEX
  8
0
  6
CONTINUOUS
 10
4.576000
 20
4.254360
  0
VERTEX
  8
0
  6
CONTINUOUS
 10
4.642880
 20
4.219160
  0
VERTEX
  8
0
  6
CONTINUOUS
 10
4.637160
 20
3.473800
  0
VERTEX
  8
0
  6
CONTINUOUS
 10
4.570720
 20
3.509000
  0
SEQEND
  8
0
  0
SOLID
  8
0
 62
    15
 10
4.637160
 20
3.473800
 11
4.642880
 21
4.219160
 12
4.716800
 22
3.447840
 13
4.722520
 23
4.192760
  0
POLYLINE
  8
0
  6
CONTINUOUS
 66
     1
 40
0.000000
 41
0.000000
  0
VERTEX
  8
0
  6
CONTINUOUS
 10
4.637160
 20
3.473800
  0
VERTEX
  8
0
  6
CONTINUOUS
 10
4.642880
 20
4.219160
  0
VERTEX
  8
0
  6
CONTINUOUS
 10
4.722520
 20
4.192760
  0
VERTEX
  8
0
  6
CONTINUOUS
 10
4.716800
 20
3.447840
  0
VERTEX
  8
0
  6
CONTINUOUS
 10
4.637160
 20
3.473800
  0
SEQEND
  8
0
  0
SOLID
  8
0
 62
    15
 10
4.716800
 20
3.447840
 11
4.722520
 21
4.192760
 12
4.810960
 22
3.432880
 13
4.816240
 23
4.178240
  0
POLYLINE
  8
0
  6
CONTINUOUS
 66
     1
 40
0.000000
 41
0.000000
  0
VERTEX
  8
0
  6
CONTINUOUS
 10
4.716800
 20
3.447840
  0
VERTEX
  8
0
  6
CONTINUOUS
 10
4.722520
 20
4.192760
  0
VERTEX
  8
0
  6
CONTINUOUS
 10
4.816240
 20
4.178240
  0
VERTEX
  8
0
  6
CONTINUOUS
 10
4.810960
 20
3.432880
  0
VERTEX
  8
0
  6
CONTINUOUS
 10
4.716800
 20
3.447840
  0
SEQEND
  8
0
  0
SOLID
  8
0
 62
    15
 10
4.810960
 20
3.432880
 11
4.816240
 21
4.178240
 12
5.040640
 22
3.432440
 13
5.046360
 23
4.177800
  0
POLYLINE
  8
0
  6
CONTINUOUS
 66
     1
 40
0.000000
 41
0.000000
  0
VERTEX
  8
0
  6
CONTINUOUS
 10
4.810960
 20
3.432880
  0
VERTEX
  8
0
  6
CONTINUOUS
 10
4.816240
 20
4.178240
  0
VERTEX
  8
0
  6
CONTINUOUS
 10
5.046360
 20
4.177800
  0
VERTEX
  8
0
  6
CONTINUOUS
 10
5.040640
 20
3.432440
  0
VERTEX
  8
0
  6
CONTINUOUS
 10
4.810960
 20
3.432880
  0
SEQEND
  8
0
  0
POLYLINE
  8
0
  6
CONTINUOUS
 66
     1
 40
0.000000
 41
0.000000
  0
VERTEX
  8
0
  6
CONTINUOUS
 10
5.039320
 20
3.432440
  0
VERTEX
  8
0
  6
CONTINUOUS
 10
5.039320
 20
3.190000
  0
VERTEX
  8
0
  6
CONTINUOUS
 10
4.541680
 20
3.190000
  0
VERTEX
  8
0
  6
CONTINUOUS
 10
4.541680
 20
2.497440
  0
VERTEX
  8
0
  6
CONTINUOUS
 10
2.924240
 20
2.497440
  0
VERTEX
  8
0
  6
CONTINUOUS
 10
2.924240
 20
3.745280
  0
VERTEX
  8
0
  6
CONTINUOUS
 10
3.683680
 20
3.745280
  0
VERTEX
  8
0
  6
CONTINUOUS
 10
3.689400
 20
3.745720
  0
VERTEX
  8
0
  6
CONTINUOUS
 10
3.699080
 20
3.697320
  0
VERTEX
  8
0
  6
CONTINUOUS
 10
3.725920
 20
3.658160
  0
VERTEX
  8
0
  6
CONTINUOUS
 10
3.765080
 20
3.631320
  0
VERTEX
  8
0
  6
CONTINUOUS
 10
3.813480
 20
3.621640
  0
VERTEX
  8
0
  6
CONTINUOUS
 10
3.861880
 20
3.631320
  0
VERTEX
  8
0
  6
CONTINUOUS
 10
3.901480
 20
3.658160
  0
VERTEX
  8
0
  6
CONTINUOUS
 10
3.928320
 20
3.697320
  0
VERTEX
  8
0
  6
CONTINUOUS
 10
3.938000
 20
3.745720
  0
VERTEX
  8
0
  6
CONTINUOUS
 10
3.937560
 20
3.745720
  0
VERTEX
  8
0
  6
CONTINUOUS
 10
4.003560
 20
3.745720
  0
VERTEX
  8
0
  6
CONTINUOUS
 10
4.013240
 20
3.697320
  0
VERTEX
  8
0
  6
CONTINUOUS
 10
4.040080
 20
3.657720
  0
VERTEX
  8
0
  6
CONTINUOUS
 10
4.079680
 20
3.631320
  0
VERTEX
  8
0
  6
CONTINUOUS
 10
4.128080
 20
3.621200
  0
VERTEX
  8
0
  6
CONTINUOUS
 10
4.176480
 20
3.631320
  0
VERTEX
  8
0
  6
CONTINUOUS
 10
4.215640
 20
3.657720
  0
VERTEX
  8
0
  6
CONTINUOUS
 10
4.242480
 20
3.697320
  0
VERTEX
  8
0
  6
CONTINUOUS
 10
4.252160
 20
3.745720
  0
VERTEX
  8
0
  6
CONTINUOUS
 10
4.416720
 20
3.745720
  0
VERTEX
  8
0
  6
CONTINUOUS
 10
4.425960
 20
3.697760
  0
VERTEX
  8
0
  6
CONTINUOUS
 10
4.444880
 20
3.648040
  0
VERTEX
  8
0
  6
CONTINUOUS
 10
4.475240
 20
3.598320
  0
VERTEX
  8
0
  6
CONTINUOUS
 10
4.517040
 20
3.551240
  0
VERTEX
  8
0
  6
CONTINUOUS
 10
4.570720
 20
3.509000
  0
VERTEX
  8
0
  6
CONTINUOUS
 10
4.637160
 20
3.473800
  0
VERTEX
  8
0
  6
CONTINUOUS
 10
4.716800
 20
3.447840
  0
VERTEX
  8
0
  6
CONTINUOUS
 10
4.810960
 20
3.432880
  0
VERTEX
  8
0
  6
CONTINUOUS
 10
5.040640
 20
3.432440
  0
VERTEX
  8
0
  6
CONTINUOUS
 10
5.039320
 20
3.432440
  0
SEQEND
  8
0
  0
TEXT
  8
0
 10
3.643200
 20
2.226400
 40
0.138063
  1
BA  1061
 41
1.000000
  7
SN0
 71
     0
 72
     5
 11
4.326609
 21
2.226400
  0
TEXT
  8
0
 10
3.459720
 20
2.034560
 40
0.138063
  1
1-1/4" x 2-1/8"
 41
1.000000
  7
SN0
 71
     0
 72
     5
 11
4.509216
 21
2.034560
  0
POLYLINE
  8
0
  6
CONTINUOUS
 66
     1
 40
0.014080
 41
0.014080
  0
VERTEX
  8
0
  6
CONTINUOUS
 10
7.452720
 20
3.636160
  0
VERTEX
  8
0
  6
CONTINUOUS
 10
7.452720
 20
3.393280
  0
VERTEX
  8
0
  6
CONTINUOUS
 10
6.955080
 20
3.393280
  0
VERTEX
  8
0
  6
CONTINUOUS
 10
6.955080
 20
2.701160
  0
VERTEX
  8
0
  6
CONTINUOUS
 10
5.337200
 20
2.701160
  0
VERTEX
  8
0
  6
CONTINUOUS
 10
5.337200
 20
3.949000
  0
VERTEX
  8
0
  6
CONTINUOUS
 10
6.102360
 20
3.949440
  0
VERTEX
  8
0
  6
CONTINUOUS
 10
6.102800
 20
3.936680
  0
VERTEX
  8
0
  6
CONTINUOUS
 10
6.108080
 20
3.912480
  0
VERTEX
  8
0
  6
CONTINUOUS
 10
6.117320
 20
3.890040
  0
VERTEX
  8
0
  6
CONTINUOUS
 10
6.130960
 20
3.870680
  0
VERTEX
  8
0
  6
CONTINUOUS
 10
6.147680
 20
3.853520
  0
VERTEX
  8
0
  6
CONTINUOUS
 10
6.167480
 20
3.840320
  0
VERTEX
  8
0
  6
CONTINUOUS
 10
6.189920
 20
3.831080
  0
VERTEX
  8
0
  6
CONTINUOUS
 10
6.214120
 20
3.825800
  0
VERTEX
  8
0
  6
CONTINUOUS
 10
6.239640
 20
3.825800
  0
VERTEX
  8
0
  6
CONTINUOUS
 10
6.263840
 20
3.831080
  0
VERTEX
  8
0
  6
CONTINUOUS
 10
6.286280
 20
3.840320
  0
VERTEX
  8
0
  6
CONTINUOUS
 10
6.305640
 20
3.853520
  0
VERTEX
  8
0
  6
CONTINUOUS
 10
6.322800
 20
3.870680
  0
VERTEX
  8
0
  6
CONTINUOUS
 10
6.336000
 20
3.890040
  0
VERTEX
  8
0
  6
CONTINUOUS
 10
6.345240
 20
3.912480
  0
VERTEX
  8
0
  6
CONTINUOUS
 10
6.350520
 20
3.936680
  0
VERTEX
  8
0
  6
CONTINUOUS
 10
6.350960
 20
3.949440
  0
VERTEX
  8
0
  6
CONTINUOUS
 10
6.350520
 20
3.949440
  0
VERTEX
  8
0
  6
CONTINUOUS
 10
6.416520
 20
3.949440
  0
VERTEX
  8
0
  6
CONTINUOUS
 10
6.416960
 20
3.936680
  0
VERTEX
  8
0
  6
CONTINUOUS
 10
6.422240
 20
3.912480
  0
VERTEX
  8
0
  6
CONTINUOUS
 10
6.431480
 20
3.890040
  0
VERTEX
  8
0
  6
CONTINUOUS
 10
6.445120
 20
3.870240
  0
VERTEX
  8
0
  6
CONTINUOUS
 10
6.461840
 20
3.853520
  0
VERTEX
  8
0
  6
CONTINUOUS
 10
6.481640
 20
3.839880
  0
VERTEX
  8
0
  6
CONTINUOUS
 10
6.504080
 20
3.830640
  0
VERTEX
  8
0
  6
CONTINUOUS
 10
6.528280
 20
3.825360
  0
VERTEX
  8
0
  6
CONTINUOUS
 10
6.553800
 20
3.825360
  0
VERTEX
  8
0
  6
CONTINUOUS
 10
6.578000
 20
3.830640
  0
VERTEX
  8
0
  6
CONTINUOUS
 10
6.600440
 20
3.839880
  0
VERTEX
  8
0
  6
CONTINUOUS
 10
6.620240
 20
3.853520
  0
VERTEX
  8
0
  6
CONTINUOUS
 10
6.636960
 20
3.870240
  0
VERTEX
  8
0
  6
CONTINUOUS
 10
6.650600
 20
3.890040
  0
VERTEX
  8
0
  6
CONTINUOUS
 10
6.659840
 20
3.912480
  0
VERTEX
  8
0
  6
CONTINUOUS
 10
6.665120
 20
3.936680
  0
VERTEX
  8
0
  6
CONTINUOUS
 10
6.665560
 20
3.949440
  0
VERTEX
  8
0
  6
CONTINUOUS
 10
6.829680
 20
3.949440
  0
VERTEX
  8
0
  6
CONTINUOUS
 10
6.835400
 20
3.913800
  0
VERTEX
  8
0
  6
CONTINUOUS
 10
6.842440
 20
3.889160
  0
VERTEX
  8
0
  6
CONTINUOUS
 10
6.857840
 20
3.851760
  0
VERTEX
  8
0
  6
CONTINUOUS
 10
6.879840
 20
3.814360
  0
VERTEX
  8
0
  6
CONTINUOUS
 10
6.907560
 20
3.777840
  0
VERTEX
  8
0
  6
CONTINUOUS
 10
6.942320
 20
3.743960
  0
VERTEX
  8
0
  6
CONTINUOUS
 10
6.969160
 20
3.722400
  0
VERTEX
  8
0
  6
CONTINUOUS
 10
7.015360
 20
3.693800
  0
VERTEX
  8
0
  6
CONTINUOUS
 10
7.050120
 20
3.677080
  0
VERTEX
  8
0
  6
CONTINUOUS
 10
7.088400
 20
3.663000
  0
VERTEX
  8
0
  6
CONTINUOUS
 10
7.130200
 20
3.651120
  0
VERTEX
  8
0
  6
CONTINUOUS
 10
7.175080
 20
3.642320
  0
VERTEX
  8
0
  6
CONTINUOUS
 10
7.223920
 20
3.636600
  0
VERTEX
  8
0
  6
CONTINUOUS
 10
7.453600
 20
3.636160
  0
VERTEX
  8
0
  6
CONTINUOUS
 10
7.452720
 20
3.636160
  0
SEQEND
  8
0
  0
TEXT
  8
0
 10
5.797000
 20
3.087480
 40
0.138063
  1
BA  1061
 41
1.000000
  7
SN0
 71
     0
 72
     5
 11
6.480409
 21
3.087480
  0
TEXT
  8
0
 10
5.613520
 20
2.896080
 40
0.138063
  1
1-1/4" x 2-1/8"
 41
1.000000
  7
SN0
 71
     0
 72
     5
 11
6.663016
 21
2.896080
  0
ENDSEC
  0
EOF
