  0
SECTION
  2
HEADER
  9
$ACADVER
  1
AC1006
  9
$EXTMIN
 10
2.746040
 20
0.782320
  9
$EXTMAX
 10
6.267800
 20
4.008840
  9
$LTSCALE
 40
0.044000
  9
$PDMODE
 70
    35
  9
$PDSIZE
 40
0.035200
  0
ENDSEC
  0
SECTION
  2
TABLES
  0
TABLE
  2
LTYPE
 70
     9
  0
LTYPE
  2
CONTINUOUS
 70
    64
  3
Solid line
 72
    65
 73
     0
 40
0.000000
  0
LTYPE
  2
DASHED
 70
    64
  3
__ __ __ __ __ __ __ __ __ __ __ __ __ __ __
 72
    65
 73
     2
 40
0.000330
 49
0.000220
 49
-0.000110
  0
LTYPE
  2
HIDDEN
 70
    64
  3
 _ _ _ _ _ _ _ _ _ _ _ _ _ _ _ _ _ _ _ _ _ _
 72
    65
 73
     2
 40
0.000165
 49
0.000110
 49
-0.000055
  0
LTYPE
  2
CENTER
 70
    64
  3
____ _ ____ _ ____ _ ____ _ ____ _ ____ _ ____
 72
    65
 73
     4
 40
0.000880
 49
0.000550
 49
-0.000110
 49
0.000110
 49
-0.000110
  0
LTYPE
  2
PHANTOM
 70
    64
  3
_____ _ _ _____ _ _ _____ _ _ _____ _ _ ____
 72
    65
 73
     6
 40
0.001100
 49
0.000550
 49
-0.000110
 49
0.000110
 49
-0.000110
 49
0.000110
 49
-0.000110
  0
LTYPE
  2
DOT
 70
    64
  3
...............................................
 72
    65
 73
     2
 40
0.000110
 49
0.000000
 49
-0.000110
  0
LTYPE
  2
DASHDOT
 70
    64
  3
__ . __ . __ . __ . __ . __ . __ . __ . __ . __
 72
    65
 73
     4
 40
0.000440
 49
0.000220
 49
-0.000110
 49
0.000000
 49
-0.000110
  0
LTYPE
  2
BORDER
 70
    64
  3
__ __ . __ __ . __ __ . __ __ . __ __ . __ __
 72
    65
 73
     6
 40
0.000770
 49
0.000220
 49
-0.000110
 49
0.000220
 49
-0.000110
 49
0.000000
 49
-0.000110
  0
LTYPE
  2
DIVIDE
 70
    64
  3
__ . . __ . . __ . . __ . . __ . . __ . . __
 72
    65
 73
     6
 40
0.000550
 49
0.000220
 49
-0.000110
 49
0.000000
 49
-0.000110
 49
0.000000
 49
-0.000110
  0
LTYPE
  2
DOTDOT
 70
    64
  3
 . .  . .  . .  . .  . .  . . 
 72
    65
 73
     5
 40
0.000242
 49
-0.000110
 49
0.000000
 49
-0.000110
 49
0.000000
 49
-0.000110
  0
ENDTAB
  0
TABLE
  2
STYLE
 70
     2
  0
STYLE
 70
     0
  2
SN0
 40
0.000000
 41
0.000440
 50
0.000000
 71
     0
 42
0.000000
  3
ROMAND
  0
STYLE
 70
    68
  2
SV0
 40
0.000000
 41
0.000440
 50
0.000000
 71
     0
 42
0.000000
  3
ROMAND
  0
ENDTAB
  0
TABLE
  2
LAYER
 70
     3
  0
LAYER
  2
FOREGROUND
 70
    64
 62
     7
  6
CONTINUOUS
  0
LAYER
  2
BACKGROUND
 70
    65
 62
    -7
  6
CONTINUOUS
  0
LAYER
  2
0
 70
    64
 62
     7
  6
CONTINUOUS
  0
ENDTAB
  0
ENDSEC
  0
SECTION
  2
ENTITIES
  0
POLYLINE
  8
FOREGROUND
  6
CONTINUOUS
 66
     1
 40
0.000000
 41
0.000000
  0
VERTEX
  8
FOREGROUND
  6
CONTINUOUS
 10
0.000000
 20
4.791160
  0
VERTEX
  8
FOREGROUND
  6
CONTINUOUS
 10
8.499920
 20
4.791160
  0
VERTEX
  8
FOREGROUND
  6
CONTINUOUS
 10
8.499920
 20
-6.208840
  0
VERTEX
  8
FOREGROUND
  6
CONTINUOUS
 10
0.000000
 20
-6.208840
  0
VERTEX
  8
FOREGROUND
  6
CONTINUOUS
 10
0.000000
 20
4.791160
  0
SEQEND
  8
0
  0
POLYLINE
  8
FOREGROUND
  6
CONTINUOUS
 66
     1
 40
0.000000
 41
0.000000
  0
VERTEX
  8
FOREGROUND
  6
CONTINUOUS
 10
0.000000
 20
4.791160
  0
VERTEX
  8
FOREGROUND
  6
CONTINUOUS
 10
8.499920
 20
4.791160
  0
VERTEX
  8
FOREGROUND
  6
CONTINUOUS
 10
8.499920
 20
-6.208840
  0
VERTEX
  8
FOREGROUND
  6
CONTINUOUS
 10
0.000000
 20
-6.208840
  0
VERTEX
  8
FOREGROUND
  6
CONTINUOUS
 10
0.000000
 20
4.791160
  0
SEQEND
  8
0
  0
TEXT
  8
0
 10
4.169880
 20
3.586880
 40
0.138014
  1
BA  1059
 41
1.000000
  7
SN0
 71
     0
 72
     5
 11
4.852397
 21
3.586880
  0
TEXT
  8
0
 10
4.060320
 20
3.395480
 40
0.138014
  1
3/4" x 3-1/2"
 41
1.000000
  7
SN0
 71
     0
 72
     5
 11
4.961186
 21
3.395480
  0
POLYLINE
  8
0
  6
CONTINUOUS
 66
     1
 40
0.014080
 41
0.014080
  0
VERTEX
  8
0
  6
CONTINUOUS
 10
2.757480
 20
3.817880
  0
VERTEX
  8
0
  6
CONTINUOUS
 10
2.757480
 20
3.252920
  0
VERTEX
  8
0
  6
CONTINUOUS
 10
6.260320
 20
3.252920
  0
VERTEX
  8
0
  6
CONTINUOUS
 10
6.260320
 20
3.820520
  0
VERTEX
  8
0
  6
CONTINUOUS
 10
6.259440
 20
3.839000
  0
VERTEX
  8
0
  6
CONTINUOUS
 10
6.256800
 20
3.856600
  0
VERTEX
  8
0
  6
CONTINUOUS
 10
6.252400
 20
3.874200
  0
VERTEX
  8
0
  6
CONTINUOUS
 10
6.246240
 20
3.890480
  0
VERTEX
  8
0
  6
CONTINUOUS
 10
6.238760
 20
3.906320
  0
VERTEX
  8
0
  6
CONTINUOUS
 10
6.229520
 20
3.921280
  0
VERTEX
  8
0
  6
CONTINUOUS
 10
6.219400
 20
3.934920
  0
VERTEX
  8
0
  6
CONTINUOUS
 10
6.207520
 20
3.947680
  0
VERTEX
  8
0
  6
CONTINUOUS
 10
6.194760
 20
3.959560
  0
VERTEX
  8
0
  6
CONTINUOUS
 10
6.181120
 20
3.969680
  0
VERTEX
  8
0
  6
CONTINUOUS
 10
6.166160
 20
3.978920
  0
VERTEX
  8
0
  6
CONTINUOUS
 10
6.150320
 20
3.986400
  0
VERTEX
  8
0
  6
CONTINUOUS
 10
6.134040
 20
3.992560
  0
VERTEX
  8
0
  6
CONTINUOUS
 10
6.116440
 20
3.996960
  0
VERTEX
  8
0
  6
CONTINUOUS
 10
6.098840
 20
3.999600
  0
VERTEX
  8
0
  6
CONTINUOUS
 10
6.080360
 20
4.000480
  0
VERTEX
  8
0
  6
CONTINUOUS
 10
5.510560
 20
4.000480
  0
VERTEX
  8
0
  6
CONTINUOUS
 10
5.510120
 20
4.000040
  0
VERTEX
  8
0
  6
CONTINUOUS
 10
5.510120
 20
3.805560
  0
VERTEX
  8
0
  6
CONTINUOUS
 10
5.324880
 20
3.805560
  0
VERTEX
  8
0
  6
CONTINUOUS
 10
5.324880
 20
3.998720
  0
VERTEX
  8
0
  6
CONTINUOUS
 10
5.324440
 20
4.001360
  0
VERTEX
  8
0
  6
CONTINUOUS
 10
3.694680
 20
4.001360
  0
VERTEX
  8
0
  6
CONTINUOUS
 10
3.694680
 20
3.805560
  0
VERTEX
  8
0
  6
CONTINUOUS
 10
3.509440
 20
3.805560
  0
VERTEX
  8
0
  6
CONTINUOUS
 10
3.509440
 20
4.000480
  0
VERTEX
  8
0
  6
CONTINUOUS
 10
3.509000
 20
4.000480
  0
VERTEX
  8
0
  6
CONTINUOUS
 10
2.939200
 20
4.000480
  0
VERTEX
  8
0
  6
CONTINUOUS
 10
2.920720
 20
3.999600
  0
VERTEX
  8
0
  6
CONTINUOUS
 10
2.902680
 20
3.996960
  0
VERTEX
  8
0
  6
CONTINUOUS
 10
2.885520
 20
3.992560
  0
VERTEX
  8
0
  6
CONTINUOUS
 10
2.869240
 20
3.986400
  0
VERTEX
  8
0
  6
CONTINUOUS
 10
2.853400
 20
3.978920
  0
VERTEX
  8
0
  6
CONTINUOUS
 10
2.838440
 20
3.969680
  0
VERTEX
  8
0
  6
CONTINUOUS
 10
2.824360
 20
3.959560
  0
VERTEX
  8
0
  6
CONTINUOUS
 10
2.811600
 20
3.947680
  0
VERTEX
  8
0
  6
CONTINUOUS
 10
2.800160
 20
3.934920
  0
VERTEX
  8
0
  6
CONTINUOUS
 10
2.789600
 20
3.921280
  0
VERTEX
  8
0
  6
CONTINUOUS
 10
2.780800
 20
3.906320
  0
VERTEX
  8
0
  6
CONTINUOUS
 10
2.772880
 20
3.890480
  0
VERTEX
  8
0
  6
CONTINUOUS
 10
2.766720
 20
3.874200
  0
VERTEX
  8
0
  6
CONTINUOUS
 10
2.762320
 20
3.856600
  0
VERTEX
  8
0
  6
CONTINUOUS
 10
2.759680
 20
3.839000
  0
VERTEX
  8
0
  6
CONTINUOUS
 10
2.758800
 20
3.820520
  0
VERTEX
  8
0
  6
CONTINUOUS
 10
2.757480
 20
3.817880
  0
SEQEND
  8
0
  0
TEXT
  8
0
 10
4.158880
 20
1.017280
 40
0.138014
  1
BA  1059
 41
1.000000
  7
SN0
 71
     0
 72
     5
 11
4.841397
 21
1.017280
  0
TEXT
  8
0
 10
4.048880
 20
0.825440
 40
0.138014
  1
3/4" x 3-1/2"
 41
1.000000
  7
SN0
 71
     0
 72
     5
 11
4.949746
 21
0.825440
  0
SOLID
  8
0
 62
    15
 10
5.313880
 20
1.818520
 11
5.318280
 21
2.552000
 12
5.499120
 22
1.818520
 13
5.503520
 23
2.552000
  0
POLYLINE
  8
0
  6
CONTINUOUS
 66
     1
 40
0.000000
 41
0.000000
  0
VERTEX
  8
0
  6
CONTINUOUS
 10
5.313880
 20
1.818520
  0
VERTEX
  8
0
  6
CONTINUOUS
 10
5.318280
 20
2.552000
  0
VERTEX
  8
0
  6
CONTINUOUS
 10
5.503520
 20
2.552000
  0
VERTEX
  8
0
  6
CONTINUOUS
 10
5.499120
 20
1.818520
  0
VERTEX
  8
0
  6
CONTINUOUS
 10
5.313880
 20
1.818520
  0
SEQEND
  8
0
  0
SOLID
  8
0
 62
    15
 10
2.746920
 20
1.830840
 11
2.751320
 21
2.564320
 12
2.748240
 22
1.833480
 13
2.752640
 23
2.566960
  0
POLYLINE
  8
0
  6
CONTINUOUS
 66
     1
 40
0.000000
 41
0.000000
  0
VERTEX
  8
0
  6
CONTINUOUS
 10
2.746920
 20
1.830840
  0
VERTEX
  8
0
  6
CONTINUOUS
 10
2.751320
 20
2.564320
  0
VERTEX
  8
0
  6
CONTINUOUS
 10
2.752640
 20
2.566960
  0
VERTEX
  8
0
  6
CONTINUOUS
 10
2.748240
 20
1.833480
  0
VERTEX
  8
0
  6
CONTINUOUS
 10
2.746920
 20
1.830840
  0
SEQEND
  8
0
  0
SOLID
  8
0
 62
    15
 10
2.762320
 20
1.903880
 11
2.766720
 21
2.637360
 12
2.778600
 22
1.934240
 13
2.783440
 23
2.667720
  0
POLYLINE
  8
0
  6
CONTINUOUS
 66
     1
 40
0.000000
 41
0.000000
  0
VERTEX
  8
0
  6
CONTINUOUS
 10
2.762320
 20
1.903880
  0
VERTEX
  8
0
  6
CONTINUOUS
 10
2.766720
 20
2.637360
  0
VERTEX
  8
0
  6
CONTINUOUS
 10
2.783440
 20
2.667720
  0
VERTEX
  8
0
  6
CONTINUOUS
 10
2.778600
 20
1.934240
  0
VERTEX
  8
0
  6
CONTINUOUS
 10
2.762320
 20
1.903880
  0
SEQEND
  8
0
  0
SOLID
  8
0
 62
    15
 10
2.778600
 20
1.934240
 11
2.783440
 21
2.667720
 12
2.801040
 22
1.961080
 13
2.805440
 23
2.694560
  0
POLYLINE
  8
0
  6
CONTINUOUS
 66
     1
 40
0.000000
 41
0.000000
  0
VERTEX
  8
0
  6
CONTINUOUS
 10
2.778600
 20
1.934240
  0
VERTEX
  8
0
  6
CONTINUOUS
 10
2.783440
 20
2.667720
  0
VERTEX
  8
0
  6
CONTINUOUS
 10
2.805440
 20
2.694560
  0
VERTEX
  8
0
  6
CONTINUOUS
 10
2.801040
 20
1.961080
  0
VERTEX
  8
0
  6
CONTINUOUS
 10
2.778600
 20
1.934240
  0
SEQEND
  8
0
  0
SOLID
  8
0
 62
    15
 10
2.801040
 20
1.961080
 11
2.805440
 21
2.694560
 12
2.827440
 22
1.983080
 13
2.831840
 23
2.716560
  0
POLYLINE
  8
0
  6
CONTINUOUS
 66
     1
 40
0.000000
 41
0.000000
  0
VERTEX
  8
0
  6
CONTINUOUS
 10
2.801040
 20
1.961080
  0
VERTEX
  8
0
  6
CONTINUOUS
 10
2.805440
 20
2.694560
  0
VERTEX
  8
0
  6
CONTINUOUS
 10
2.831840
 20
2.716560
  0
VERTEX
  8
0
  6
CONTINUOUS
 10
2.827440
 20
1.983080
  0
VERTEX
  8
0
  6
CONTINUOUS
 10
2.801040
 20
1.961080
  0
SEQEND
  8
0
  0
SOLID
  8
0
 62
    15
 10
2.827440
 20
1.983080
 11
2.831840
 21
2.716560
 12
2.858240
 22
1.999360
 13
2.862640
 23
2.732840
  0
POLYLINE
  8
0
  6
CONTINUOUS
 66
     1
 40
0.000000
 41
0.000000
  0
VERTEX
  8
0
  6
CONTINUOUS
 10
2.827440
 20
1.983080
  0
VERTEX
  8
0
  6
CONTINUOUS
 10
2.831840
 20
2.716560
  0
VERTEX
  8
0
  6
CONTINUOUS
 10
2.862640
 20
2.732840
  0
VERTEX
  8
0
  6
CONTINUOUS
 10
2.858240
 20
1.999360
  0
VERTEX
  8
0
  6
CONTINUOUS
 10
2.827440
 20
1.983080
  0
SEQEND
  8
0
  0
SOLID
  8
0
 62
    15
 10
2.858240
 20
1.999360
 11
2.862640
 21
2.732840
 12
2.891680
 22
2.009920
 13
2.896520
 23
2.743400
  0
POLYLINE
  8
0
  6
CONTINUOUS
 66
     1
 40
0.000000
 41
0.000000
  0
VERTEX
  8
0
  6
CONTINUOUS
 10
2.858240
 20
1.999360
  0
VERTEX
  8
0
  6
CONTINUOUS
 10
2.862640
 20
2.732840
  0
VERTEX
  8
0
  6
CONTINUOUS
 10
2.896520
 20
2.743400
  0
VERTEX
  8
0
  6
CONTINUOUS
 10
2.891680
 20
2.009920
  0
VERTEX
  8
0
  6
CONTINUOUS
 10
2.858240
 20
1.999360
  0
SEQEND
  8
0
  0
SOLID
  8
0
 62
    15
 10
2.891680
 20
2.009920
 11
2.896520
 21
2.743400
 12
2.928200
 22
2.013440
 13
2.932600
 23
2.746920
  0
POLYLINE
  8
0
  6
CONTINUOUS
 66
     1
 40
0.000000
 41
0.000000
  0
VERTEX
  8
0
  6
CONTINUOUS
 10
2.891680
 20
2.009920
  0
VERTEX
  8
0
  6
CONTINUOUS
 10
2.896520
 20
2.743400
  0
VERTEX
  8
0
  6
CONTINUOUS
 10
2.932600
 20
2.746920
  0
VERTEX
  8
0
  6
CONTINUOUS
 10
2.928200
 20
2.013440
  0
VERTEX
  8
0
  6
CONTINUOUS
 10
2.891680
 20
2.009920
  0
SEQEND
  8
0
  0
SOLID
  8
0
 62
    15
 10
2.928200
 20
2.013440
 11
2.932600
 21
2.746920
 12
3.498000
 22
2.013440
 13
3.502400
 23
2.746920
  0
POLYLINE
  8
0
  6
CONTINUOUS
 66
     1
 40
0.000000
 41
0.000000
  0
VERTEX
  8
0
  6
CONTINUOUS
 10
2.928200
 20
2.013440
  0
VERTEX
  8
0
  6
CONTINUOUS
 10
2.932600
 20
2.746920
  0
VERTEX
  8
0
  6
CONTINUOUS
 10
3.502400
 20
2.746920
  0
VERTEX
  8
0
  6
CONTINUOUS
 10
3.498000
 20
2.013440
  0
VERTEX
  8
0
  6
CONTINUOUS
 10
2.928200
 20
2.013440
  0
SEQEND
  8
0
  0
SOLID
  8
0
 62
    15
 10
3.498000
 20
2.013440
 11
3.502400
 21
2.746920
 12
3.498880
 22
2.013440
 13
3.503280
 23
2.746920
  0
POLYLINE
  8
0
  6
CONTINUOUS
 66
     1
 40
0.000000
 41
0.000000
  0
VERTEX
  8
0
  6
CONTINUOUS
 10
3.498000
 20
2.013440
  0
VERTEX
  8
0
  6
CONTINUOUS
 10
3.502400
 20
2.746920
  0
VERTEX
  8
0
  6
CONTINUOUS
 10
3.503280
 20
2.746920
  0
VERTEX
  8
0
  6
CONTINUOUS
 10
3.498880
 20
2.013440
  0
VERTEX
  8
0
  6
CONTINUOUS
 10
3.498000
 20
2.013440
  0
SEQEND
  8
0
  0
SOLID
  8
0
 62
    15
 10
3.498880
 20
2.013440
 11
3.503280
 21
2.746920
 12
3.498880
 22
1.818520
 13
3.503280
 23
2.552000
  0
POLYLINE
  8
0
  6
CONTINUOUS
 66
     1
 40
0.000000
 41
0.000000
  0
VERTEX
  8
0
  6
CONTINUOUS
 10
3.498880
 20
2.013440
  0
VERTEX
  8
0
  6
CONTINUOUS
 10
3.503280
 20
2.746920
  0
VERTEX
  8
0
  6
CONTINUOUS
 10
3.503280
 20
2.552000
  0
VERTEX
  8
0
  6
CONTINUOUS
 10
3.498880
 20
1.818520
  0
VERTEX
  8
0
  6
CONTINUOUS
 10
3.498880
 20
2.013440
  0
SEQEND
  8
0
  0
SOLID
  8
0
 62
    15
 10
3.498880
 20
1.818520
 11
3.503280
 21
2.552000
 12
3.684120
 22
1.818520
 13
3.688520
 23
2.552000
  0
POLYLINE
  8
0
  6
CONTINUOUS
 66
     1
 40
0.000000
 41
0.000000
  0
VERTEX
  8
0
  6
CONTINUOUS
 10
3.498880
 20
1.818520
  0
VERTEX
  8
0
  6
CONTINUOUS
 10
3.503280
 20
2.552000
  0
VERTEX
  8
0
  6
CONTINUOUS
 10
3.688520
 20
2.552000
  0
VERTEX
  8
0
  6
CONTINUOUS
 10
3.684120
 20
1.818520
  0
VERTEX
  8
0
  6
CONTINUOUS
 10
3.498880
 20
1.818520
  0
SEQEND
  8
0
  0
SOLID
  8
0
 62
    15
 10
3.683680
 20
2.014320
 11
3.688520
 21
2.747800
 12
5.313440
 22
2.014320
 13
5.317840
 23
2.747800
  0
POLYLINE
  8
0
  6
CONTINUOUS
 66
     1
 40
0.000000
 41
0.000000
  0
VERTEX
  8
0
  6
CONTINUOUS
 10
3.683680
 20
2.014320
  0
VERTEX
  8
0
  6
CONTINUOUS
 10
3.688520
 20
2.747800
  0
VERTEX
  8
0
  6
CONTINUOUS
 10
5.317840
 20
2.747800
  0
VERTEX
  8
0
  6
CONTINUOUS
 10
5.313440
 20
2.014320
  0
VERTEX
  8
0
  6
CONTINUOUS
 10
3.683680
 20
2.014320
  0
SEQEND
  8
0
  0
SOLID
  8
0
 62
    15
 10
5.313880
 20
2.011680
 11
5.318280
 21
2.745160
 12
5.313880
 22
1.818520
 13
5.318280
 23
2.552000
  0
POLYLINE
  8
0
  6
CONTINUOUS
 66
     1
 40
0.000000
 41
0.000000
  0
VERTEX
  8
0
  6
CONTINUOUS
 10
5.313880
 20
2.011680
  0
VERTEX
  8
0
  6
CONTINUOUS
 10
5.318280
 20
2.745160
  0
VERTEX
  8
0
  6
CONTINUOUS
 10
5.318280
 20
2.552000
  0
VERTEX
  8
0
  6
CONTINUOUS
 10
5.313880
 20
1.818520
  0
VERTEX
  8
0
  6
CONTINUOUS
 10
5.313880
 20
2.011680
  0
SEQEND
  8
0
  0
SOLID
  8
0
 62
    15
 10
2.748240
 20
1.833480
 11
2.752640
 21
2.566960
 12
2.751760
 22
1.870000
 13
2.756160
 23
2.603480
  0
POLYLINE
  8
0
  6
CONTINUOUS
 66
     1
 40
0.000000
 41
0.000000
  0
VERTEX
  8
0
  6
CONTINUOUS
 10
2.748240
 20
1.833480
  0
VERTEX
  8
0
  6
CONTINUOUS
 10
2.752640
 20
2.566960
  0
VERTEX
  8
0
  6
CONTINUOUS
 10
2.756160
 20
2.603480
  0
VERTEX
  8
0
  6
CONTINUOUS
 10
2.751760
 20
1.870000
  0
VERTEX
  8
0
  6
CONTINUOUS
 10
2.748240
 20
1.833480
  0
SEQEND
  8
0
  0
SOLID
  8
0
 62
    15
 10
5.313440
 20
2.014320
 11
5.317840
 21
2.747800
 12
5.313880
 22
2.011680
 13
5.318280
 23
2.745160
  0
POLYLINE
  8
0
  6
CONTINUOUS
 66
     1
 40
0.000000
 41
0.000000
  0
VERTEX
  8
0
  6
CONTINUOUS
 10
5.313440
 20
2.014320
  0
VERTEX
  8
0
  6
CONTINUOUS
 10
5.317840
 20
2.747800
  0
VERTEX
  8
0
  6
CONTINUOUS
 10
5.318280
 20
2.745160
  0
VERTEX
  8
0
  6
CONTINUOUS
 10
5.313880
 20
2.011680
  0
VERTEX
  8
0
  6
CONTINUOUS
 10
5.313440
 20
2.014320
  0
SEQEND
  8
0
  0
SOLID
  8
0
 62
    15
 10
5.499120
 20
2.013000
 11
5.503520
 21
2.746480
 12
5.499560
 22
2.013440
 13
5.504400
 23
2.746920
  0
POLYLINE
  8
0
  6
CONTINUOUS
 66
     1
 40
0.000000
 41
0.000000
  0
VERTEX
  8
0
  6
CONTINUOUS
 10
5.499120
 20
2.013000
  0
VERTEX
  8
0
  6
CONTINUOUS
 10
5.503520
 20
2.746480
  0
VERTEX
  8
0
  6
CONTINUOUS
 10
5.504400
 20
2.746920
  0
VERTEX
  8
0
  6
CONTINUOUS
 10
5.499560
 20
2.013440
  0
VERTEX
  8
0
  6
CONTINUOUS
 10
5.499120
 20
2.013000
  0
SEQEND
  8
0
  0
SOLID
  8
0
 62
    15
 10
5.499560
 20
2.013440
 11
5.504400
 21
2.746920
 12
6.069800
 22
2.013440
 13
6.074200
 23
2.746920
  0
POLYLINE
  8
0
  6
CONTINUOUS
 66
     1
 40
0.000000
 41
0.000000
  0
VERTEX
  8
0
  6
CONTINUOUS
 10
5.499560
 20
2.013440
  0
VERTEX
  8
0
  6
CONTINUOUS
 10
5.504400
 20
2.746920
  0
VERTEX
  8
0
  6
CONTINUOUS
 10
6.074200
 20
2.746920
  0
VERTEX
  8
0
  6
CONTINUOUS
 10
6.069800
 20
2.013440
  0
VERTEX
  8
0
  6
CONTINUOUS
 10
5.499560
 20
2.013440
  0
SEQEND
  8
0
  0
SOLID
  8
0
 62
    15
 10
6.069800
 20
2.013440
 11
6.074200
 21
2.746920
 12
6.105880
 22
2.009920
 13
6.110280
 23
2.743400
  0
POLYLINE
  8
0
  6
CONTINUOUS
 66
     1
 40
0.000000
 41
0.000000
  0
VERTEX
  8
0
  6
CONTINUOUS
 10
6.069800
 20
2.013440
  0
VERTEX
  8
0
  6
CONTINUOUS
 10
6.074200
 20
2.746920
  0
VERTEX
  8
0
  6
CONTINUOUS
 10
6.110280
 20
2.743400
  0
VERTEX
  8
0
  6
CONTINUOUS
 10
6.105880
 20
2.009920
  0
VERTEX
  8
0
  6
CONTINUOUS
 10
6.069800
 20
2.013440
  0
SEQEND
  8
0
  0
SOLID
  8
0
 62
    15
 10
6.105880
 20
2.009920
 11
6.110280
 21
2.743400
 12
6.139760
 22
1.999360
 13
6.144160
 23
2.732840
  0
POLYLINE
  8
0
  6
CONTINUOUS
 66
     1
 40
0.000000
 41
0.000000
  0
VERTEX
  8
0
  6
CONTINUOUS
 10
6.105880
 20
2.009920
  0
VERTEX
  8
0
  6
CONTINUOUS
 10
6.110280
 20
2.743400
  0
VERTEX
  8
0
  6
CONTINUOUS
 10
6.144160
 20
2.732840
  0
VERTEX
  8
0
  6
CONTINUOUS
 10
6.139760
 20
1.999360
  0
VERTEX
  8
0
  6
CONTINUOUS
 10
6.105880
 20
2.009920
  0
SEQEND
  8
0
  0
SOLID
  8
0
 62
    15
 10
6.139760
 20
1.999360
 11
6.144160
 21
2.732840
 12
6.170120
 22
1.982640
 13
6.174960
 23
2.716120
  0
POLYLINE
  8
0
  6
CONTINUOUS
 66
     1
 40
0.000000
 41
0.000000
  0
VERTEX
  8
0
  6
CONTINUOUS
 10
6.139760
 20
1.999360
  0
VERTEX
  8
0
  6
CONTINUOUS
 10
6.144160
 20
2.732840
  0
VERTEX
  8
0
  6
CONTINUOUS
 10
6.174960
 20
2.716120
  0
VERTEX
  8
0
  6
CONTINUOUS
 10
6.170120
 20
1.982640
  0
VERTEX
  8
0
  6
CONTINUOUS
 10
6.139760
 20
1.999360
  0
SEQEND
  8
0
  0
SOLID
  8
0
 62
    15
 10
6.170120
 20
1.982640
 11
6.174960
 21
2.716120
 12
6.196960
 22
1.960640
 13
6.201360
 23
2.694120
  0
POLYLINE
  8
0
  6
CONTINUOUS
 66
     1
 40
0.000000
 41
0.000000
  0
VERTEX
  8
0
  6
CONTINUOUS
 10
6.170120
 20
1.982640
  0
VERTEX
  8
0
  6
CONTINUOUS
 10
6.174960
 20
2.716120
  0
VERTEX
  8
0
  6
CONTINUOUS
 10
6.201360
 20
2.694120
  0
VERTEX
  8
0
  6
CONTINUOUS
 10
6.196960
 20
1.960640
  0
VERTEX
  8
0
  6
CONTINUOUS
 10
6.170120
 20
1.982640
  0
SEQEND
  8
0
  0
SOLID
  8
0
 62
    15
 10
6.196960
 20
1.960640
 11
6.201360
 21
2.694120
 12
6.218960
 22
1.934240
 13
6.223360
 23
2.667720
  0
POLYLINE
  8
0
  6
CONTINUOUS
 66
     1
 40
0.000000
 41
0.000000
  0
VERTEX
  8
0
  6
CONTINUOUS
 10
6.196960
 20
1.960640
  0
VERTEX
  8
0
  6
CONTINUOUS
 10
6.201360
 20
2.694120
  0
VERTEX
  8
0
  6
CONTINUOUS
 10
6.223360
 20
2.667720
  0
VERTEX
  8
0
  6
CONTINUOUS
 10
6.218960
 20
1.934240
  0
VERTEX
  8
0
  6
CONTINUOUS
 10
6.196960
 20
1.960640
  0
SEQEND
  8
0
  0
SOLID
  8
0
 62
    15
 10
6.218960
 20
1.934240
 11
6.223360
 21
2.667720
 12
6.235680
 22
1.903440
 13
6.240080
 23
2.636920
  0
POLYLINE
  8
0
  6
CONTINUOUS
 66
     1
 40
0.000000
 41
0.000000
  0
VERTEX
  8
0
  6
CONTINUOUS
 10
6.218960
 20
1.934240
  0
VERTEX
  8
0
  6
CONTINUOUS
 10
6.223360
 20
2.667720
  0
VERTEX
  8
0
  6
CONTINUOUS
 10
6.240080
 20
2.636920
  0
VERTEX
  8
0
  6
CONTINUOUS
 10
6.235680
 20
1.903440
  0
VERTEX
  8
0
  6
CONTINUOUS
 10
6.218960
 20
1.934240
  0
SEQEND
  8
0
  0
SOLID
  8
0
 62
    15
 10
6.245800
 20
1.869560
 11
6.250640
 21
2.603040
 12
6.249760
 22
1.833480
 13
6.254160
 23
2.566960
  0
POLYLINE
  8
0
  6
CONTINUOUS
 66
     1
 40
0.000000
 41
0.000000
  0
VERTEX
  8
0
  6
CONTINUOUS
 10
6.245800
 20
1.869560
  0
VERTEX
  8
0
  6
CONTINUOUS
 10
6.250640
 20
2.603040
  0
VERTEX
  8
0
  6
CONTINUOUS
 10
6.254160
 20
2.566960
  0
VERTEX
  8
0
  6
CONTINUOUS
 10
6.249760
 20
1.833480
  0
VERTEX
  8
0
  6
CONTINUOUS
 10
6.245800
 20
1.869560
  0
SEQEND
  8
0
  0
SOLID
  8
0
 62
    15
 10
6.235680
 20
1.903440
 11
6.240080
 21
2.636920
 12
6.245800
 22
1.869560
 13
6.250640
 23
2.603040
  0
POLYLINE
  8
0
  6
CONTINUOUS
 66
     1
 40
0.000000
 41
0.000000
  0
VERTEX
  8
0
  6
CONTINUOUS
 10
6.235680
 20
1.903440
  0
VERTEX
  8
0
  6
CONTINUOUS
 10
6.240080
 20
2.636920
  0
VERTEX
  8
0
  6
CONTINUOUS
 10
6.250640
 20
2.603040
  0
VERTEX
  8
0
  6
CONTINUOUS
 10
6.245800
 20
1.869560
  0
VERTEX
  8
0
  6
CONTINUOUS
 10
6.235680
 20
1.903440
  0
SEQEND
  8
0
  0
SOLID
  8
0
 62
    15
 10
6.249760
 20
1.833480
 11
6.254160
 21
2.566960
 12
6.249760
 22
1.265880
 13
6.254160
 23
1.999360
  0
POLYLINE
  8
0
  6
CONTINUOUS
 66
     1
 40
0.000000
 41
0.000000
  0
VERTEX
  8
0
  6
CONTINUOUS
 10
6.249760
 20
1.833480
  0
VERTEX
  8
0
  6
CONTINUOUS
 10
6.254160
 20
2.566960
  0
VERTEX
  8
0
  6
CONTINUOUS
 10
6.254160
 20
1.999360
  0
VERTEX
  8
0
  6
CONTINUOUS
 10
6.249760
 20
1.265880
  0
VERTEX
  8
0
  6
CONTINUOUS
 10
6.249760
 20
1.833480
  0
SEQEND
  8
0
  0
SOLID
  8
0
 62
    15
 10
2.751760
 20
1.870000
 11
2.756160
 21
2.603480
 12
2.762320
 22
1.903880
 13
2.766720
 23
2.637360
  0
POLYLINE
  8
0
  6
CONTINUOUS
 66
     1
 40
0.000000
 41
0.000000
  0
VERTEX
  8
0
  6
CONTINUOUS
 10
2.751760
 20
1.870000
  0
VERTEX
  8
0
  6
CONTINUOUS
 10
2.756160
 20
2.603480
  0
VERTEX
  8
0
  6
CONTINUOUS
 10
2.766720
 20
2.637360
  0
VERTEX
  8
0
  6
CONTINUOUS
 10
2.762320
 20
1.903880
  0
VERTEX
  8
0
  6
CONTINUOUS
 10
2.751760
 20
1.870000
  0
SEQEND
  8
0
  0
POLYLINE
  8
0
  6
CONTINUOUS
 66
     1
 40
0.000000
 41
0.000000
  0
VERTEX
  8
0
  6
CONTINUOUS
 10
2.748240
 20
1.833480
  0
VERTEX
  8
0
  6
CONTINUOUS
 10
2.751760
 20
1.870000
  0
VERTEX
  8
0
  6
CONTINUOUS
 10
2.762320
 20
1.903880
  0
VERTEX
  8
0
  6
CONTINUOUS
 10
2.778600
 20
1.934240
  0
VERTEX
  8
0
  6
CONTINUOUS
 10
2.801040
 20
1.961080
  0
VERTEX
  8
0
  6
CONTINUOUS
 10
2.827440
 20
1.983080
  0
VERTEX
  8
0
  6
CONTINUOUS
 10
2.858240
 20
1.999360
  0
VERTEX
  8
0
  6
CONTINUOUS
 10
2.891680
 20
2.009920
  0
VERTEX
  8
0
  6
CONTINUOUS
 10
2.928200
 20
2.013440
  0
VERTEX
  8
0
  6
CONTINUOUS
 10
3.498000
 20
2.013440
  0
VERTEX
  8
0
  6
CONTINUOUS
 10
3.498880
 20
2.013440
  0
VERTEX
  8
0
  6
CONTINUOUS
 10
3.498880
 20
1.818520
  0
VERTEX
  8
0
  6
CONTINUOUS
 10
3.684120
 20
1.818520
  0
VERTEX
  8
0
  6
CONTINUOUS
 10
3.684120
 20
2.011680
  0
VERTEX
  8
0
  6
CONTINUOUS
 10
3.683680
 20
2.014320
  0
VERTEX
  8
0
  6
CONTINUOUS
 10
5.313440
 20
2.014320
  0
VERTEX
  8
0
  6
CONTINUOUS
 10
5.313880
 20
2.011680
  0
VERTEX
  8
0
  6
CONTINUOUS
 10
5.313880
 20
1.818520
  0
VERTEX
  8
0
  6
CONTINUOUS
 10
5.499120
 20
1.818520
  0
VERTEX
  8
0
  6
CONTINUOUS
 10
5.499120
 20
2.013000
  0
VERTEX
  8
0
  6
CONTINUOUS
 10
5.499560
 20
2.013440
  0
VERTEX
  8
0
  6
CONTINUOUS
 10
6.069800
 20
2.013440
  0
VERTEX
  8
0
  6
CONTINUOUS
 10
6.105880
 20
2.009920
  0
VERTEX
  8
0
  6
CONTINUOUS
 10
6.139760
 20
1.999360
  0
VERTEX
  8
0
  6
CONTINUOUS
 10
6.170120
 20
1.982640
  0
VERTEX
  8
0
  6
CONTINUOUS
 10
6.196960
 20
1.960640
  0
VERTEX
  8
0
  6
CONTINUOUS
 10
6.218960
 20
1.934240
  0
VERTEX
  8
0
  6
CONTINUOUS
 10
6.235680
 20
1.903440
  0
VERTEX
  8
0
  6
CONTINUOUS
 10
6.245800
 20
1.869560
  0
VERTEX
  8
0
  6
CONTINUOUS
 10
6.249760
 20
1.833480
  0
VERTEX
  8
0
  6
CONTINUOUS
 10
6.249760
 20
1.265880
  0
VERTEX
  8
0
  6
CONTINUOUS
 10
2.746920
 20
1.265880
  0
VERTEX
  8
0
  6
CONTINUOUS
 10
2.746920
 20
1.830840
  0
VERTEX
  8
0
  6
CONTINUOUS
 10
2.748240
 20
1.833480
  0
SEQEND
  8
0
  0
LINE
  8
0
  6
CONTINUOUS
 10
4.500320
 20
2.013880
 11
4.500320
 21
2.760560
  0
ENDSEC
  0
EOF
