  0
SECTION
  2
HEADER
  9
$ACADVER
  1
AC1006
  9
$EXTMIN
 10
4.323880
 20
0.789360
  9
$EXTMAX
 10
7.785800
 20
4.001800
  9
$LTSCALE
 40
0.044000
  9
$PDMODE
 70
    35
  9
$PDSIZE
 40
0.035200
  0
ENDSEC
  0
SECTION
  2
TABLES
  0
TABLE
  2
LTYPE
 70
     9
  0
LTYPE
  2
CONTINUOUS
 70
    64
  3
Solid line
 72
    65
 73
     0
 40
0.000000
  0
LTYPE
  2
DASHED
 70
    64
  3
__ __ __ __ __ __ __ __ __ __ __ __ __ __ __
 72
    65
 73
     2
 40
0.000330
 49
0.000220
 49
-0.000110
  0
LTYPE
  2
HIDDEN
 70
    64
  3
 _ _ _ _ _ _ _ _ _ _ _ _ _ _ _ _ _ _ _ _ _ _
 72
    65
 73
     2
 40
0.000165
 49
0.000110
 49
-0.000055
  0
LTYPE
  2
CENTER
 70
    64
  3
____ _ ____ _ ____ _ ____ _ ____ _ ____ _ ____
 72
    65
 73
     4
 40
0.000880
 49
0.000550
 49
-0.000110
 49
0.000110
 49
-0.000110
  0
LTYPE
  2
PHANTOM
 70
    64
  3
_____ _ _ _____ _ _ _____ _ _ _____ _ _ ____
 72
    65
 73
     6
 40
0.001100
 49
0.000550
 49
-0.000110
 49
0.000110
 49
-0.000110
 49
0.000110
 49
-0.000110
  0
LTYPE
  2
DOT
 70
    64
  3
...............................................
 72
    65
 73
     2
 40
0.000110
 49
0.000000
 49
-0.000110
  0
LTYPE
  2
DASHDOT
 70
    64
  3
__ . __ . __ . __ . __ . __ . __ . __ . __ . __
 72
    65
 73
     4
 40
0.000440
 49
0.000220
 49
-0.000110
 49
0.000000
 49
-0.000110
  0
LTYPE
  2
BORDER
 70
    64
  3
__ __ . __ __ . __ __ . __ __ . __ __ . __ __
 72
    65
 73
     6
 40
0.000770
 49
0.000220
 49
-0.000110
 49
0.000220
 49
-0.000110
 49
0.000000
 49
-0.000110
  0
LTYPE
  2
DIVIDE
 70
    64
  3
__ . . __ . . __ . . __ . . __ . . __ . . __
 72
    65
 73
     6
 40
0.000550
 49
0.000220
 49
-0.000110
 49
0.000000
 49
-0.000110
 49
0.000000
 49
-0.000110
  0
LTYPE
  2
DOTDOT
 70
    64
  3
 . .  . .  . .  . .  . .  . . 
 72
    65
 73
     5
 40
0.000242
 49
-0.000110
 49
0.000000
 49
-0.000110
 49
0.000000
 49
-0.000110
  0
ENDTAB
  0
TABLE
  2
STYLE
 70
     2
  0
STYLE
 70
     0
  2
SN0
 40
0.000000
 41
0.000440
 50
0.000000
 71
     0
 42
0.000000
  3
ROMAND
  0
STYLE
 70
    68
  2
SV0
 40
0.000000
 41
0.000440
 50
0.000000
 71
     0
 42
0.000000
  3
ROMAND
  0
ENDTAB
  0
TABLE
  2
LAYER
 70
     3
  0
LAYER
  2
FOREGROUND
 70
    64
 62
     7
  6
CONTINUOUS
  0
LAYER
  2
BACKGROUND
 70
    65
 62
    -7
  6
CONTINUOUS
  0
LAYER
  2
0
 70
    64
 62
     7
  6
CONTINUOUS
  0
ENDTAB
  0
ENDSEC
  0
SECTION
  2
ENTITIES
  0
POLYLINE
  8
FOREGROUND
  6
CONTINUOUS
 66
     1
 40
0.000000
 41
0.000000
  0
VERTEX
  8
FOREGROUND
  6
CONTINUOUS
 10
0.000000
 20
4.791160
  0
VERTEX
  8
FOREGROUND
  6
CONTINUOUS
 10
8.499920
 20
4.791160
  0
VERTEX
  8
FOREGROUND
  6
CONTINUOUS
 10
8.499920
 20
-6.208840
  0
VERTEX
  8
FOREGROUND
  6
CONTINUOUS
 10
0.000000
 20
-6.208840
  0
VERTEX
  8
FOREGROUND
  6
CONTINUOUS
 10
0.000000
 20
4.791160
  0
SEQEND
  8
0
  0
POLYLINE
  8
FOREGROUND
  6
CONTINUOUS
 66
     1
 40
0.000000
 41
0.000000
  0
VERTEX
  8
FOREGROUND
  6
CONTINUOUS
 10
0.000000
 20
4.791160
  0
VERTEX
  8
FOREGROUND
  6
CONTINUOUS
 10
8.499920
 20
4.791160
  0
VERTEX
  8
FOREGROUND
  6
CONTINUOUS
 10
8.499920
 20
-6.208840
  0
VERTEX
  8
FOREGROUND
  6
CONTINUOUS
 10
0.000000
 20
-6.208840
  0
VERTEX
  8
FOREGROUND
  6
CONTINUOUS
 10
0.000000
 20
4.791160
  0
SEQEND
  8
0
  0
SOLID
  8
0
 62
    15
 10
4.388560
 20
1.241240
 11
4.384600
 21
1.977800
 12
4.388560
 22
1.442760
 13
4.384600
 23
2.178880
  0
POLYLINE
  8
0
  6
CONTINUOUS
 66
     1
 40
0.000000
 41
0.000000
  0
VERTEX
  8
0
  6
CONTINUOUS
 10
4.388560
 20
1.241240
  0
VERTEX
  8
0
  6
CONTINUOUS
 10
4.384600
 20
1.977800
  0
VERTEX
  8
0
  6
CONTINUOUS
 10
4.384600
 20
2.178880
  0
VERTEX
  8
0
  6
CONTINUOUS
 10
4.388560
 20
1.442760
  0
VERTEX
  8
0
  6
CONTINUOUS
 10
4.388560
 20
1.241240
  0
SEQEND
  8
0
  0
SOLID
  8
0
 62
    15
 10
7.543360
 20
1.676400
 11
7.539840
 21
2.412520
 12
7.785800
 22
1.676400
 13
7.781840
 23
2.412520
  0
POLYLINE
  8
0
  6
CONTINUOUS
 66
     1
 40
0.000000
 41
0.000000
  0
VERTEX
  8
0
  6
CONTINUOUS
 10
7.543360
 20
1.676400
  0
VERTEX
  8
0
  6
CONTINUOUS
 10
7.539840
 20
2.412520
  0
VERTEX
  8
0
  6
CONTINUOUS
 10
7.781840
 20
2.412520
  0
VERTEX
  8
0
  6
CONTINUOUS
 10
7.785800
 20
1.676400
  0
VERTEX
  8
0
  6
CONTINUOUS
 10
7.543360
 20
1.676400
  0
SEQEND
  8
0
  0
SOLID
  8
0
 62
    15
 10
7.374400
 20
1.927200
 11
7.370440
 21
2.663760
 12
7.543360
 22
1.807520
 13
7.539840
 23
2.544080
  0
POLYLINE
  8
0
  6
CONTINUOUS
 66
     1
 40
0.000000
 41
0.000000
  0
VERTEX
  8
0
  6
CONTINUOUS
 10
7.374400
 20
1.927200
  0
VERTEX
  8
0
  6
CONTINUOUS
 10
7.370440
 20
2.663760
  0
VERTEX
  8
0
  6
CONTINUOUS
 10
7.539840
 20
2.544080
  0
VERTEX
  8
0
  6
CONTINUOUS
 10
7.543360
 20
1.807520
  0
VERTEX
  8
0
  6
CONTINUOUS
 10
7.374400
 20
1.927200
  0
SEQEND
  8
0
  0
SOLID
  8
0
 62
    15
 10
4.388560
 20
1.442760
 11
4.384600
 21
2.178880
 12
4.689080
 22
1.442760
 13
4.685560
 23
2.178880
  0
POLYLINE
  8
0
  6
CONTINUOUS
 66
     1
 40
0.000000
 41
0.000000
  0
VERTEX
  8
0
  6
CONTINUOUS
 10
4.388560
 20
1.442760
  0
VERTEX
  8
0
  6
CONTINUOUS
 10
4.384600
 20
2.178880
  0
VERTEX
  8
0
  6
CONTINUOUS
 10
4.685560
 20
2.178880
  0
VERTEX
  8
0
  6
CONTINUOUS
 10
4.689080
 20
1.442760
  0
VERTEX
  8
0
  6
CONTINUOUS
 10
4.388560
 20
1.442760
  0
SEQEND
  8
0
  0
SOLID
  8
0
 62
    15
 10
4.689080
 20
1.442760
 11
4.685560
 21
2.178880
 12
4.689080
 22
1.676400
 13
4.685560
 23
2.412960
  0
POLYLINE
  8
0
  6
CONTINUOUS
 66
     1
 40
0.000000
 41
0.000000
  0
VERTEX
  8
0
  6
CONTINUOUS
 10
4.689080
 20
1.442760
  0
VERTEX
  8
0
  6
CONTINUOUS
 10
4.685560
 20
2.178880
  0
VERTEX
  8
0
  6
CONTINUOUS
 10
4.685560
 20
2.412960
  0
VERTEX
  8
0
  6
CONTINUOUS
 10
4.689080
 20
1.676400
  0
VERTEX
  8
0
  6
CONTINUOUS
 10
4.689080
 20
1.442760
  0
SEQEND
  8
0
  0
SOLID
  8
0
 62
    15
 10
4.570280
 20
1.927200
 11
4.566320
 21
2.663760
 12
7.374400
 22
1.927200
 13
7.370440
 23
2.663760
  0
POLYLINE
  8
0
  6
CONTINUOUS
 66
     1
 40
0.000000
 41
0.000000
  0
VERTEX
  8
0
  6
CONTINUOUS
 10
4.570280
 20
1.927200
  0
VERTEX
  8
0
  6
CONTINUOUS
 10
4.566320
 20
2.663760
  0
VERTEX
  8
0
  6
CONTINUOUS
 10
7.370440
 20
2.663760
  0
VERTEX
  8
0
  6
CONTINUOUS
 10
7.374400
 20
1.927200
  0
VERTEX
  8
0
  6
CONTINUOUS
 10
4.570280
 20
1.927200
  0
SEQEND
  8
0
  0
SOLID
  8
0
 62
    15
 10
4.388560
 20
1.676400
 11
4.384600
 21
2.412960
 12
4.388560
 22
1.801800
 13
4.384600
 23
2.537920
  0
POLYLINE
  8
0
  6
CONTINUOUS
 66
     1
 40
0.000000
 41
0.000000
  0
VERTEX
  8
0
  6
CONTINUOUS
 10
4.388560
 20
1.676400
  0
VERTEX
  8
0
  6
CONTINUOUS
 10
4.384600
 20
2.412960
  0
VERTEX
  8
0
  6
CONTINUOUS
 10
4.384600
 20
2.537920
  0
VERTEX
  8
0
  6
CONTINUOUS
 10
4.388560
 20
1.801800
  0
VERTEX
  8
0
  6
CONTINUOUS
 10
4.388560
 20
1.676400
  0
SEQEND
  8
0
  0
SOLID
  8
0
 62
    15
 10
4.388560
 20
1.801800
 11
4.384600
 21
2.537920
 12
4.556200
 22
1.928520
 13
4.552240
 23
2.664640
  0
POLYLINE
  8
0
  6
CONTINUOUS
 66
     1
 40
0.000000
 41
0.000000
  0
VERTEX
  8
0
  6
CONTINUOUS
 10
4.388560
 20
1.801800
  0
VERTEX
  8
0
  6
CONTINUOUS
 10
4.384600
 20
2.537920
  0
VERTEX
  8
0
  6
CONTINUOUS
 10
4.552240
 20
2.664640
  0
VERTEX
  8
0
  6
CONTINUOUS
 10
4.556200
 20
1.928520
  0
VERTEX
  8
0
  6
CONTINUOUS
 10
4.388560
 20
1.801800
  0
SEQEND
  8
0
  0
SOLID
  8
0
 62
    15
 10
4.556200
 20
1.928520
 11
4.552240
 21
2.664640
 12
4.570280
 22
1.927200
 13
4.566320
 23
2.663760
  0
POLYLINE
  8
0
  6
CONTINUOUS
 66
     1
 40
0.000000
 41
0.000000
  0
VERTEX
  8
0
  6
CONTINUOUS
 10
4.556200
 20
1.928520
  0
VERTEX
  8
0
  6
CONTINUOUS
 10
4.552240
 20
2.664640
  0
VERTEX
  8
0
  6
CONTINUOUS
 10
4.566320
 20
2.663760
  0
VERTEX
  8
0
  6
CONTINUOUS
 10
4.570280
 20
1.927200
  0
VERTEX
  8
0
  6
CONTINUOUS
 10
4.556200
 20
1.928520
  0
SEQEND
  8
0
  0
POLYLINE
  8
0
  6
CONTINUOUS
 66
     1
 40
0.000000
 41
0.000000
  0
VERTEX
  8
0
  6
CONTINUOUS
 10
4.570280
 20
1.927200
  0
VERTEX
  8
0
  6
CONTINUOUS
 10
7.374400
 20
1.927200
  0
VERTEX
  8
0
  6
CONTINUOUS
 10
7.543360
 20
1.807520
  0
VERTEX
  8
0
  6
CONTINUOUS
 10
7.543360
 20
1.676400
  0
VERTEX
  8
0
  6
CONTINUOUS
 10
7.785800
 20
1.676400
  0
VERTEX
  8
0
  6
CONTINUOUS
 10
7.785800
 20
1.428240
  0
VERTEX
  8
0
  6
CONTINUOUS
 10
7.543360
 20
1.428240
  0
VERTEX
  8
0
  6
CONTINUOUS
 10
7.543360
 20
1.241240
  0
VERTEX
  8
0
  6
CONTINUOUS
 10
4.388560
 20
1.241240
  0
VERTEX
  8
0
  6
CONTINUOUS
 10
4.388560
 20
1.442760
  0
VERTEX
  8
0
  6
CONTINUOUS
 10
4.689080
 20
1.442760
  0
VERTEX
  8
0
  6
CONTINUOUS
 10
4.689080
 20
1.676400
  0
VERTEX
  8
0
  6
CONTINUOUS
 10
4.388560
 20
1.676400
  0
VERTEX
  8
0
  6
CONTINUOUS
 10
4.388560
 20
1.801800
  0
VERTEX
  8
0
  6
CONTINUOUS
 10
4.556200
 20
1.928520
  0
VERTEX
  8
0
  6
CONTINUOUS
 10
4.570280
 20
1.927200
  0
SEQEND
  8
0
  0
TEXT
  8
0
 10
5.743320
 20
1.023880
 40
0.138208
  1
BA  1058
 41
1.000000
  7
SN0
 71
     0
 72
     5
 11
6.426011
 21
1.023880
  0
TEXT
  8
0
 10
5.495160
 20
0.832480
 40
0.138208
  1
  11/16" x 3-1/8"
 41
1.000000
  7
SN0
 71
     0
 72
     5
 11
6.677406
 21
0.832480
  0
POLYLINE
  8
0
  6
CONTINUOUS
 66
     1
 40
0.014080
 41
0.014080
  0
VERTEX
  8
0
  6
CONTINUOUS
 10
4.513080
 20
3.992560
  0
VERTEX
  8
0
  6
CONTINUOUS
 10
4.690400
 20
3.992560
  0
VERTEX
  8
0
  6
CONTINUOUS
 10
7.317200
 20
3.992560
  0
VERTEX
  8
0
  6
CONTINUOUS
 10
7.486160
 20
3.872880
  0
VERTEX
  8
0
  6
CONTINUOUS
 10
7.486160
 20
3.741760
  0
VERTEX
  8
0
  6
CONTINUOUS
 10
7.728600
 20
3.741760
  0
VERTEX
  8
0
  6
CONTINUOUS
 10
7.728600
 20
3.493600
  0
VERTEX
  8
0
  6
CONTINUOUS
 10
7.486160
 20
3.493600
  0
VERTEX
  8
0
  6
CONTINUOUS
 10
7.486160
 20
3.306600
  0
VERTEX
  8
0
  6
CONTINUOUS
 10
4.331360
 20
3.306600
  0
VERTEX
  8
0
  6
CONTINUOUS
 10
4.331360
 20
3.508120
  0
VERTEX
  8
0
  6
CONTINUOUS
 10
4.631880
 20
3.508120
  0
VERTEX
  8
0
  6
CONTINUOUS
 10
4.631880
 20
3.741760
  0
VERTEX
  8
0
  6
CONTINUOUS
 10
4.331360
 20
3.741760
  0
VERTEX
  8
0
  6
CONTINUOUS
 10
4.331360
 20
3.867160
  0
VERTEX
  8
0
  6
CONTINUOUS
 10
4.499000
 20
3.993880
  0
VERTEX
  8
0
  6
CONTINUOUS
 10
4.513080
 20
3.992560
  0
SEQEND
  8
0
  0
TEXT
  8
0
 10
5.751680
 20
3.643640
 40
0.138208
  1
BA  1058
 41
1.000000
  7
SN0
 71
     0
 72
     5
 11
6.434371
 21
3.643640
  0
TEXT
  8
0
 10
5.503960
 20
3.451800
 40
0.138208
  1
  11/16" x 3-1/8"
 41
1.000000
  7
SN0
 71
     0
 72
     5
 11
6.686206
 21
3.451800
  0
ENDSEC
  0
EOF
