  0
SECTION
  2
HEADER
  9
$ACADVER
  1
AC1006
  9
$EXTMIN
 10
2.191200
 20
0.431200
  9
$EXTMAX
 10
7.845200
 20
4.255680
  9
$LTSCALE
 40
0.044000
  9
$PDMODE
 70
    35
  9
$PDSIZE
 40
0.035200
  0
ENDSEC
  0
SECTION
  2
TABLES
  0
TABLE
  2
LTYPE
 70
     9
  0
LTYPE
  2
CONTINUOUS
 70
    64
  3
Solid line
 72
    65
 73
     0
 40
0.000000
  0
LTYPE
  2
DASHED
 70
    64
  3
__ __ __ __ __ __ __ __ __ __ __ __ __ __ __
 72
    65
 73
     2
 40
0.000330
 49
0.000220
 49
-0.000110
  0
LTYPE
  2
HIDDEN
 70
    64
  3
 _ _ _ _ _ _ _ _ _ _ _ _ _ _ _ _ _ _ _ _ _ _
 72
    65
 73
     2
 40
0.000165
 49
0.000110
 49
-0.000055
  0
LTYPE
  2
CENTER
 70
    64
  3
____ _ ____ _ ____ _ ____ _ ____ _ ____ _ ____
 72
    65
 73
     4
 40
0.000880
 49
0.000550
 49
-0.000110
 49
0.000110
 49
-0.000110
  0
LTYPE
  2
PHANTOM
 70
    64
  3
_____ _ _ _____ _ _ _____ _ _ _____ _ _ ____
 72
    65
 73
     6
 40
0.001100
 49
0.000550
 49
-0.000110
 49
0.000110
 49
-0.000110
 49
0.000110
 49
-0.000110
  0
LTYPE
  2
DOT
 70
    64
  3
...............................................
 72
    65
 73
     2
 40
0.000110
 49
0.000000
 49
-0.000110
  0
LTYPE
  2
DASHDOT
 70
    64
  3
__ . __ . __ . __ . __ . __ . __ . __ . __ . __
 72
    65
 73
     4
 40
0.000440
 49
0.000220
 49
-0.000110
 49
0.000000
 49
-0.000110
  0
LTYPE
  2
BORDER
 70
    64
  3
__ __ . __ __ . __ __ . __ __ . __ __ . __ __
 72
    65
 73
     6
 40
0.000770
 49
0.000220
 49
-0.000110
 49
0.000220
 49
-0.000110
 49
0.000000
 49
-0.000110
  0
LTYPE
  2
DIVIDE
 70
    64
  3
__ . . __ . . __ . . __ . . __ . . __ . . __
 72
    65
 73
     6
 40
0.000550
 49
0.000220
 49
-0.000110
 49
0.000000
 49
-0.000110
 49
0.000000
 49
-0.000110
  0
LTYPE
  2
DOTDOT
 70
    64
  3
 . .  . .  . .  . .  . .  . . 
 72
    65
 73
     5
 40
0.000242
 49
-0.000110
 49
0.000000
 49
-0.000110
 49
0.000000
 49
-0.000110
  0
ENDTAB
  0
TABLE
  2
STYLE
 70
     2
  0
STYLE
 70
     0
  2
SN0
 40
0.000000
 41
0.000440
 50
0.000000
 71
     0
 42
0.000000
  3
ROMAND
  0
STYLE
 70
    68
  2
SV0
 40
0.000000
 41
0.000440
 50
0.000000
 71
     0
 42
0.000000
  3
ROMAND
  0
ENDTAB
  0
TABLE
  2
LAYER
 70
     3
  0
LAYER
  2
FOREGROUND
 70
    64
 62
     7
  6
CONTINUOUS
  0
LAYER
  2
BACKGROUND
 70
    65
 62
    -7
  6
CONTINUOUS
  0
LAYER
  2
0
 70
    64
 62
     7
  6
CONTINUOUS
  0
ENDTAB
  0
ENDSEC
  0
SECTION
  2
ENTITIES
  0
POLYLINE
  8
FOREGROUND
  6
CONTINUOUS
 66
     1
 40
0.000000
 41
0.000000
  0
VERTEX
  8
FOREGROUND
  6
CONTINUOUS
 10
0.000000
 20
4.686880
  0
VERTEX
  8
FOREGROUND
  6
CONTINUOUS
 10
8.499920
 20
4.686880
  0
VERTEX
  8
FOREGROUND
  6
CONTINUOUS
 10
8.499920
 20
-6.313120
  0
VERTEX
  8
FOREGROUND
  6
CONTINUOUS
 10
0.000000
 20
-6.313120
  0
VERTEX
  8
FOREGROUND
  6
CONTINUOUS
 10
0.000000
 20
4.686880
  0
SEQEND
  8
0
  0
POLYLINE
  8
FOREGROUND
  6
CONTINUOUS
 66
     1
 40
0.000000
 41
0.000000
  0
VERTEX
  8
FOREGROUND
  6
CONTINUOUS
 10
0.000000
 20
4.686880
  0
VERTEX
  8
FOREGROUND
  6
CONTINUOUS
 10
8.499920
 20
4.686880
  0
VERTEX
  8
FOREGROUND
  6
CONTINUOUS
 10
8.499920
 20
-6.313120
  0
VERTEX
  8
FOREGROUND
  6
CONTINUOUS
 10
0.000000
 20
-6.313120
  0
VERTEX
  8
FOREGROUND
  6
CONTINUOUS
 10
0.000000
 20
4.686880
  0
SEQEND
  8
0
  0
TEXT
  8
0
 10
2.866160
 20
0.667040
 40
0.138128
  1
BA 1057A & B 2-5/16"
 41
1.000000
  7
SN0
 71
     0
 72
     5
 11
4.504407
 21
0.667040
  0
TEXT
  8
0
 10
2.997720
 20
0.475200
 40
0.138128
  1
Garage Door Rails
 41
1.000000
  7
SN0
 71
     0
 72
     5
 11
4.364009
 21
0.475200
  0
SOLID
  8
0
 62
    15
 10
3.298240
 20
2.281840
 11
3.947240
 21
2.658920
 12
3.917760
 22
2.281840
 13
4.566760
 23
2.658920
  0
POLYLINE
  8
0
  6
CONTINUOUS
 66
     1
 40
0.000000
 41
0.000000
  0
VERTEX
  8
0
  6
CONTINUOUS
 10
3.298240
 20
2.281840
  0
VERTEX
  8
0
  6
CONTINUOUS
 10
3.947240
 20
2.658920
  0
VERTEX
  8
0
  6
CONTINUOUS
 10
4.566760
 20
2.658920
  0
VERTEX
  8
0
  6
CONTINUOUS
 10
3.917760
 20
2.281840
  0
VERTEX
  8
0
  6
CONTINUOUS
 10
3.298240
 20
2.281840
  0
SEQEND
  8
0
  0
SOLID
  8
0
 62
    15
 10
4.005760
 20
2.534840
 11
4.654760
 21
2.911920
 12
4.527600
 22
2.534840
 13
5.176160
 23
2.911920
  0
POLYLINE
  8
0
  6
CONTINUOUS
 66
     1
 40
0.000000
 41
0.000000
  0
VERTEX
  8
0
  6
CONTINUOUS
 10
4.005760
 20
2.534840
  0
VERTEX
  8
0
  6
CONTINUOUS
 10
4.654760
 20
2.911920
  0
VERTEX
  8
0
  6
CONTINUOUS
 10
5.176160
 20
2.911920
  0
VERTEX
  8
0
  6
CONTINUOUS
 10
4.527600
 20
2.534840
  0
VERTEX
  8
0
  6
CONTINUOUS
 10
4.005760
 20
2.534840
  0
SEQEND
  8
0
  0
SOLID
  8
0
 62
    15
 10
4.527600
 20
2.534840
 11
5.176160
 21
2.911920
 12
4.527600
 22
1.032680
 13
5.176160
 23
1.409320
  0
POLYLINE
  8
0
  6
CONTINUOUS
 66
     1
 40
0.000000
 41
0.000000
  0
VERTEX
  8
0
  6
CONTINUOUS
 10
4.527600
 20
2.534840
  0
VERTEX
  8
0
  6
CONTINUOUS
 10
5.176160
 20
2.911920
  0
VERTEX
  8
0
  6
CONTINUOUS
 10
5.176160
 20
1.409320
  0
VERTEX
  8
0
  6
CONTINUOUS
 10
4.527600
 20
1.032680
  0
VERTEX
  8
0
  6
CONTINUOUS
 10
4.527600
 20
2.534840
  0
SEQEND
  8
0
  0
SOLID
  8
0
 62
    15
 10
2.194720
 20
1.889360
 11
2.843280
 21
2.266440
 12
2.198240
 22
1.889360
 13
2.846800
 23
2.266440
  0
POLYLINE
  8
0
  6
CONTINUOUS
 66
     1
 40
0.000000
 41
0.000000
  0
VERTEX
  8
0
  6
CONTINUOUS
 10
2.194720
 20
1.889360
  0
VERTEX
  8
0
  6
CONTINUOUS
 10
2.843280
 20
2.266440
  0
VERTEX
  8
0
  6
CONTINUOUS
 10
2.846800
 20
2.266440
  0
VERTEX
  8
0
  6
CONTINUOUS
 10
2.198240
 20
1.889360
  0
VERTEX
  8
0
  6
CONTINUOUS
 10
2.194720
 20
1.889360
  0
SEQEND
  8
0
  0
SOLID
  8
0
 62
    15
 10
2.198240
 20
1.889360
 11
2.846800
 21
2.266440
 12
3.298240
 22
2.281840
 13
3.947240
 23
2.658920
  0
POLYLINE
  8
0
  6
CONTINUOUS
 66
     1
 40
0.000000
 41
0.000000
  0
VERTEX
  8
0
  6
CONTINUOUS
 10
2.198240
 20
1.889360
  0
VERTEX
  8
0
  6
CONTINUOUS
 10
2.846800
 20
2.266440
  0
VERTEX
  8
0
  6
CONTINUOUS
 10
3.947240
 20
2.658920
  0
VERTEX
  8
0
  6
CONTINUOUS
 10
3.298240
 20
2.281840
  0
VERTEX
  8
0
  6
CONTINUOUS
 10
2.198240
 20
1.889360
  0
SEQEND
  8
0
  0
POLYLINE
  8
0
  6
CONTINUOUS
 66
     1
 40
0.000000
 41
0.000000
  0
VERTEX
  8
0
  6
CONTINUOUS
 10
2.198240
 20
1.889360
  0
VERTEX
  8
0
  6
CONTINUOUS
 10
3.298240
 20
2.281840
  0
VERTEX
  8
0
  6
CONTINUOUS
 10
3.917760
 20
2.281840
  0
VERTEX
  8
0
  6
CONTINUOUS
 10
4.005760
 20
2.534840
  0
VERTEX
  8
0
  6
CONTINUOUS
 10
4.527600
 20
2.534840
  0
VERTEX
  8
0
  6
CONTINUOUS
 10
4.527600
 20
1.032680
  0
VERTEX
  8
0
  6
CONTINUOUS
 10
2.194720
 20
1.032680
  0
VERTEX
  8
0
  6
CONTINUOUS
 10
2.194720
 20
1.889360
  0
VERTEX
  8
0
  6
CONTINUOUS
 10
2.198240
 20
1.889360
  0
SEQEND
  8
0
  0
SOLID
  8
0
 62
    15
 10
3.905440
 20
2.933040
 11
4.562800
 21
3.308360
 12
3.905880
 22
2.932600
 13
4.563240
 23
3.307920
  0
POLYLINE
  8
0
  6
CONTINUOUS
 66
     1
 40
0.000000
 41
0.000000
  0
VERTEX
  8
0
  6
CONTINUOUS
 10
3.905440
 20
2.933040
  0
VERTEX
  8
0
  6
CONTINUOUS
 10
4.562800
 20
3.308360
  0
VERTEX
  8
0
  6
CONTINUOUS
 10
4.563240
 20
3.307920
  0
VERTEX
  8
0
  6
CONTINUOUS
 10
3.905880
 20
2.932600
  0
VERTEX
  8
0
  6
CONTINUOUS
 10
3.905440
 20
2.933040
  0
SEQEND
  8
0
  0
SOLID
  8
0
 62
    15
 10
3.905880
 20
2.932600
 11
4.563240
 21
3.307920
 12
3.821840
 22
2.680920
 13
4.479200
 23
3.056240
  0
POLYLINE
  8
0
  6
CONTINUOUS
 66
     1
 40
0.000000
 41
0.000000
  0
VERTEX
  8
0
  6
CONTINUOUS
 10
3.905880
 20
2.932600
  0
VERTEX
  8
0
  6
CONTINUOUS
 10
4.563240
 20
3.307920
  0
VERTEX
  8
0
  6
CONTINUOUS
 10
4.479200
 20
3.056240
  0
VERTEX
  8
0
  6
CONTINUOUS
 10
3.821840
 20
2.680920
  0
VERTEX
  8
0
  6
CONTINUOUS
 10
3.905880
 20
2.932600
  0
SEQEND
  8
0
  0
SOLID
  8
0
 62
    15
 10
4.521440
 20
3.816560
 11
5.178800
 21
4.191880
 12
4.521440
 22
2.933040
 13
5.178800
 23
3.308360
  0
POLYLINE
  8
0
  6
CONTINUOUS
 66
     1
 40
0.000000
 41
0.000000
  0
VERTEX
  8
0
  6
CONTINUOUS
 10
4.521440
 20
3.816560
  0
VERTEX
  8
0
  6
CONTINUOUS
 10
5.178800
 20
4.191880
  0
VERTEX
  8
0
  6
CONTINUOUS
 10
5.178800
 20
3.308360
  0
VERTEX
  8
0
  6
CONTINUOUS
 10
4.521440
 20
2.933040
  0
VERTEX
  8
0
  6
CONTINUOUS
 10
4.521440
 20
3.816560
  0
SEQEND
  8
0
  0
SOLID
  8
0
 62
    15
 10
2.191640
 20
3.816560
 11
2.849440
 21
4.191880
 12
4.521440
 22
3.816560
 13
5.178800
 23
4.191880
  0
POLYLINE
  8
0
  6
CONTINUOUS
 66
     1
 40
0.000000
 41
0.000000
  0
VERTEX
  8
0
  6
CONTINUOUS
 10
2.191640
 20
3.816560
  0
VERTEX
  8
0
  6
CONTINUOUS
 10
2.849440
 20
4.191880
  0
VERTEX
  8
0
  6
CONTINUOUS
 10
5.178800
 20
4.191880
  0
VERTEX
  8
0
  6
CONTINUOUS
 10
4.521440
 20
3.816560
  0
VERTEX
  8
0
  6
CONTINUOUS
 10
2.191640
 20
3.816560
  0
SEQEND
  8
0
  0
POLYLINE
  8
0
  6
CONTINUOUS
 66
     1
 40
0.000000
 41
0.000000
  0
VERTEX
  8
0
  6
CONTINUOUS
 10
3.292080
 20
2.680040
  0
VERTEX
  8
0
  6
CONTINUOUS
 10
2.192080
 20
2.287560
  0
VERTEX
  8
0
  6
CONTINUOUS
 10
2.191640
 20
2.299880
  0
VERTEX
  8
0
  6
CONTINUOUS
 10
2.191640
 20
3.816560
  0
VERTEX
  8
0
  6
CONTINUOUS
 10
4.521440
 20
3.816560
  0
VERTEX
  8
0
  6
CONTINUOUS
 10
4.521440
 20
2.933040
  0
VERTEX
  8
0
  6
CONTINUOUS
 10
3.905440
 20
2.933040
  0
VERTEX
  8
0
  6
CONTINUOUS
 10
3.905880
 20
2.932600
  0
VERTEX
  8
0
  6
CONTINUOUS
 10
3.821840
 20
2.680920
  0
VERTEX
  8
0
  6
CONTINUOUS
 10
3.293400
 20
2.680920
  0
VERTEX
  8
0
  6
CONTINUOUS
 10
3.292080
 20
2.680040
  0
SEQEND
  8
0
  0
POLYLINE
  8
0
  6
CONTINUOUS
 66
     1
 40
0.014080
 41
0.014080
  0
VERTEX
  8
0
  6
CONTINUOUS
 10
5.499120
 20
2.486880
  0
VERTEX
  8
0
  6
CONTINUOUS
 10
6.599120
 20
2.879360
  0
VERTEX
  8
0
  6
CONTINUOUS
 10
7.219080
 20
2.879360
  0
VERTEX
  8
0
  6
CONTINUOUS
 10
7.306640
 20
3.132360
  0
VERTEX
  8
0
  6
CONTINUOUS
 10
7.828480
 20
3.132360
  0
VERTEX
  8
0
  6
CONTINUOUS
 10
7.828480
 20
1.629760
  0
VERTEX
  8
0
  6
CONTINUOUS
 10
5.495600
 20
1.629760
  0
VERTEX
  8
0
  6
CONTINUOUS
 10
5.495600
 20
2.486880
  0
VERTEX
  8
0
  6
CONTINUOUS
 10
5.499120
 20
2.486880
  0
SEQEND
  8
0
  0
POLYLINE
  8
0
  6
CONTINUOUS
 66
     1
 40
0.014080
 41
0.014080
  0
VERTEX
  8
0
  6
CONTINUOUS
 10
6.608800
 20
3.111680
  0
VERTEX
  8
0
  6
CONTINUOUS
 10
5.508360
 20
2.719200
  0
VERTEX
  8
0
  6
CONTINUOUS
 10
5.508360
 20
2.731520
  0
VERTEX
  8
0
  6
CONTINUOUS
 10
5.508360
 20
4.248200
  0
VERTEX
  8
0
  6
CONTINUOUS
 10
7.837720
 20
4.248200
  0
VERTEX
  8
0
  6
CONTINUOUS
 10
7.837720
 20
3.364680
  0
VERTEX
  8
0
  6
CONTINUOUS
 10
7.221720
 20
3.364680
  0
VERTEX
  8
0
  6
CONTINUOUS
 10
7.222160
 20
3.364240
  0
VERTEX
  8
0
  6
CONTINUOUS
 10
7.138120
 20
3.112560
  0
VERTEX
  8
0
  6
CONTINUOUS
 10
6.609680
 20
3.112560
  0
VERTEX
  8
0
  6
CONTINUOUS
 10
6.608800
 20
3.111680
  0
SEQEND
  8
0
  0
TEXT
  8
0
 10
5.842760
 20
1.834800
 40
0.138128
  1
BA 1057A & B 2-5/16"
 41
1.000000
  7
SN0
 71
     0
 72
     5
 11
7.481006
 21
1.834800
  0
ENDSEC
  0
EOF
