  0
SECTION
  2
HEADER
  9
$ACADVER
  1
AC1006
  9
$EXTMIN
 10
2.665080
 20
0.476960
  9
$EXTMAX
 10
7.857520
 20
6.992480
  9
$LTSCALE
 40
0.044000
  9
$PDMODE
 70
    35
  9
$PDSIZE
 40
0.035200
  0
ENDSEC
  0
SECTION
  2
TABLES
  0
TABLE
  2
LTYPE
 70
     9
  0
LTYPE
  2
CONTINUOUS
 70
    64
  3
Solid line
 72
    65
 73
     0
 40
0.000000
  0
LTYPE
  2
DASHED
 70
    64
  3
__ __ __ __ __ __ __ __ __ __ __ __ __ __ __
 72
    65
 73
     2
 40
0.000330
 49
0.000220
 49
-0.000110
  0
LTYPE
  2
HIDDEN
 70
    64
  3
 _ _ _ _ _ _ _ _ _ _ _ _ _ _ _ _ _ _ _ _ _ _
 72
    65
 73
     2
 40
0.000165
 49
0.000110
 49
-0.000055
  0
LTYPE
  2
CENTER
 70
    64
  3
____ _ ____ _ ____ _ ____ _ ____ _ ____ _ ____
 72
    65
 73
     4
 40
0.000880
 49
0.000550
 49
-0.000110
 49
0.000110
 49
-0.000110
  0
LTYPE
  2
PHANTOM
 70
    64
  3
_____ _ _ _____ _ _ _____ _ _ _____ _ _ ____
 72
    65
 73
     6
 40
0.001100
 49
0.000550
 49
-0.000110
 49
0.000110
 49
-0.000110
 49
0.000110
 49
-0.000110
  0
LTYPE
  2
DOT
 70
    64
  3
...............................................
 72
    65
 73
     2
 40
0.000110
 49
0.000000
 49
-0.000110
  0
LTYPE
  2
DASHDOT
 70
    64
  3
__ . __ . __ . __ . __ . __ . __ . __ . __ . __
 72
    65
 73
     4
 40
0.000440
 49
0.000220
 49
-0.000110
 49
0.000000
 49
-0.000110
  0
LTYPE
  2
BORDER
 70
    64
  3
__ __ . __ __ . __ __ . __ __ . __ __ . __ __
 72
    65
 73
     6
 40
0.000770
 49
0.000220
 49
-0.000110
 49
0.000220
 49
-0.000110
 49
0.000000
 49
-0.000110
  0
LTYPE
  2
DIVIDE
 70
    64
  3
__ . . __ . . __ . . __ . . __ . . __ . . __
 72
    65
 73
     6
 40
0.000550
 49
0.000220
 49
-0.000110
 49
0.000000
 49
-0.000110
 49
0.000000
 49
-0.000110
  0
LTYPE
  2
DOTDOT
 70
    64
  3
 . .  . .  . .  . .  . .  . . 
 72
    65
 73
     5
 40
0.000242
 49
-0.000110
 49
0.000000
 49
-0.000110
 49
0.000000
 49
-0.000110
  0
ENDTAB
  0
TABLE
  2
STYLE
 70
     2
  0
STYLE
 70
     0
  2
SN0
 40
0.000000
 41
0.000440
 50
0.000000
 71
     0
 42
0.000000
  3
ROMAND
  0
STYLE
 70
    68
  2
SV0
 40
0.000000
 41
0.000440
 50
0.000000
 71
     0
 42
0.000000
  3
ROMAND
  0
ENDTAB
  0
TABLE
  2
LAYER
 70
     3
  0
LAYER
  2
FOREGROUND
 70
    64
 62
     7
  6
CONTINUOUS
  0
LAYER
  2
BACKGROUND
 70
    65
 62
    -7
  6
CONTINUOUS
  0
LAYER
  2
0
 70
    64
 62
     7
  6
CONTINUOUS
  0
ENDTAB
  0
ENDSEC
  0
SECTION
  2
ENTITIES
  0
POLYLINE
  8
FOREGROUND
  6
CONTINUOUS
 66
     1
 40
0.000000
 41
0.000000
  0
VERTEX
  8
FOREGROUND
  6
CONTINUOUS
 10
0.000000
 20
7.469440
  0
VERTEX
  8
FOREGROUND
  6
CONTINUOUS
 10
8.499920
 20
7.469440
  0
VERTEX
  8
FOREGROUND
  6
CONTINUOUS
 10
8.499920
 20
-3.530560
  0
VERTEX
  8
FOREGROUND
  6
CONTINUOUS
 10
0.000000
 20
-3.530560
  0
VERTEX
  8
FOREGROUND
  6
CONTINUOUS
 10
0.000000
 20
7.469440
  0
SEQEND
  8
0
  0
POLYLINE
  8
FOREGROUND
  6
CONTINUOUS
 66
     1
 40
0.000000
 41
0.000000
  0
VERTEX
  8
FOREGROUND
  6
CONTINUOUS
 10
0.000000
 20
7.469440
  0
VERTEX
  8
FOREGROUND
  6
CONTINUOUS
 10
8.499920
 20
7.469440
  0
VERTEX
  8
FOREGROUND
  6
CONTINUOUS
 10
8.499920
 20
-3.530560
  0
VERTEX
  8
FOREGROUND
  6
CONTINUOUS
 10
0.000000
 20
-3.530560
  0
VERTEX
  8
FOREGROUND
  6
CONTINUOUS
 10
0.000000
 20
7.469440
  0
SEQEND
  8
0
  0
SOLID
  8
0
 62
    15
 10
4.015440
 20
3.125320
 11
4.664440
 21
3.496240
 12
4.015440
 22
2.996400
 13
4.664440
 23
3.367320
  0
POLYLINE
  8
0
  6
CONTINUOUS
 66
     1
 40
0.000000
 41
0.000000
  0
VERTEX
  8
0
  6
CONTINUOUS
 10
4.015440
 20
3.125320
  0
VERTEX
  8
0
  6
CONTINUOUS
 10
4.664440
 20
3.496240
  0
VERTEX
  8
0
  6
CONTINUOUS
 10
4.664440
 20
3.367320
  0
VERTEX
  8
0
  6
CONTINUOUS
 10
4.015440
 20
2.996400
  0
VERTEX
  8
0
  6
CONTINUOUS
 10
4.015440
 20
3.125320
  0
SEQEND
  8
0
  0
SOLID
  8
0
 62
    15
 10
4.015440
 20
2.996400
 11
4.664440
 21
3.367320
 12
4.262280
 22
2.996400
 13
4.911280
 23
3.367320
  0
POLYLINE
  8
0
  6
CONTINUOUS
 66
     1
 40
0.000000
 41
0.000000
  0
VERTEX
  8
0
  6
CONTINUOUS
 10
4.015440
 20
2.996400
  0
VERTEX
  8
0
  6
CONTINUOUS
 10
4.664440
 20
3.367320
  0
VERTEX
  8
0
  6
CONTINUOUS
 10
4.911280
 20
3.367320
  0
VERTEX
  8
0
  6
CONTINUOUS
 10
4.262280
 20
2.996400
  0
VERTEX
  8
0
  6
CONTINUOUS
 10
4.015440
 20
2.996400
  0
SEQEND
  8
0
  0
SOLID
  8
0
 62
    15
 10
3.913360
 20
2.499200
 11
4.561920
 21
2.870120
 12
3.913360
 22
0.812240
 13
4.561920
 23
1.183160
  0
POLYLINE
  8
0
  6
CONTINUOUS
 66
     1
 40
0.000000
 41
0.000000
  0
VERTEX
  8
0
  6
CONTINUOUS
 10
3.913360
 20
2.499200
  0
VERTEX
  8
0
  6
CONTINUOUS
 10
4.561920
 20
2.870120
  0
VERTEX
  8
0
  6
CONTINUOUS
 10
4.561920
 20
1.183160
  0
VERTEX
  8
0
  6
CONTINUOUS
 10
3.913360
 20
0.812240
  0
VERTEX
  8
0
  6
CONTINUOUS
 10
3.913360
 20
2.499200
  0
SEQEND
  8
0
  0
SOLID
  8
0
 62
    15
 10
4.408800
 20
2.555520
 11
5.057800
 21
2.926440
 12
4.408800
 22
2.499200
 13
5.057800
 23
2.870120
  0
POLYLINE
  8
0
  6
CONTINUOUS
 66
     1
 40
0.000000
 41
0.000000
  0
VERTEX
  8
0
  6
CONTINUOUS
 10
4.408800
 20
2.555520
  0
VERTEX
  8
0
  6
CONTINUOUS
 10
5.057800
 20
2.926440
  0
VERTEX
  8
0
  6
CONTINUOUS
 10
5.057800
 20
2.870120
  0
VERTEX
  8
0
  6
CONTINUOUS
 10
4.408800
 20
2.499200
  0
VERTEX
  8
0
  6
CONTINUOUS
 10
4.408800
 20
2.555520
  0
SEQEND
  8
0
  0
SOLID
  8
0
 62
    15
 10
4.262280
 20
2.996400
 11
4.911280
 21
3.367320
 12
4.408800
 22
2.555520
 13
5.057800
 23
2.926440
  0
POLYLINE
  8
0
  6
CONTINUOUS
 66
     1
 40
0.000000
 41
0.000000
  0
VERTEX
  8
0
  6
CONTINUOUS
 10
4.262280
 20
2.996400
  0
VERTEX
  8
0
  6
CONTINUOUS
 10
4.911280
 20
3.367320
  0
VERTEX
  8
0
  6
CONTINUOUS
 10
5.057800
 20
2.926440
  0
VERTEX
  8
0
  6
CONTINUOUS
 10
4.408800
 20
2.555520
  0
VERTEX
  8
0
  6
CONTINUOUS
 10
4.262280
 20
2.996400
  0
SEQEND
  8
0
  0
SOLID
  8
0
 62
    15
 10
3.913360
 20
0.812240
 11
4.561920
 21
1.183160
 12
3.913360
 22
0.812240
 13
3.913360
 23
0.811800
  0
POLYLINE
  8
0
  6
CONTINUOUS
 66
     1
 40
0.000000
 41
0.000000
  0
VERTEX
  8
0
  6
CONTINUOUS
 10
3.913360
 20
0.812240
  0
VERTEX
  8
0
  6
CONTINUOUS
 10
4.561920
 20
1.183160
  0
VERTEX
  8
0
  6
CONTINUOUS
 10
3.913360
 20
0.811800
  0
VERTEX
  8
0
  6
CONTINUOUS
 10
3.913360
 20
0.812240
  0
SEQEND
  8
0
  0
SOLID
  8
0
 62
    15
 10
2.665520
 20
3.125320
 11
3.314520
 21
3.496240
 12
4.015440
 22
3.125320
 13
4.664440
 23
3.496240
  0
POLYLINE
  8
0
  6
CONTINUOUS
 66
     1
 40
0.000000
 41
0.000000
  0
VERTEX
  8
0
  6
CONTINUOUS
 10
2.665520
 20
3.125320
  0
VERTEX
  8
0
  6
CONTINUOUS
 10
3.314520
 20
3.496240
  0
VERTEX
  8
0
  6
CONTINUOUS
 10
4.664440
 20
3.496240
  0
VERTEX
  8
0
  6
CONTINUOUS
 10
4.015440
 20
3.125320
  0
VERTEX
  8
0
  6
CONTINUOUS
 10
2.665520
 20
3.125320
  0
SEQEND
  8
0
  0
POLYLINE
  8
0
  6
CONTINUOUS
 66
     1
 40
0.000000
 41
0.000000
  0
VERTEX
  8
0
  6
CONTINUOUS
 10
3.913360
 20
0.811800
  0
VERTEX
  8
0
  6
CONTINUOUS
 10
2.665520
 20
0.811800
  0
VERTEX
  8
0
  6
CONTINUOUS
 10
2.665520
 20
3.125320
  0
VERTEX
  8
0
  6
CONTINUOUS
 10
4.015440
 20
3.125320
  0
VERTEX
  8
0
  6
CONTINUOUS
 10
4.015440
 20
2.996400
  0
VERTEX
  8
0
  6
CONTINUOUS
 10
4.262280
 20
2.996400
  0
VERTEX
  8
0
  6
CONTINUOUS
 10
4.408800
 20
2.555520
  0
VERTEX
  8
0
  6
CONTINUOUS
 10
4.408800
 20
2.499200
  0
VERTEX
  8
0
  6
CONTINUOUS
 10
3.913360
 20
2.499200
  0
VERTEX
  8
0
  6
CONTINUOUS
 10
3.913360
 20
0.812240
  0
VERTEX
  8
0
  6
CONTINUOUS
 10
3.913360
 20
0.811800
  0
SEQEND
  8
0
  0
SOLID
  8
0
 62
    15
 10
6.209280
 20
3.126640
 11
6.850360
 21
3.485680
 12
6.209280
 22
0.812240
 13
6.850360
 23
1.171280
  0
POLYLINE
  8
0
  6
CONTINUOUS
 66
     1
 40
0.000000
 41
0.000000
  0
VERTEX
  8
0
  6
CONTINUOUS
 10
6.209280
 20
3.126640
  0
VERTEX
  8
0
  6
CONTINUOUS
 10
6.850360
 20
3.485680
  0
VERTEX
  8
0
  6
CONTINUOUS
 10
6.850360
 20
1.171280
  0
VERTEX
  8
0
  6
CONTINUOUS
 10
6.209280
 20
0.812240
  0
VERTEX
  8
0
  6
CONTINUOUS
 10
6.209280
 20
3.126640
  0
SEQEND
  8
0
  0
SOLID
  8
0
 62
    15
 10
4.958800
 20
2.499200
 11
5.599880
 21
2.858240
 12
5.454240
 22
2.499200
 13
6.095320
 23
2.858240
  0
POLYLINE
  8
0
  6
CONTINUOUS
 66
     1
 40
0.000000
 41
0.000000
  0
VERTEX
  8
0
  6
CONTINUOUS
 10
4.958800
 20
2.499200
  0
VERTEX
  8
0
  6
CONTINUOUS
 10
5.599880
 20
2.858240
  0
VERTEX
  8
0
  6
CONTINUOUS
 10
6.095320
 20
2.858240
  0
VERTEX
  8
0
  6
CONTINUOUS
 10
5.454240
 20
2.499200
  0
VERTEX
  8
0
  6
CONTINUOUS
 10
4.958800
 20
2.499200
  0
SEQEND
  8
0
  0
SOLID
  8
0
 62
    15
 10
5.060880
 20
3.126640
 11
5.701960
 21
3.485680
 12
6.209280
 22
3.126640
 13
6.850360
 23
3.485680
  0
POLYLINE
  8
0
  6
CONTINUOUS
 66
     1
 40
0.000000
 41
0.000000
  0
VERTEX
  8
0
  6
CONTINUOUS
 10
5.060880
 20
3.126640
  0
VERTEX
  8
0
  6
CONTINUOUS
 10
5.701960
 20
3.485680
  0
VERTEX
  8
0
  6
CONTINUOUS
 10
6.850360
 20
3.485680
  0
VERTEX
  8
0
  6
CONTINUOUS
 10
6.209280
 20
3.126640
  0
VERTEX
  8
0
  6
CONTINUOUS
 10
5.060880
 20
3.126640
  0
SEQEND
  8
0
  0
POLYLINE
  8
0
  6
CONTINUOUS
 66
     1
 40
0.000000
 41
0.000000
  0
VERTEX
  8
0
  6
CONTINUOUS
 10
5.060880
 20
3.126640
  0
VERTEX
  8
0
  6
CONTINUOUS
 10
6.209280
 20
3.126640
  0
VERTEX
  8
0
  6
CONTINUOUS
 10
6.209280
 20
0.812240
  0
VERTEX
  8
0
  6
CONTINUOUS
 10
4.958800
 20
0.812240
  0
VERTEX
  8
0
  6
CONTINUOUS
 10
4.958800
 20
2.499200
  0
VERTEX
  8
0
  6
CONTINUOUS
 10
5.454240
 20
2.499200
  0
VERTEX
  8
0
  6
CONTINUOUS
 10
5.454240
 20
2.555520
  0
VERTEX
  8
0
  6
CONTINUOUS
 10
5.307720
 20
2.996400
  0
VERTEX
  8
0
  6
CONTINUOUS
 10
5.060880
 20
2.996400
  0
VERTEX
  8
0
  6
CONTINUOUS
 10
5.060880
 20
3.125320
  0
VERTEX
  8
0
  6
CONTINUOUS
 10
5.060880
 20
3.126640
  0
SEQEND
  8
0
  0
TEXT
  8
0
 10
3.916440
 20
0.519640
 40
0.138270
  1
BA  1056A & B 2-5/16"
 41
1.000000
  7
SN0
 71
     0
 72
     5
 11
5.597444
 21
0.519640
  0
POLYLINE
  8
0
  6
CONTINUOUS
 66
     1
 40
0.014080
 41
0.014080
  0
VERTEX
  8
0
  6
CONTINUOUS
 10
5.929000
 20
4.670160
  0
VERTEX
  8
0
  6
CONTINUOUS
 10
4.681600
 20
4.670160
  0
VERTEX
  8
0
  6
CONTINUOUS
 10
4.681600
 20
6.983240
  0
VERTEX
  8
0
  6
CONTINUOUS
 10
6.031080
 20
6.983240
  0
VERTEX
  8
0
  6
CONTINUOUS
 10
6.031080
 20
6.854320
  0
VERTEX
  8
0
  6
CONTINUOUS
 10
6.277920
 20
6.854320
  0
VERTEX
  8
0
  6
CONTINUOUS
 10
6.424880
 20
6.413440
  0
VERTEX
  8
0
  6
CONTINUOUS
 10
6.424880
 20
6.357560
  0
VERTEX
  8
0
  6
CONTINUOUS
 10
5.929000
 20
6.357560
  0
VERTEX
  8
0
  6
CONTINUOUS
 10
5.929000
 20
4.670160
  0
SEQEND
  8
0
  0
POLYLINE
  8
0
  6
CONTINUOUS
 66
     1
 40
0.014080
 41
0.014080
  0
VERTEX
  8
0
  6
CONTINUOUS
 10
6.702080
 20
6.985000
  0
VERTEX
  8
0
  6
CONTINUOUS
 10
7.850040
 20
6.985000
  0
VERTEX
  8
0
  6
CONTINUOUS
 10
7.850040
 20
4.670160
  0
VERTEX
  8
0
  6
CONTINUOUS
 10
6.599560
 20
4.670160
  0
VERTEX
  8
0
  6
CONTINUOUS
 10
6.599560
 20
6.357560
  0
VERTEX
  8
0
  6
CONTINUOUS
 10
7.095440
 20
6.357560
  0
VERTEX
  8
0
  6
CONTINUOUS
 10
7.095440
 20
6.413440
  0
VERTEX
  8
0
  6
CONTINUOUS
 10
6.948920
 20
6.854320
  0
VERTEX
  8
0
  6
CONTINUOUS
 10
6.702080
 20
6.854320
  0
VERTEX
  8
0
  6
CONTINUOUS
 10
6.702080
 20
6.983240
  0
VERTEX
  8
0
  6
CONTINUOUS
 10
6.702080
 20
6.985000
  0
SEQEND
  8
0
  0
TEXT
  8
0
 10
4.900720
 20
4.995760
 40
0.138270
  1
BA  1056A
 41
1.000000
  7
SN0
 71
     0
 72
     5
 11
5.693985
 21
4.995760
  0
TEXT
  8
0
 10
4.852760
 20
4.803920
 40
0.138270
  1
 & B 2-5/16"
 41
1.000000
  7
SN0
 71
     0
 72
     5
 11
5.744409
 21
4.803920
  0
ENDSEC
  0
EOF
