  0
SECTION
  2
HEADER
  9
$ACADVER
  1
AC1006
  9
$EXTMIN
 10
1.335840
 20
1.240360
  9
$EXTMAX
 10
7.907680
 20
6.012600
  9
$LTSCALE
 40
0.044000
  9
$PDMODE
 70
    35
  9
$PDSIZE
 40
0.035200
  0
ENDSEC
  0
SECTION
  2
TABLES
  0
TABLE
  2
LTYPE
 70
     9
  0
LTYPE
  2
CONTINUOUS
 70
    64
  3
Solid line
 72
    65
 73
     0
 40
0.000000
  0
LTYPE
  2
DASHED
 70
    64
  3
__ __ __ __ __ __ __ __ __ __ __ __ __ __ __
 72
    65
 73
     2
 40
0.000330
 49
0.000220
 49
-0.000110
  0
LTYPE
  2
HIDDEN
 70
    64
  3
 _ _ _ _ _ _ _ _ _ _ _ _ _ _ _ _ _ _ _ _ _ _
 72
    65
 73
     2
 40
0.000165
 49
0.000110
 49
-0.000055
  0
LTYPE
  2
CENTER
 70
    64
  3
____ _ ____ _ ____ _ ____ _ ____ _ ____ _ ____
 72
    65
 73
     4
 40
0.000880
 49
0.000550
 49
-0.000110
 49
0.000110
 49
-0.000110
  0
LTYPE
  2
PHANTOM
 70
    64
  3
_____ _ _ _____ _ _ _____ _ _ _____ _ _ ____
 72
    65
 73
     6
 40
0.001100
 49
0.000550
 49
-0.000110
 49
0.000110
 49
-0.000110
 49
0.000110
 49
-0.000110
  0
LTYPE
  2
DOT
 70
    64
  3
...............................................
 72
    65
 73
     2
 40
0.000110
 49
0.000000
 49
-0.000110
  0
LTYPE
  2
DASHDOT
 70
    64
  3
__ . __ . __ . __ . __ . __ . __ . __ . __ . __
 72
    65
 73
     4
 40
0.000440
 49
0.000220
 49
-0.000110
 49
0.000000
 49
-0.000110
  0
LTYPE
  2
BORDER
 70
    64
  3
__ __ . __ __ . __ __ . __ __ . __ __ . __ __
 72
    65
 73
     6
 40
0.000770
 49
0.000220
 49
-0.000110
 49
0.000220
 49
-0.000110
 49
0.000000
 49
-0.000110
  0
LTYPE
  2
DIVIDE
 70
    64
  3
__ . . __ . . __ . . __ . . __ . . __ . . __
 72
    65
 73
     6
 40
0.000550
 49
0.000220
 49
-0.000110
 49
0.000000
 49
-0.000110
 49
0.000000
 49
-0.000110
  0
LTYPE
  2
DOTDOT
 70
    64
  3
 . .  . .  . .  . .  . .  . . 
 72
    65
 73
     5
 40
0.000242
 49
-0.000110
 49
0.000000
 49
-0.000110
 49
0.000000
 49
-0.000110
  0
ENDTAB
  0
TABLE
  2
STYLE
 70
     2
  0
STYLE
 70
     0
  2
SN0
 40
0.000000
 41
0.000440
 50
0.000000
 71
     0
 42
0.000000
  3
ROMAND
  0
STYLE
 70
    68
  2
SV0
 40
0.000000
 41
0.000440
 50
0.000000
 71
     0
 42
0.000000
  3
ROMAND
  0
ENDTAB
  0
TABLE
  2
LAYER
 70
     3
  0
LAYER
  2
FOREGROUND
 70
    64
 62
     7
  6
CONTINUOUS
  0
LAYER
  2
BACKGROUND
 70
    65
 62
    -7
  6
CONTINUOUS
  0
LAYER
  2
0
 70
    64
 62
     7
  6
CONTINUOUS
  0
ENDTAB
  0
ENDSEC
  0
SECTION
  2
ENTITIES
  0
POLYLINE
  8
FOREGROUND
  6
CONTINUOUS
 66
     1
 40
0.000000
 41
0.000000
  0
VERTEX
  8
FOREGROUND
  6
CONTINUOUS
 10
0.000000
 20
7.252960
  0
VERTEX
  8
FOREGROUND
  6
CONTINUOUS
 10
8.499920
 20
7.252960
  0
VERTEX
  8
FOREGROUND
  6
CONTINUOUS
 10
8.499920
 20
-3.747040
  0
VERTEX
  8
FOREGROUND
  6
CONTINUOUS
 10
0.000000
 20
-3.747040
  0
VERTEX
  8
FOREGROUND
  6
CONTINUOUS
 10
0.000000
 20
7.252960
  0
SEQEND
  8
0
  0
POLYLINE
  8
FOREGROUND
  6
CONTINUOUS
 66
     1
 40
0.000000
 41
0.000000
  0
VERTEX
  8
FOREGROUND
  6
CONTINUOUS
 10
0.000000
 20
7.252960
  0
VERTEX
  8
FOREGROUND
  6
CONTINUOUS
 10
8.499920
 20
7.252960
  0
VERTEX
  8
FOREGROUND
  6
CONTINUOUS
 10
8.499920
 20
-3.747040
  0
VERTEX
  8
FOREGROUND
  6
CONTINUOUS
 10
0.000000
 20
-3.747040
  0
VERTEX
  8
FOREGROUND
  6
CONTINUOUS
 10
0.000000
 20
7.252960
  0
SEQEND
  8
0
  0
SOLID
  8
0
 62
    15
 10
3.362040
 20
4.051960
 11
3.995200
 21
4.417160
 12
3.388440
 22
4.038760
 13
4.021600
 23
4.403960
  0
POLYLINE
  8
0
  6
CONTINUOUS
 66
     1
 40
0.000000
 41
0.000000
  0
VERTEX
  8
0
  6
CONTINUOUS
 10
3.362040
 20
4.051960
  0
VERTEX
  8
0
  6
CONTINUOUS
 10
3.995200
 20
4.417160
  0
VERTEX
  8
0
  6
CONTINUOUS
 10
4.021600
 20
4.403960
  0
VERTEX
  8
0
  6
CONTINUOUS
 10
3.388440
 20
4.038760
  0
VERTEX
  8
0
  6
CONTINUOUS
 10
3.362040
 20
4.051960
  0
SEQEND
  8
0
  0
SOLID
  8
0
 62
    15
 10
1.521960
 20
2.574000
 11
2.155120
 21
2.939640
 12
1.607320
 22
2.595560
 13
2.240480
 23
2.960760
  0
POLYLINE
  8
0
  6
CONTINUOUS
 66
     1
 40
0.000000
 41
0.000000
  0
VERTEX
  8
0
  6
CONTINUOUS
 10
1.521960
 20
2.574000
  0
VERTEX
  8
0
  6
CONTINUOUS
 10
2.155120
 20
2.939640
  0
VERTEX
  8
0
  6
CONTINUOUS
 10
2.240480
 20
2.960760
  0
VERTEX
  8
0
  6
CONTINUOUS
 10
1.607320
 20
2.595560
  0
VERTEX
  8
0
  6
CONTINUOUS
 10
1.521960
 20
2.574000
  0
SEQEND
  8
0
  0
SOLID
  8
0
 62
    15
 10
1.383360
 20
3.729440
 11
2.016520
 21
4.094640
 12
1.408000
 22
3.735160
 13
2.041160
 23
4.100800
  0
POLYLINE
  8
0
  6
CONTINUOUS
 66
     1
 40
0.000000
 41
0.000000
  0
VERTEX
  8
0
  6
CONTINUOUS
 10
1.383360
 20
3.729440
  0
VERTEX
  8
0
  6
CONTINUOUS
 10
2.016520
 20
4.094640
  0
VERTEX
  8
0
  6
CONTINUOUS
 10
2.041160
 20
4.100800
  0
VERTEX
  8
0
  6
CONTINUOUS
 10
1.408000
 20
3.735160
  0
VERTEX
  8
0
  6
CONTINUOUS
 10
1.383360
 20
3.729440
  0
SEQEND
  8
0
  0
SOLID
  8
0
 62
    15
 10
1.684320
 20
4.010160
 11
2.317480
 21
4.375360
 12
1.738000
 22
4.038320
 13
2.371160
 23
4.403520
  0
POLYLINE
  8
0
  6
CONTINUOUS
 66
     1
 40
0.000000
 41
0.000000
  0
VERTEX
  8
0
  6
CONTINUOUS
 10
1.684320
 20
4.010160
  0
VERTEX
  8
0
  6
CONTINUOUS
 10
2.317480
 20
4.375360
  0
VERTEX
  8
0
  6
CONTINUOUS
 10
2.371160
 20
4.403520
  0
VERTEX
  8
0
  6
CONTINUOUS
 10
1.738000
 20
4.038320
  0
VERTEX
  8
0
  6
CONTINUOUS
 10
1.684320
 20
4.010160
  0
SEQEND
  8
0
  0
SOLID
  8
0
 62
    15
 10
1.738000
 20
4.038320
 11
2.371160
 21
4.403520
 12
1.763960
 22
4.051080
 13
2.397120
 23
4.416720
  0
POLYLINE
  8
0
  6
CONTINUOUS
 66
     1
 40
0.000000
 41
0.000000
  0
VERTEX
  8
0
  6
CONTINUOUS
 10
1.738000
 20
4.038320
  0
VERTEX
  8
0
  6
CONTINUOUS
 10
2.371160
 20
4.403520
  0
VERTEX
  8
0
  6
CONTINUOUS
 10
2.397120
 20
4.416720
  0
VERTEX
  8
0
  6
CONTINUOUS
 10
1.763960
 20
4.051080
  0
VERTEX
  8
0
  6
CONTINUOUS
 10
1.738000
 20
4.038320
  0
SEQEND
  8
0
  0
SOLID
  8
0
 62
    15
 10
1.763960
 20
4.051080
 11
2.397120
 21
4.416720
 12
1.789040
 22
4.064720
 13
2.422200
 23
4.429920
  0
POLYLINE
  8
0
  6
CONTINUOUS
 66
     1
 40
0.000000
 41
0.000000
  0
VERTEX
  8
0
  6
CONTINUOUS
 10
1.763960
 20
4.051080
  0
VERTEX
  8
0
  6
CONTINUOUS
 10
2.397120
 20
4.416720
  0
VERTEX
  8
0
  6
CONTINUOUS
 10
2.422200
 20
4.429920
  0
VERTEX
  8
0
  6
CONTINUOUS
 10
1.789040
 20
4.064720
  0
VERTEX
  8
0
  6
CONTINUOUS
 10
1.763960
 20
4.051080
  0
SEQEND
  8
0
  0
SOLID
  8
0
 62
    15
 10
1.757800
 20
5.421240
 11
2.390960
 21
5.786440
 12
1.918840
 22
5.513640
 13
2.552000
 23
5.878840
  0
POLYLINE
  8
0
  6
CONTINUOUS
 66
     1
 40
0.000000
 41
0.000000
  0
VERTEX
  8
0
  6
CONTINUOUS
 10
1.757800
 20
5.421240
  0
VERTEX
  8
0
  6
CONTINUOUS
 10
2.390960
 20
5.786440
  0
VERTEX
  8
0
  6
CONTINUOUS
 10
2.552000
 20
5.878840
  0
VERTEX
  8
0
  6
CONTINUOUS
 10
1.918840
 20
5.513640
  0
VERTEX
  8
0
  6
CONTINUOUS
 10
1.757800
 20
5.421240
  0
SEQEND
  8
0
  0
SOLID
  8
0
 62
    15
 10
1.918840
 20
5.513640
 11
2.552000
 21
5.878840
 12
2.106280
 22
5.584480
 13
2.739440
 23
5.949680
  0
POLYLINE
  8
0
  6
CONTINUOUS
 66
     1
 40
0.000000
 41
0.000000
  0
VERTEX
  8
0
  6
CONTINUOUS
 10
1.918840
 20
5.513640
  0
VERTEX
  8
0
  6
CONTINUOUS
 10
2.552000
 20
5.878840
  0
VERTEX
  8
0
  6
CONTINUOUS
 10
2.739440
 20
5.949680
  0
VERTEX
  8
0
  6
CONTINUOUS
 10
2.106280
 20
5.584480
  0
VERTEX
  8
0
  6
CONTINUOUS
 10
1.918840
 20
5.513640
  0
SEQEND
  8
0
  0
SOLID
  8
0
 62
    15
 10
2.106280
 20
5.584480
 11
2.739440
 21
5.949680
 12
2.321000
 22
5.629800
 13
2.954160
 23
5.995000
  0
POLYLINE
  8
0
  6
CONTINUOUS
 66
     1
 40
0.000000
 41
0.000000
  0
VERTEX
  8
0
  6
CONTINUOUS
 10
2.106280
 20
5.584480
  0
VERTEX
  8
0
  6
CONTINUOUS
 10
2.739440
 20
5.949680
  0
VERTEX
  8
0
  6
CONTINUOUS
 10
2.954160
 20
5.995000
  0
VERTEX
  8
0
  6
CONTINUOUS
 10
2.321000
 20
5.629800
  0
VERTEX
  8
0
  6
CONTINUOUS
 10
2.106280
 20
5.584480
  0
SEQEND
  8
0
  0
SOLID
  8
0
 62
    15
 10
2.321000
 20
5.629800
 11
2.954160
 21
5.995000
 12
2.563000
 22
5.645640
 13
3.196160
 23
6.010840
  0
POLYLINE
  8
0
  6
CONTINUOUS
 66
     1
 40
0.000000
 41
0.000000
  0
VERTEX
  8
0
  6
CONTINUOUS
 10
2.321000
 20
5.629800
  0
VERTEX
  8
0
  6
CONTINUOUS
 10
2.954160
 20
5.995000
  0
VERTEX
  8
0
  6
CONTINUOUS
 10
3.196160
 20
6.010840
  0
VERTEX
  8
0
  6
CONTINUOUS
 10
2.563000
 20
5.645640
  0
VERTEX
  8
0
  6
CONTINUOUS
 10
2.321000
 20
5.629800
  0
SEQEND
  8
0
  0
SOLID
  8
0
 62
    15
 10
2.563000
 20
5.646520
 11
3.196160
 21
6.011720
 12
2.805440
 22
5.630680
 13
3.438600
 23
5.995880
  0
POLYLINE
  8
0
  6
CONTINUOUS
 66
     1
 40
0.000000
 41
0.000000
  0
VERTEX
  8
0
  6
CONTINUOUS
 10
2.563000
 20
5.646520
  0
VERTEX
  8
0
  6
CONTINUOUS
 10
3.196160
 20
6.011720
  0
VERTEX
  8
0
  6
CONTINUOUS
 10
3.438600
 20
5.995880
  0
VERTEX
  8
0
  6
CONTINUOUS
 10
2.805440
 20
5.630680
  0
VERTEX
  8
0
  6
CONTINUOUS
 10
2.563000
 20
5.646520
  0
SEQEND
  8
0
  0
SOLID
  8
0
 62
    15
 10
2.805440
 20
5.630680
 11
3.438600
 21
5.995880
 12
3.019720
 22
5.584920
 13
3.653320
 23
5.950120
  0
POLYLINE
  8
0
  6
CONTINUOUS
 66
     1
 40
0.000000
 41
0.000000
  0
VERTEX
  8
0
  6
CONTINUOUS
 10
2.805440
 20
5.630680
  0
VERTEX
  8
0
  6
CONTINUOUS
 10
3.438600
 20
5.995880
  0
VERTEX
  8
0
  6
CONTINUOUS
 10
3.653320
 20
5.950120
  0
VERTEX
  8
0
  6
CONTINUOUS
 10
3.019720
 20
5.584920
  0
VERTEX
  8
0
  6
CONTINUOUS
 10
2.805440
 20
5.630680
  0
SEQEND
  8
0
  0
SOLID
  8
0
 62
    15
 10
3.019720
 20
5.584920
 11
3.653320
 21
5.950120
 12
3.207600
 22
5.514080
 13
3.840760
 23
5.879720
  0
POLYLINE
  8
0
  6
CONTINUOUS
 66
     1
 40
0.000000
 41
0.000000
  0
VERTEX
  8
0
  6
CONTINUOUS
 10
3.019720
 20
5.584920
  0
VERTEX
  8
0
  6
CONTINUOUS
 10
3.653320
 20
5.950120
  0
VERTEX
  8
0
  6
CONTINUOUS
 10
3.840760
 20
5.879720
  0
VERTEX
  8
0
  6
CONTINUOUS
 10
3.207600
 20
5.514080
  0
VERTEX
  8
0
  6
CONTINUOUS
 10
3.019720
 20
5.584920
  0
SEQEND
  8
0
  0
SOLID
  8
0
 62
    15
 10
3.207600
 20
5.514080
 11
3.840760
 21
5.879720
 12
3.368200
 22
5.422120
 13
4.001360
 23
5.787320
  0
POLYLINE
  8
0
  6
CONTINUOUS
 66
     1
 40
0.000000
 41
0.000000
  0
VERTEX
  8
0
  6
CONTINUOUS
 10
3.207600
 20
5.514080
  0
VERTEX
  8
0
  6
CONTINUOUS
 10
3.840760
 20
5.879720
  0
VERTEX
  8
0
  6
CONTINUOUS
 10
4.001360
 20
5.787320
  0
VERTEX
  8
0
  6
CONTINUOUS
 10
3.368200
 20
5.422120
  0
VERTEX
  8
0
  6
CONTINUOUS
 10
3.207600
 20
5.514080
  0
SEQEND
  8
0
  0
SOLID
  8
0
 62
    15
 10
3.368200
 20
5.422120
 11
4.001360
 21
5.787320
 12
3.502400
 22
5.312120
 13
4.135560
 23
5.677320
  0
POLYLINE
  8
0
  6
CONTINUOUS
 66
     1
 40
0.000000
 41
0.000000
  0
VERTEX
  8
0
  6
CONTINUOUS
 10
3.368200
 20
5.422120
  0
VERTEX
  8
0
  6
CONTINUOUS
 10
4.001360
 20
5.787320
  0
VERTEX
  8
0
  6
CONTINUOUS
 10
4.135560
 20
5.677320
  0
VERTEX
  8
0
  6
CONTINUOUS
 10
3.502400
 20
5.312120
  0
VERTEX
  8
0
  6
CONTINUOUS
 10
3.368200
 20
5.422120
  0
SEQEND
  8
0
  0
SOLID
  8
0
 62
    15
 10
3.502400
 20
5.312120
 11
4.135560
 21
5.677320
 12
3.610640
 22
5.188920
 13
4.243800
 23
5.554120
  0
POLYLINE
  8
0
  6
CONTINUOUS
 66
     1
 40
0.000000
 41
0.000000
  0
VERTEX
  8
0
  6
CONTINUOUS
 10
3.502400
 20
5.312120
  0
VERTEX
  8
0
  6
CONTINUOUS
 10
4.135560
 20
5.677320
  0
VERTEX
  8
0
  6
CONTINUOUS
 10
4.243800
 20
5.554120
  0
VERTEX
  8
0
  6
CONTINUOUS
 10
3.610640
 20
5.188920
  0
VERTEX
  8
0
  6
CONTINUOUS
 10
3.502400
 20
5.312120
  0
SEQEND
  8
0
  0
SOLID
  8
0
 62
    15
 10
3.610640
 20
5.188920
 11
4.243800
 21
5.554120
 12
3.692920
 22
5.056040
 13
4.326080
 23
5.421680
  0
POLYLINE
  8
0
  6
CONTINUOUS
 66
     1
 40
0.000000
 41
0.000000
  0
VERTEX
  8
0
  6
CONTINUOUS
 10
3.610640
 20
5.188920
  0
VERTEX
  8
0
  6
CONTINUOUS
 10
4.243800
 20
5.554120
  0
VERTEX
  8
0
  6
CONTINUOUS
 10
4.326080
 20
5.421680
  0
VERTEX
  8
0
  6
CONTINUOUS
 10
3.692920
 20
5.056040
  0
VERTEX
  8
0
  6
CONTINUOUS
 10
3.610640
 20
5.188920
  0
SEQEND
  8
0
  0
SOLID
  8
0
 62
    15
 10
3.692920
 20
5.056040
 11
4.326080
 21
5.421680
 12
3.750120
 22
4.917880
 13
4.383280
 23
5.283080
  0
POLYLINE
  8
0
  6
CONTINUOUS
 66
     1
 40
0.000000
 41
0.000000
  0
VERTEX
  8
0
  6
CONTINUOUS
 10
3.692920
 20
5.056040
  0
VERTEX
  8
0
  6
CONTINUOUS
 10
4.326080
 20
5.421680
  0
VERTEX
  8
0
  6
CONTINUOUS
 10
4.383280
 20
5.283080
  0
VERTEX
  8
0
  6
CONTINUOUS
 10
3.750120
 20
4.917880
  0
VERTEX
  8
0
  6
CONTINUOUS
 10
3.692920
 20
5.056040
  0
SEQEND
  8
0
  0
SOLID
  8
0
 62
    15
 10
3.750120
 20
4.917880
 11
4.383280
 21
5.283080
 12
3.782240
 22
4.777960
 13
4.415400
 23
5.143160
  0
POLYLINE
  8
0
  6
CONTINUOUS
 66
     1
 40
0.000000
 41
0.000000
  0
VERTEX
  8
0
  6
CONTINUOUS
 10
3.750120
 20
4.917880
  0
VERTEX
  8
0
  6
CONTINUOUS
 10
4.383280
 20
5.283080
  0
VERTEX
  8
0
  6
CONTINUOUS
 10
4.415400
 20
5.143160
  0
VERTEX
  8
0
  6
CONTINUOUS
 10
3.782240
 20
4.777960
  0
VERTEX
  8
0
  6
CONTINUOUS
 10
3.750120
 20
4.917880
  0
SEQEND
  8
0
  0
SOLID
  8
0
 62
    15
 10
3.782240
 20
4.777960
 11
4.415400
 21
5.143160
 12
3.789720
 22
4.640680
 13
4.422880
 23
5.005880
  0
POLYLINE
  8
0
  6
CONTINUOUS
 66
     1
 40
0.000000
 41
0.000000
  0
VERTEX
  8
0
  6
CONTINUOUS
 10
3.782240
 20
4.777960
  0
VERTEX
  8
0
  6
CONTINUOUS
 10
4.415400
 20
5.143160
  0
VERTEX
  8
0
  6
CONTINUOUS
 10
4.422880
 20
5.005880
  0
VERTEX
  8
0
  6
CONTINUOUS
 10
3.789720
 20
4.640680
  0
VERTEX
  8
0
  6
CONTINUOUS
 10
3.782240
 20
4.777960
  0
SEQEND
  8
0
  0
SOLID
  8
0
 62
    15
 10
3.789720
 20
4.640680
 11
4.422880
 21
5.005880
 12
3.773000
 22
4.509560
 13
4.406160
 23
4.874760
  0
POLYLINE
  8
0
  6
CONTINUOUS
 66
     1
 40
0.000000
 41
0.000000
  0
VERTEX
  8
0
  6
CONTINUOUS
 10
3.789720
 20
4.640680
  0
VERTEX
  8
0
  6
CONTINUOUS
 10
4.422880
 20
5.005880
  0
VERTEX
  8
0
  6
CONTINUOUS
 10
4.406160
 20
4.874760
  0
VERTEX
  8
0
  6
CONTINUOUS
 10
3.773000
 20
4.509560
  0
VERTEX
  8
0
  6
CONTINUOUS
 10
3.789720
 20
4.640680
  0
SEQEND
  8
0
  0
SOLID
  8
0
 62
    15
 10
3.773000
 20
4.509560
 11
4.406160
 21
4.874760
 12
3.732080
 22
4.389000
 13
4.365240
 23
4.754200
  0
POLYLINE
  8
0
  6
CONTINUOUS
 66
     1
 40
0.000000
 41
0.000000
  0
VERTEX
  8
0
  6
CONTINUOUS
 10
3.773000
 20
4.509560
  0
VERTEX
  8
0
  6
CONTINUOUS
 10
4.406160
 20
4.874760
  0
VERTEX
  8
0
  6
CONTINUOUS
 10
4.365240
 20
4.754200
  0
VERTEX
  8
0
  6
CONTINUOUS
 10
3.732080
 20
4.389000
  0
VERTEX
  8
0
  6
CONTINUOUS
 10
3.773000
 20
4.509560
  0
SEQEND
  8
0
  0
SOLID
  8
0
 62
    15
 10
3.732080
 20
4.389000
 11
4.365240
 21
4.754200
 12
3.667840
 22
4.282520
 13
4.301000
 23
4.647720
  0
POLYLINE
  8
0
  6
CONTINUOUS
 66
     1
 40
0.000000
 41
0.000000
  0
VERTEX
  8
0
  6
CONTINUOUS
 10
3.732080
 20
4.389000
  0
VERTEX
  8
0
  6
CONTINUOUS
 10
4.365240
 20
4.754200
  0
VERTEX
  8
0
  6
CONTINUOUS
 10
4.301000
 20
4.647720
  0
VERTEX
  8
0
  6
CONTINUOUS
 10
3.667840
 20
4.282520
  0
VERTEX
  8
0
  6
CONTINUOUS
 10
3.732080
 20
4.389000
  0
SEQEND
  8
0
  0
SOLID
  8
0
 62
    15
 10
3.336960
 20
4.065160
 11
3.970120
 21
4.430360
 12
3.362040
 22
4.051960
 13
3.995200
 23
4.417160
  0
POLYLINE
  8
0
  6
CONTINUOUS
 66
     1
 40
0.000000
 41
0.000000
  0
VERTEX
  8
0
  6
CONTINUOUS
 10
3.336960
 20
4.065160
  0
VERTEX
  8
0
  6
CONTINUOUS
 10
3.970120
 20
4.430360
  0
VERTEX
  8
0
  6
CONTINUOUS
 10
3.995200
 20
4.417160
  0
VERTEX
  8
0
  6
CONTINUOUS
 10
3.362040
 20
4.051960
  0
VERTEX
  8
0
  6
CONTINUOUS
 10
3.336960
 20
4.065160
  0
SEQEND
  8
0
  0
SOLID
  8
0
 62
    15
 10
3.336960
 20
4.089360
 11
3.970120
 21
4.454560
 12
3.336960
 22
4.065160
 13
3.970120
 23
4.430360
  0
POLYLINE
  8
0
  6
CONTINUOUS
 66
     1
 40
0.000000
 41
0.000000
  0
VERTEX
  8
0
  6
CONTINUOUS
 10
3.336960
 20
4.089360
  0
VERTEX
  8
0
  6
CONTINUOUS
 10
3.970120
 20
4.454560
  0
VERTEX
  8
0
  6
CONTINUOUS
 10
3.970120
 20
4.430360
  0
VERTEX
  8
0
  6
CONTINUOUS
 10
3.336960
 20
4.065160
  0
VERTEX
  8
0
  6
CONTINUOUS
 10
3.336960
 20
4.089360
  0
SEQEND
  8
0
  0
SOLID
  8
0
 62
    15
 10
3.580280
 20
4.194520
 11
4.213440
 21
4.559720
 12
3.469840
 22
4.128960
 13
4.103000
 23
4.494160
  0
POLYLINE
  8
0
  6
CONTINUOUS
 66
     1
 40
0.000000
 41
0.000000
  0
VERTEX
  8
0
  6
CONTINUOUS
 10
3.580280
 20
4.194520
  0
VERTEX
  8
0
  6
CONTINUOUS
 10
4.213440
 20
4.559720
  0
VERTEX
  8
0
  6
CONTINUOUS
 10
4.103000
 20
4.494160
  0
VERTEX
  8
0
  6
CONTINUOUS
 10
3.469840
 20
4.128960
  0
VERTEX
  8
0
  6
CONTINUOUS
 10
3.580280
 20
4.194520
  0
SEQEND
  8
0
  0
SOLID
  8
0
 62
    15
 10
3.667840
 20
4.282520
 11
4.301000
 21
4.647720
 12
3.580280
 22
4.194520
 13
4.213440
 23
4.559720
  0
POLYLINE
  8
0
  6
CONTINUOUS
 66
     1
 40
0.000000
 41
0.000000
  0
VERTEX
  8
0
  6
CONTINUOUS
 10
3.667840
 20
4.282520
  0
VERTEX
  8
0
  6
CONTINUOUS
 10
4.301000
 20
4.647720
  0
VERTEX
  8
0
  6
CONTINUOUS
 10
4.213440
 20
4.559720
  0
VERTEX
  8
0
  6
CONTINUOUS
 10
3.580280
 20
4.194520
  0
VERTEX
  8
0
  6
CONTINUOUS
 10
3.667840
 20
4.282520
  0
SEQEND
  8
0
  0
SOLID
  8
0
 62
    15
 10
1.656160
 20
2.020920
 11
2.289320
 21
2.386560
 12
1.692680
 22
2.032800
 13
2.325840
 23
2.398000
  0
POLYLINE
  8
0
  6
CONTINUOUS
 66
     1
 40
0.000000
 41
0.000000
  0
VERTEX
  8
0
  6
CONTINUOUS
 10
1.656160
 20
2.020920
  0
VERTEX
  8
0
  6
CONTINUOUS
 10
2.289320
 20
2.386560
  0
VERTEX
  8
0
  6
CONTINUOUS
 10
2.325840
 20
2.398000
  0
VERTEX
  8
0
  6
CONTINUOUS
 10
1.692680
 20
2.032800
  0
VERTEX
  8
0
  6
CONTINUOUS
 10
1.656160
 20
2.020920
  0
SEQEND
  8
0
  0
SOLID
  8
0
 62
    15
 10
3.388440
 20
4.038760
 11
4.021600
 21
4.403960
 12
3.441680
 22
4.011040
 13
4.075280
 23
4.376240
  0
POLYLINE
  8
0
  6
CONTINUOUS
 66
     1
 40
0.000000
 41
0.000000
  0
VERTEX
  8
0
  6
CONTINUOUS
 10
3.388440
 20
4.038760
  0
VERTEX
  8
0
  6
CONTINUOUS
 10
4.021600
 20
4.403960
  0
VERTEX
  8
0
  6
CONTINUOUS
 10
4.075280
 20
4.376240
  0
VERTEX
  8
0
  6
CONTINUOUS
 10
3.441680
 20
4.011040
  0
VERTEX
  8
0
  6
CONTINUOUS
 10
3.388440
 20
4.038760
  0
SEQEND
  8
0
  0
SOLID
  8
0
 62
    15
 10
3.441680
 20
4.011040
 11
4.075280
 21
4.376240
 12
3.491840
 22
3.978040
 13
4.125000
 23
4.343240
  0
POLYLINE
  8
0
  6
CONTINUOUS
 66
     1
 40
0.000000
 41
0.000000
  0
VERTEX
  8
0
  6
CONTINUOUS
 10
3.441680
 20
4.011040
  0
VERTEX
  8
0
  6
CONTINUOUS
 10
4.075280
 20
4.376240
  0
VERTEX
  8
0
  6
CONTINUOUS
 10
4.125000
 20
4.343240
  0
VERTEX
  8
0
  6
CONTINUOUS
 10
3.491840
 20
3.978040
  0
VERTEX
  8
0
  6
CONTINUOUS
 10
3.441680
 20
4.011040
  0
SEQEND
  8
0
  0
SOLID
  8
0
 62
    15
 10
3.491840
 20
3.978040
 11
4.125000
 21
4.343240
 12
3.533200
 22
3.936680
 13
4.166360
 23
4.302320
  0
POLYLINE
  8
0
  6
CONTINUOUS
 66
     1
 40
0.000000
 41
0.000000
  0
VERTEX
  8
0
  6
CONTINUOUS
 10
3.491840
 20
3.978040
  0
VERTEX
  8
0
  6
CONTINUOUS
 10
4.125000
 20
4.343240
  0
VERTEX
  8
0
  6
CONTINUOUS
 10
4.166360
 20
4.302320
  0
VERTEX
  8
0
  6
CONTINUOUS
 10
3.533200
 20
3.936680
  0
VERTEX
  8
0
  6
CONTINUOUS
 10
3.491840
 20
3.978040
  0
SEQEND
  8
0
  0
SOLID
  8
0
 62
    15
 10
3.533200
 20
3.936680
 11
4.166360
 21
4.302320
 12
3.553000
 22
3.910280
 13
4.186160
 23
4.275480
  0
POLYLINE
  8
0
  6
CONTINUOUS
 66
     1
 40
0.000000
 41
0.000000
  0
VERTEX
  8
0
  6
CONTINUOUS
 10
3.533200
 20
3.936680
  0
VERTEX
  8
0
  6
CONTINUOUS
 10
4.166360
 20
4.302320
  0
VERTEX
  8
0
  6
CONTINUOUS
 10
4.186160
 20
4.275480
  0
VERTEX
  8
0
  6
CONTINUOUS
 10
3.553000
 20
3.910280
  0
VERTEX
  8
0
  6
CONTINUOUS
 10
3.533200
 20
3.936680
  0
SEQEND
  8
0
  0
SOLID
  8
0
 62
    15
 10
3.553000
 20
3.910280
 11
4.186160
 21
4.275480
 12
3.576760
 22
3.878160
 13
4.209920
 23
4.243360
  0
POLYLINE
  8
0
  6
CONTINUOUS
 66
     1
 40
0.000000
 41
0.000000
  0
VERTEX
  8
0
  6
CONTINUOUS
 10
3.553000
 20
3.910280
  0
VERTEX
  8
0
  6
CONTINUOUS
 10
4.186160
 20
4.275480
  0
VERTEX
  8
0
  6
CONTINUOUS
 10
4.209920
 20
4.243360
  0
VERTEX
  8
0
  6
CONTINUOUS
 10
3.576760
 20
3.878160
  0
VERTEX
  8
0
  6
CONTINUOUS
 10
3.553000
 20
3.910280
  0
SEQEND
  8
0
  0
SOLID
  8
0
 62
    15
 10
3.576760
 20
3.878160
 11
4.209920
 21
4.243360
 12
3.632640
 22
3.809520
 13
4.265800
 23
4.175160
  0
POLYLINE
  8
0
  6
CONTINUOUS
 66
     1
 40
0.000000
 41
0.000000
  0
VERTEX
  8
0
  6
CONTINUOUS
 10
3.576760
 20
3.878160
  0
VERTEX
  8
0
  6
CONTINUOUS
 10
4.209920
 20
4.243360
  0
VERTEX
  8
0
  6
CONTINUOUS
 10
4.265800
 20
4.175160
  0
VERTEX
  8
0
  6
CONTINUOUS
 10
3.632640
 20
3.809520
  0
VERTEX
  8
0
  6
CONTINUOUS
 10
3.576760
 20
3.878160
  0
SEQEND
  8
0
  0
SOLID
  8
0
 62
    15
 10
3.632640
 20
3.809520
 11
4.265800
 21
4.175160
 12
3.690720
 22
3.753200
 13
4.323880
 23
4.118400
  0
POLYLINE
  8
0
  6
CONTINUOUS
 66
     1
 40
0.000000
 41
0.000000
  0
VERTEX
  8
0
  6
CONTINUOUS
 10
3.632640
 20
3.809520
  0
VERTEX
  8
0
  6
CONTINUOUS
 10
4.265800
 20
4.175160
  0
VERTEX
  8
0
  6
CONTINUOUS
 10
4.323880
 20
4.118400
  0
VERTEX
  8
0
  6
CONTINUOUS
 10
3.690720
 20
3.753200
  0
VERTEX
  8
0
  6
CONTINUOUS
 10
3.632640
 20
3.809520
  0
SEQEND
  8
0
  0
SOLID
  8
0
 62
    15
 10
3.690720
 20
3.753200
 11
4.323880
 21
4.118400
 12
3.718440
 22
3.736040
 13
4.351600
 23
4.101240
  0
POLYLINE
  8
0
  6
CONTINUOUS
 66
     1
 40
0.000000
 41
0.000000
  0
VERTEX
  8
0
  6
CONTINUOUS
 10
3.690720
 20
3.753200
  0
VERTEX
  8
0
  6
CONTINUOUS
 10
4.323880
 20
4.118400
  0
VERTEX
  8
0
  6
CONTINUOUS
 10
4.351600
 20
4.101240
  0
VERTEX
  8
0
  6
CONTINUOUS
 10
3.718440
 20
3.736040
  0
VERTEX
  8
0
  6
CONTINUOUS
 10
3.690720
 20
3.753200
  0
SEQEND
  8
0
  0
SOLID
  8
0
 62
    15
 10
3.718440
 20
3.736040
 11
4.351600
 21
4.101240
 12
3.742640
 22
3.730320
 13
4.376240
 23
4.095520
  0
POLYLINE
  8
0
  6
CONTINUOUS
 66
     1
 40
0.000000
 41
0.000000
  0
VERTEX
  8
0
  6
CONTINUOUS
 10
3.718440
 20
3.736040
  0
VERTEX
  8
0
  6
CONTINUOUS
 10
4.351600
 20
4.101240
  0
VERTEX
  8
0
  6
CONTINUOUS
 10
4.376240
 20
4.095520
  0
VERTEX
  8
0
  6
CONTINUOUS
 10
3.742640
 20
3.730320
  0
VERTEX
  8
0
  6
CONTINUOUS
 10
3.718440
 20
3.736040
  0
SEQEND
  8
0
  0
SOLID
  8
0
 62
    15
 10
3.519120
 20
2.635600
 11
4.152280
 21
3.000800
 12
3.519120
 22
2.596440
 13
4.152280
 23
2.961640
  0
POLYLINE
  8
0
  6
CONTINUOUS
 66
     1
 40
0.000000
 41
0.000000
  0
VERTEX
  8
0
  6
CONTINUOUS
 10
3.519120
 20
2.635600
  0
VERTEX
  8
0
  6
CONTINUOUS
 10
4.152280
 20
3.000800
  0
VERTEX
  8
0
  6
CONTINUOUS
 10
4.152280
 20
2.961640
  0
VERTEX
  8
0
  6
CONTINUOUS
 10
3.519120
 20
2.596440
  0
VERTEX
  8
0
  6
CONTINUOUS
 10
3.519120
 20
2.635600
  0
SEQEND
  8
0
  0
SOLID
  8
0
 62
    15
 10
3.519120
 20
2.596440
 11
4.152280
 21
2.961640
 12
3.604480
 22
2.574880
 13
4.237640
 23
2.940080
  0
POLYLINE
  8
0
  6
CONTINUOUS
 66
     1
 40
0.000000
 41
0.000000
  0
VERTEX
  8
0
  6
CONTINUOUS
 10
3.519120
 20
2.596440
  0
VERTEX
  8
0
  6
CONTINUOUS
 10
4.152280
 20
2.961640
  0
VERTEX
  8
0
  6
CONTINUOUS
 10
4.237640
 20
2.940080
  0
VERTEX
  8
0
  6
CONTINUOUS
 10
3.604480
 20
2.574880
  0
VERTEX
  8
0
  6
CONTINUOUS
 10
3.519120
 20
2.596440
  0
SEQEND
  8
0
  0
SOLID
  8
0
 62
    15
 10
3.742640
 20
3.730320
 11
4.376240
 21
4.095520
 12
3.742640
 22
2.701600
 13
4.375800
 23
3.066800
  0
POLYLINE
  8
0
  6
CONTINUOUS
 66
     1
 40
0.000000
 41
0.000000
  0
VERTEX
  8
0
  6
CONTINUOUS
 10
3.742640
 20
3.730320
  0
VERTEX
  8
0
  6
CONTINUOUS
 10
4.376240
 20
4.095520
  0
VERTEX
  8
0
  6
CONTINUOUS
 10
4.375800
 20
3.066800
  0
VERTEX
  8
0
  6
CONTINUOUS
 10
3.742640
 20
2.701600
  0
VERTEX
  8
0
  6
CONTINUOUS
 10
3.742640
 20
3.730320
  0
SEQEND
  8
0
  0
SOLID
  8
0
 62
    15
 10
3.742640
 20
2.701600
 11
4.375800
 21
3.066800
 12
3.729000
 22
2.675640
 13
4.362160
 23
3.040840
  0
POLYLINE
  8
0
  6
CONTINUOUS
 66
     1
 40
0.000000
 41
0.000000
  0
VERTEX
  8
0
  6
CONTINUOUS
 10
3.742640
 20
2.701600
  0
VERTEX
  8
0
  6
CONTINUOUS
 10
4.375800
 20
3.066800
  0
VERTEX
  8
0
  6
CONTINUOUS
 10
4.362160
 20
3.040840
  0
VERTEX
  8
0
  6
CONTINUOUS
 10
3.729000
 20
2.675640
  0
VERTEX
  8
0
  6
CONTINUOUS
 10
3.742640
 20
2.701600
  0
SEQEND
  8
0
  0
SOLID
  8
0
 62
    15
 10
3.604480
 20
2.574880
 11
4.237640
 21
2.940080
 12
3.672240
 22
2.518560
 13
4.305400
 23
2.883760
  0
POLYLINE
  8
0
  6
CONTINUOUS
 66
     1
 40
0.000000
 41
0.000000
  0
VERTEX
  8
0
  6
CONTINUOUS
 10
3.604480
 20
2.574880
  0
VERTEX
  8
0
  6
CONTINUOUS
 10
4.237640
 20
2.940080
  0
VERTEX
  8
0
  6
CONTINUOUS
 10
4.305400
 20
2.883760
  0
VERTEX
  8
0
  6
CONTINUOUS
 10
3.672240
 20
2.518560
  0
VERTEX
  8
0
  6
CONTINUOUS
 10
3.604480
 20
2.574880
  0
SEQEND
  8
0
  0
SOLID
  8
0
 62
    15
 10
3.672240
 20
2.518560
 11
4.305400
 21
2.883760
 12
3.717560
 22
2.438920
 13
4.350720
 23
2.804560
  0
POLYLINE
  8
0
  6
CONTINUOUS
 66
     1
 40
0.000000
 41
0.000000
  0
VERTEX
  8
0
  6
CONTINUOUS
 10
3.672240
 20
2.518560
  0
VERTEX
  8
0
  6
CONTINUOUS
 10
4.305400
 20
2.883760
  0
VERTEX
  8
0
  6
CONTINUOUS
 10
4.350720
 20
2.804560
  0
VERTEX
  8
0
  6
CONTINUOUS
 10
3.717560
 20
2.438920
  0
VERTEX
  8
0
  6
CONTINUOUS
 10
3.672240
 20
2.518560
  0
SEQEND
  8
0
  0
SOLID
  8
0
 62
    15
 10
3.717560
 20
2.438920
 11
4.350720
 21
2.804560
 12
3.735160
 22
2.347840
 13
4.368320
 23
2.713040
  0
POLYLINE
  8
0
  6
CONTINUOUS
 66
     1
 40
0.000000
 41
0.000000
  0
VERTEX
  8
0
  6
CONTINUOUS
 10
3.717560
 20
2.438920
  0
VERTEX
  8
0
  6
CONTINUOUS
 10
4.350720
 20
2.804560
  0
VERTEX
  8
0
  6
CONTINUOUS
 10
4.368320
 20
2.713040
  0
VERTEX
  8
0
  6
CONTINUOUS
 10
3.735160
 20
2.347840
  0
VERTEX
  8
0
  6
CONTINUOUS
 10
3.717560
 20
2.438920
  0
SEQEND
  8
0
  0
SOLID
  8
0
 62
    15
 10
3.433320
 20
2.099240
 11
4.066480
 21
2.464880
 12
3.433320
 22
2.033680
 13
4.066480
 23
2.398880
  0
POLYLINE
  8
0
  6
CONTINUOUS
 66
     1
 40
0.000000
 41
0.000000
  0
VERTEX
  8
0
  6
CONTINUOUS
 10
3.433320
 20
2.099240
  0
VERTEX
  8
0
  6
CONTINUOUS
 10
4.066480
 20
2.464880
  0
VERTEX
  8
0
  6
CONTINUOUS
 10
4.066480
 20
2.398880
  0
VERTEX
  8
0
  6
CONTINUOUS
 10
3.433320
 20
2.033680
  0
VERTEX
  8
0
  6
CONTINUOUS
 10
3.433320
 20
2.099240
  0
SEQEND
  8
0
  0
SOLID
  8
0
 62
    15
 10
3.433320
 20
2.033680
 11
4.066480
 21
2.398880
 12
3.469840
 22
2.021800
 13
4.103000
 23
2.387000
  0
POLYLINE
  8
0
  6
CONTINUOUS
 66
     1
 40
0.000000
 41
0.000000
  0
VERTEX
  8
0
  6
CONTINUOUS
 10
3.433320
 20
2.033680
  0
VERTEX
  8
0
  6
CONTINUOUS
 10
4.066480
 20
2.398880
  0
VERTEX
  8
0
  6
CONTINUOUS
 10
4.103000
 20
2.387000
  0
VERTEX
  8
0
  6
CONTINUOUS
 10
3.469840
 20
2.021800
  0
VERTEX
  8
0
  6
CONTINUOUS
 10
3.433320
 20
2.033680
  0
SEQEND
  8
0
  0
SOLID
  8
0
 62
    15
 10
3.668720
 20
2.177120
 11
4.301880
 21
2.542320
 12
3.627360
 22
2.145440
 13
4.260520
 23
2.510640
  0
POLYLINE
  8
0
  6
CONTINUOUS
 66
     1
 40
0.000000
 41
0.000000
  0
VERTEX
  8
0
  6
CONTINUOUS
 10
3.668720
 20
2.177120
  0
VERTEX
  8
0
  6
CONTINUOUS
 10
4.301880
 20
2.542320
  0
VERTEX
  8
0
  6
CONTINUOUS
 10
4.260520
 20
2.510640
  0
VERTEX
  8
0
  6
CONTINUOUS
 10
3.627360
 20
2.145440
  0
VERTEX
  8
0
  6
CONTINUOUS
 10
3.668720
 20
2.177120
  0
SEQEND
  8
0
  0
SOLID
  8
0
 62
    15
 10
3.735160
 20
2.347840
 11
4.368320
 21
2.713040
 12
3.720640
 22
2.256760
 13
4.353800
 23
2.621960
  0
POLYLINE
  8
0
  6
CONTINUOUS
 66
     1
 40
0.000000
 41
0.000000
  0
VERTEX
  8
0
  6
CONTINUOUS
 10
3.735160
 20
2.347840
  0
VERTEX
  8
0
  6
CONTINUOUS
 10
4.368320
 20
2.713040
  0
VERTEX
  8
0
  6
CONTINUOUS
 10
4.353800
 20
2.621960
  0
VERTEX
  8
0
  6
CONTINUOUS
 10
3.720640
 20
2.256760
  0
VERTEX
  8
0
  6
CONTINUOUS
 10
3.735160
 20
2.347840
  0
SEQEND
  8
0
  0
SOLID
  8
0
 62
    15
 10
3.720640
 20
2.256760
 11
4.353800
 21
2.621960
 12
3.668720
 22
2.177120
 13
4.301880
 23
2.542320
  0
POLYLINE
  8
0
  6
CONTINUOUS
 66
     1
 40
0.000000
 41
0.000000
  0
VERTEX
  8
0
  6
CONTINUOUS
 10
3.720640
 20
2.256760
  0
VERTEX
  8
0
  6
CONTINUOUS
 10
4.353800
 20
2.621960
  0
VERTEX
  8
0
  6
CONTINUOUS
 10
4.301880
 20
2.542320
  0
VERTEX
  8
0
  6
CONTINUOUS
 10
3.668720
 20
2.177120
  0
VERTEX
  8
0
  6
CONTINUOUS
 10
3.720640
 20
2.256760
  0
SEQEND
  8
0
  0
SOLID
  8
0
 62
    15
 10
3.469840
 20
2.021800
 11
4.103000
 21
2.387000
 12
3.500640
 22
1.990560
 13
4.133800
 23
2.355760
  0
POLYLINE
  8
0
  6
CONTINUOUS
 66
     1
 40
0.000000
 41
0.000000
  0
VERTEX
  8
0
  6
CONTINUOUS
 10
3.469840
 20
2.021800
  0
VERTEX
  8
0
  6
CONTINUOUS
 10
4.103000
 20
2.387000
  0
VERTEX
  8
0
  6
CONTINUOUS
 10
4.133800
 20
2.355760
  0
VERTEX
  8
0
  6
CONTINUOUS
 10
3.500640
 20
1.990560
  0
VERTEX
  8
0
  6
CONTINUOUS
 10
3.469840
 20
2.021800
  0
SEQEND
  8
0
  0
SOLID
  8
0
 62
    15
 10
3.500640
 20
1.990560
 11
4.133800
 21
2.355760
 12
3.522200
 22
1.946120
 13
4.155360
 23
2.311320
  0
POLYLINE
  8
0
  6
CONTINUOUS
 66
     1
 40
0.000000
 41
0.000000
  0
VERTEX
  8
0
  6
CONTINUOUS
 10
3.500640
 20
1.990560
  0
VERTEX
  8
0
  6
CONTINUOUS
 10
4.133800
 20
2.355760
  0
VERTEX
  8
0
  6
CONTINUOUS
 10
4.155360
 20
2.311320
  0
VERTEX
  8
0
  6
CONTINUOUS
 10
3.522200
 20
1.946120
  0
VERTEX
  8
0
  6
CONTINUOUS
 10
3.500640
 20
1.990560
  0
SEQEND
  8
0
  0
SOLID
  8
0
 62
    15
 10
3.522200
 20
1.946120
 11
4.155360
 21
2.311320
 12
3.530560
 22
1.895520
 13
4.163720
 23
2.260720
  0
POLYLINE
  8
0
  6
CONTINUOUS
 66
     1
 40
0.000000
 41
0.000000
  0
VERTEX
  8
0
  6
CONTINUOUS
 10
3.522200
 20
1.946120
  0
VERTEX
  8
0
  6
CONTINUOUS
 10
4.155360
 20
2.311320
  0
VERTEX
  8
0
  6
CONTINUOUS
 10
4.163720
 20
2.260720
  0
VERTEX
  8
0
  6
CONTINUOUS
 10
3.530560
 20
1.895520
  0
VERTEX
  8
0
  6
CONTINUOUS
 10
3.522200
 20
1.946120
  0
SEQEND
  8
0
  0
SOLID
  8
0
 62
    15
 10
3.530560
 20
1.895520
 11
4.163720
 21
2.260720
 12
3.522200
 22
1.844920
 13
4.155360
 23
2.210120
  0
POLYLINE
  8
0
  6
CONTINUOUS
 66
     1
 40
0.000000
 41
0.000000
  0
VERTEX
  8
0
  6
CONTINUOUS
 10
3.530560
 20
1.895520
  0
VERTEX
  8
0
  6
CONTINUOUS
 10
4.163720
 20
2.260720
  0
VERTEX
  8
0
  6
CONTINUOUS
 10
4.155360
 20
2.210120
  0
VERTEX
  8
0
  6
CONTINUOUS
 10
3.522200
 20
1.844920
  0
VERTEX
  8
0
  6
CONTINUOUS
 10
3.530560
 20
1.895520
  0
SEQEND
  8
0
  0
SOLID
  8
0
 62
    15
 10
3.493600
 20
1.800480
 11
4.126760
 21
2.165680
 12
3.441240
 22
1.769240
 13
4.074400
 23
2.134440
  0
POLYLINE
  8
0
  6
CONTINUOUS
 66
     1
 40
0.000000
 41
0.000000
  0
VERTEX
  8
0
  6
CONTINUOUS
 10
3.493600
 20
1.800480
  0
VERTEX
  8
0
  6
CONTINUOUS
 10
4.126760
 20
2.165680
  0
VERTEX
  8
0
  6
CONTINUOUS
 10
4.074400
 20
2.134440
  0
VERTEX
  8
0
  6
CONTINUOUS
 10
3.441240
 20
1.769240
  0
VERTEX
  8
0
  6
CONTINUOUS
 10
3.493600
 20
1.800480
  0
SEQEND
  8
0
  0
SOLID
  8
0
 62
    15
 10
3.522200
 20
1.844920
 11
4.155360
 21
2.210120
 12
3.493600
 22
1.800480
 13
4.126760
 23
2.165680
  0
POLYLINE
  8
0
  6
CONTINUOUS
 66
     1
 40
0.000000
 41
0.000000
  0
VERTEX
  8
0
  6
CONTINUOUS
 10
3.522200
 20
1.844920
  0
VERTEX
  8
0
  6
CONTINUOUS
 10
4.155360
 20
2.210120
  0
VERTEX
  8
0
  6
CONTINUOUS
 10
4.126760
 20
2.165680
  0
VERTEX
  8
0
  6
CONTINUOUS
 10
3.493600
 20
1.800480
  0
VERTEX
  8
0
  6
CONTINUOUS
 10
3.522200
 20
1.844920
  0
SEQEND
  8
0
  0
POLYLINE
  8
0
  6
CONTINUOUS
 66
     1
 40
0.000000
 41
0.000000
  0
VERTEX
  8
0
  6
CONTINUOUS
 10
1.765280
 20
1.756480
  0
VERTEX
  8
0
  6
CONTINUOUS
 10
1.685200
 20
1.768360
  0
VERTEX
  8
0
  6
CONTINUOUS
 10
1.632400
 20
1.799600
  0
VERTEX
  8
0
  6
CONTINUOUS
 10
1.603800
 20
1.844040
  0
VERTEX
  8
0
  6
CONTINUOUS
 10
1.595880
 20
1.894640
  0
VERTEX
  8
0
  6
CONTINUOUS
 10
1.603800
 20
1.945680
  0
VERTEX
  8
0
  6
CONTINUOUS
 10
1.625360
 20
1.989680
  0
VERTEX
  8
0
  6
CONTINUOUS
 10
1.656160
 20
2.020920
  0
VERTEX
  8
0
  6
CONTINUOUS
 10
1.692680
 20
2.032800
  0
VERTEX
  8
0
  6
CONTINUOUS
 10
1.692680
 20
2.098800
  0
VERTEX
  8
0
  6
CONTINUOUS
 10
1.615680
 20
2.104520
  0
VERTEX
  8
0
  6
CONTINUOUS
 10
1.551440
 20
2.119920
  0
VERTEX
  8
0
  6
CONTINUOUS
 10
1.498640
 20
2.144560
  0
VERTEX
  8
0
  6
CONTINUOUS
 10
1.457280
 20
2.176240
  0
VERTEX
  8
0
  6
CONTINUOUS
 10
1.405360
 20
2.255880
  0
VERTEX
  8
0
  6
CONTINUOUS
 10
1.390840
 20
2.346960
  0
VERTEX
  8
0
  6
CONTINUOUS
 10
1.408880
 20
2.438480
  0
VERTEX
  8
0
  6
CONTINUOUS
 10
1.453760
 20
2.518120
  0
VERTEX
  8
0
  6
CONTINUOUS
 10
1.521960
 20
2.574000
  0
VERTEX
  8
0
  6
CONTINUOUS
 10
1.607320
 20
2.595560
  0
VERTEX
  8
0
  6
CONTINUOUS
 10
1.607320
 20
2.635160
  0
VERTEX
  8
0
  6
CONTINUOUS
 10
1.508320
 20
2.638680
  0
VERTEX
  8
0
  6
CONTINUOUS
 10
1.438800
 20
2.653200
  0
VERTEX
  8
0
  6
CONTINUOUS
 10
1.397000
 20
2.674760
  0
VERTEX
  8
0
  6
CONTINUOUS
 10
1.383360
 20
2.700720
  0
VERTEX
  8
0
  6
CONTINUOUS
 10
1.383360
 20
3.729440
  0
VERTEX
  8
0
  6
CONTINUOUS
 10
1.408000
 20
3.735160
  0
VERTEX
  8
0
  6
CONTINUOUS
 10
1.435280
 20
3.752320
  0
VERTEX
  8
0
  6
CONTINUOUS
 10
1.493800
 20
3.809080
  0
VERTEX
  8
0
  6
CONTINUOUS
 10
1.549240
 20
3.877280
  0
VERTEX
  8
0
  6
CONTINUOUS
 10
1.593240
 20
3.936240
  0
VERTEX
  8
0
  6
CONTINUOUS
 10
1.634160
 20
3.977600
  0
VERTEX
  8
0
  6
CONTINUOUS
 10
1.684320
 20
4.010160
  0
VERTEX
  8
0
  6
CONTINUOUS
 10
1.789040
 20
4.064720
  0
VERTEX
  8
0
  6
CONTINUOUS
 10
1.789040
 20
4.088920
  0
VERTEX
  8
0
  6
CONTINUOUS
 10
1.656160
 20
4.128080
  0
VERTEX
  8
0
  6
CONTINUOUS
 10
1.545720
 20
4.194080
  0
VERTEX
  8
0
  6
CONTINUOUS
 10
1.458160
 20
4.282080
  0
VERTEX
  8
0
  6
CONTINUOUS
 10
1.393920
 20
4.388120
  0
VERTEX
  8
0
  6
CONTINUOUS
 10
1.353000
 20
4.509120
  0
VERTEX
  8
0
  6
CONTINUOUS
 10
1.336280
 20
4.639800
  0
VERTEX
  8
0
  6
CONTINUOUS
 10
1.343760
 20
4.777520
  0
VERTEX
  8
0
  6
CONTINUOUS
 10
1.375880
 20
4.917000
  0
VERTEX
  8
0
  6
CONTINUOUS
 10
1.433080
 20
5.055600
  0
VERTEX
  8
0
  6
CONTINUOUS
 10
1.515360
 20
5.188040
  0
VERTEX
  8
0
  6
CONTINUOUS
 10
1.623600
 20
5.311680
  0
VERTEX
  8
0
  6
CONTINUOUS
 10
1.757800
 20
5.421240
  0
VERTEX
  8
0
  6
CONTINUOUS
 10
1.918840
 20
5.513640
  0
VERTEX
  8
0
  6
CONTINUOUS
 10
2.106280
 20
5.584480
  0
VERTEX
  8
0
  6
CONTINUOUS
 10
2.321000
 20
5.629800
  0
VERTEX
  8
0
  6
CONTINUOUS
 10
2.563000
 20
5.645640
  0
VERTEX
  8
0
  6
CONTINUOUS
 10
2.563000
 20
5.646520
  0
VERTEX
  8
0
  6
CONTINUOUS
 10
2.805440
 20
5.630680
  0
VERTEX
  8
0
  6
CONTINUOUS
 10
3.019720
 20
5.584920
  0
VERTEX
  8
0
  6
CONTINUOUS
 10
3.207600
 20
5.514080
  0
VERTEX
  8
0
  6
CONTINUOUS
 10
3.368200
 20
5.422120
  0
VERTEX
  8
0
  6
CONTINUOUS
 10
3.502400
 20
5.312120
  0
VERTEX
  8
0
  6
CONTINUOUS
 10
3.610640
 20
5.188920
  0
VERTEX
  8
0
  6
CONTINUOUS
 10
3.692920
 20
5.056040
  0
VERTEX
  8
0
  6
CONTINUOUS
 10
3.750120
 20
4.917880
  0
VERTEX
  8
0
  6
CONTINUOUS
 10
3.782240
 20
4.777960
  0
VERTEX
  8
0
  6
CONTINUOUS
 10
3.789720
 20
4.640680
  0
VERTEX
  8
0
  6
CONTINUOUS
 10
3.773000
 20
4.509560
  0
VERTEX
  8
0
  6
CONTINUOUS
 10
3.732080
 20
4.389000
  0
VERTEX
  8
0
  6
CONTINUOUS
 10
3.667840
 20
4.282520
  0
VERTEX
  8
0
  6
CONTINUOUS
 10
3.580280
 20
4.194520
  0
VERTEX
  8
0
  6
CONTINUOUS
 10
3.469840
 20
4.128960
  0
VERTEX
  8
0
  6
CONTINUOUS
 10
3.336960
 20
4.089360
  0
VERTEX
  8
0
  6
CONTINUOUS
 10
3.336960
 20
4.065160
  0
VERTEX
  8
0
  6
CONTINUOUS
 10
3.441680
 20
4.011040
  0
VERTEX
  8
0
  6
CONTINUOUS
 10
3.491840
 20
3.978040
  0
VERTEX
  8
0
  6
CONTINUOUS
 10
3.533200
 20
3.936680
  0
VERTEX
  8
0
  6
CONTINUOUS
 10
3.576760
 20
3.878160
  0
VERTEX
  8
0
  6
CONTINUOUS
 10
3.632640
 20
3.809520
  0
VERTEX
  8
0
  6
CONTINUOUS
 10
3.690720
 20
3.753200
  0
VERTEX
  8
0
  6
CONTINUOUS
 10
3.718440
 20
3.736040
  0
VERTEX
  8
0
  6
CONTINUOUS
 10
3.742640
 20
3.730320
  0
VERTEX
  8
0
  6
CONTINUOUS
 10
3.742640
 20
2.701600
  0
VERTEX
  8
0
  6
CONTINUOUS
 10
3.729000
 20
2.675640
  0
VERTEX
  8
0
  6
CONTINUOUS
 10
3.687640
 20
2.653640
  0
VERTEX
  8
0
  6
CONTINUOUS
 10
3.617680
 20
2.639560
  0
VERTEX
  8
0
  6
CONTINUOUS
 10
3.519120
 20
2.635600
  0
VERTEX
  8
0
  6
CONTINUOUS
 10
3.519120
 20
2.596440
  0
VERTEX
  8
0
  6
CONTINUOUS
 10
3.604480
 20
2.574880
  0
VERTEX
  8
0
  6
CONTINUOUS
 10
3.672240
 20
2.518560
  0
VERTEX
  8
0
  6
CONTINUOUS
 10
3.717560
 20
2.438920
  0
VERTEX
  8
0
  6
CONTINUOUS
 10
3.735160
 20
2.347840
  0
VERTEX
  8
0
  6
CONTINUOUS
 10
3.720640
 20
2.256760
  0
VERTEX
  8
0
  6
CONTINUOUS
 10
3.668720
 20
2.177120
  0
VERTEX
  8
0
  6
CONTINUOUS
 10
3.627360
 20
2.145440
  0
VERTEX
  8
0
  6
CONTINUOUS
 10
3.574560
 20
2.120800
  0
VERTEX
  8
0
  6
CONTINUOUS
 10
3.510320
 20
2.104960
  0
VERTEX
  8
0
  6
CONTINUOUS
 10
3.433320
 20
2.099240
  0
VERTEX
  8
0
  6
CONTINUOUS
 10
3.433320
 20
2.033680
  0
VERTEX
  8
0
  6
CONTINUOUS
 10
3.469840
 20
2.021800
  0
VERTEX
  8
0
  6
CONTINUOUS
 10
3.500640
 20
1.990560
  0
VERTEX
  8
0
  6
CONTINUOUS
 10
3.522200
 20
1.946120
  0
VERTEX
  8
0
  6
CONTINUOUS
 10
3.530560
 20
1.895520
  0
VERTEX
  8
0
  6
CONTINUOUS
 10
3.522200
 20
1.844920
  0
VERTEX
  8
0
  6
CONTINUOUS
 10
3.493600
 20
1.800480
  0
VERTEX
  8
0
  6
CONTINUOUS
 10
3.441240
 20
1.769240
  0
VERTEX
  8
0
  6
CONTINUOUS
 10
3.361160
 20
1.757360
  0
VERTEX
  8
0
  6
CONTINUOUS
 10
1.765280
 20
1.756480
  0
SEQEND
  8
0
  0
TEXT
  8
0
 10
2.562120
 20
1.475760
 40
0.138260
  1
BA 1051
 41
1.000000
  7
SN0
 71
     0
 72
     5
 11
3.199260
 21
1.475760
  0
TEXT
  8
0
 10
2.355320
 20
1.283920
 40
0.138260
  1
2-1/2" x 3-7/8"
 41
1.000000
  7
SN0
 71
     0
 72
     5
 11
3.404843
 21
1.283920
  0
POLYLINE
  8
0
  6
CONTINUOUS
 66
     1
 40
0.014080
 41
0.014080
  0
VERTEX
  8
0
  6
CONTINUOUS
 10
5.875760
 20
1.816760
  0
VERTEX
  8
0
  6
CONTINUOUS
 10
5.852880
 20
1.817640
  0
VERTEX
  8
0
  6
CONTINUOUS
 10
5.832200
 20
1.819840
  0
VERTEX
  8
0
  6
CONTINUOUS
 10
5.795680
 20
1.828640
  0
VERTEX
  8
0
  6
CONTINUOUS
 10
5.780280
 20
1.834800
  0
VERTEX
  8
0
  6
CONTINUOUS
 10
5.753880
 20
1.850640
  0
VERTEX
  8
0
  6
CONTINUOUS
 10
5.734080
 20
1.870000
  0
VERTEX
  8
0
  6
CONTINUOUS
 10
5.719560
 20
1.892440
  0
VERTEX
  8
0
  6
CONTINUOUS
 10
5.710760
 20
1.916640
  0
VERTEX
  8
0
  6
CONTINUOUS
 10
5.706800
 20
1.942160
  0
VERTEX
  8
0
  6
CONTINUOUS
 10
5.706360
 20
1.954920
  0
VERTEX
  8
0
  6
CONTINUOUS
 10
5.708560
 20
1.980880
  0
VERTEX
  8
0
  6
CONTINUOUS
 10
5.714720
 20
2.005520
  0
VERTEX
  8
0
  6
CONTINUOUS
 10
5.729680
 20
2.039840
  0
VERTEX
  8
0
  6
CONTINUOUS
 10
5.750800
 20
2.067560
  0
VERTEX
  8
0
  6
CONTINUOUS
 10
5.767080
 20
2.081200
  0
VERTEX
  8
0
  6
CONTINUOUS
 10
5.784680
 20
2.090000
  0
VERTEX
  8
0
  6
CONTINUOUS
 10
5.803600
 20
2.093080
  0
VERTEX
  8
0
  6
CONTINUOUS
 10
5.803600
 20
2.159080
  0
VERTEX
  8
0
  6
CONTINUOUS
 10
5.763560
 20
2.160400
  0
VERTEX
  8
0
  6
CONTINUOUS
 10
5.726600
 20
2.164800
  0
VERTEX
  8
0
  6
CONTINUOUS
 10
5.692720
 20
2.171400
  0
VERTEX
  8
0
  6
CONTINUOUS
 10
5.647840
 20
2.185920
  0
VERTEX
  8
0
  6
CONTINUOUS
 10
5.621440
 20
2.198240
  0
VERTEX
  8
0
  6
CONTINUOUS
 10
5.587560
 20
2.219800
  0
VERTEX
  8
0
  6
CONTINUOUS
 10
5.559400
 20
2.245760
  0
VERTEX
  8
0
  6
CONTINUOUS
 10
5.536960
 20
2.274360
  0
VERTEX
  8
0
  6
CONTINUOUS
 10
5.520240
 20
2.305600
  0
VERTEX
  8
0
  6
CONTINUOUS
 10
5.509240
 20
2.338600
  0
VERTEX
  8
0
  6
CONTINUOUS
 10
5.504400
 20
2.361040
  0
VERTEX
  8
0
  6
CONTINUOUS
 10
5.501760
 20
2.384360
  0
VERTEX
  8
0
  6
CONTINUOUS
 10
5.501320
 20
2.407240
  0
VERTEX
  8
0
  6
CONTINUOUS
 10
5.503080
 20
2.430560
  0
VERTEX
  8
0
  6
CONTINUOUS
 10
5.506600
 20
2.453880
  0
VERTEX
  8
0
  6
CONTINUOUS
 10
5.511880
 20
2.476320
  0
VERTEX
  8
0
  6
CONTINUOUS
 10
5.519360
 20
2.498760
  0
VERTEX
  8
0
  6
CONTINUOUS
 10
5.528160
 20
2.519880
  0
VERTEX
  8
0
  6
CONTINUOUS
 10
5.538720
 20
2.540560
  0
VERTEX
  8
0
  6
CONTINUOUS
 10
5.564680
 20
2.578400
  0
VERTEX
  8
0
  6
CONTINUOUS
 10
5.579640
 20
2.595120
  0
VERTEX
  8
0
  6
CONTINUOUS
 10
5.595920
 20
2.610080
  0
VERTEX
  8
0
  6
CONTINUOUS
 10
5.613520
 20
2.623280
  0
VERTEX
  8
0
  6
CONTINUOUS
 10
5.642120
 20
2.639120
  0
VERTEX
  8
0
  6
CONTINUOUS
 10
5.673360
 20
2.650120
  0
VERTEX
  8
0
  6
CONTINUOUS
 10
5.694920
 20
2.654520
  0
VERTEX
  8
0
  6
CONTINUOUS
 10
5.717800
 20
2.655840
  0
VERTEX
  8
0
  6
CONTINUOUS
 10
5.717800
 20
2.695440
  0
VERTEX
  8
0
  6
CONTINUOUS
 10
5.690520
 20
2.695000
  0
VERTEX
  8
0
  6
CONTINUOUS
 10
5.619240
 20
2.698960
  0
VERTEX
  8
0
  6
CONTINUOUS
 10
5.580520
 20
2.705120
  0
VERTEX
  8
0
  6
CONTINUOUS
 10
5.549280
 20
2.713480
  0
VERTEX
  8
0
  6
CONTINUOUS
 10
5.525080
 20
2.723600
  0
VERTEX
  8
0
  6
CONTINUOUS
 10
5.507920
 20
2.735040
  0
VERTEX
  8
0
  6
CONTINUOUS
 10
5.501760
 20
2.741200
  0
VERTEX
  8
0
  6
CONTINUOUS
 10
5.495160
 20
2.754400
  0
VERTEX
  8
0
  6
CONTINUOUS
 10
5.494280
 20
2.761000
  0
VERTEX
  8
0
  6
CONTINUOUS
 10
5.493840
 20
3.789720
  0
VERTEX
  8
0
  6
CONTINUOUS
 10
5.505720
 20
3.791040
  0
VERTEX
  8
0
  6
CONTINUOUS
 10
5.532120
 20
3.802920
  0
VERTEX
  8
0
  6
CONTINUOUS
 10
5.560280
 20
3.824480
  0
VERTEX
  8
0
  6
CONTINUOUS
 10
5.589760
 20
3.853080
  0
VERTEX
  8
0
  6
CONTINUOUS
 10
5.646960
 20
3.920840
  0
VERTEX
  8
0
  6
CONTINUOUS
 10
5.712960
 20
4.007960
  0
VERTEX
  8
0
  6
CONTINUOUS
 10
5.722640
 20
4.018520
  0
VERTEX
  8
0
  6
CONTINUOUS
 10
5.756520
 20
4.046680
  0
VERTEX
  8
0
  6
CONTINUOUS
 10
5.794800
 20
4.070440
  0
VERTEX
  8
0
  6
CONTINUOUS
 10
5.899960
 20
4.125000
  0
VERTEX
  8
0
  6
CONTINUOUS
 10
5.899960
 20
4.149200
  0
VERTEX
  8
0
  6
CONTINUOUS
 10
5.864760
 20
4.156240
  0
VERTEX
  8
0
  6
CONTINUOUS
 10
5.830880
 20
4.165480
  0
VERTEX
  8
0
  6
CONTINUOUS
 10
5.798320
 20
4.176040
  0
VERTEX
  8
0
  6
CONTINUOUS
 10
5.767080
 20
4.188800
  0
VERTEX
  8
0
  6
CONTINUOUS
 10
5.737160
 20
4.202880
  0
VERTEX
  8
0
  6
CONTINUOUS
 10
5.709000
 20
4.218280
  0
VERTEX
  8
0
  6
CONTINUOUS
 10
5.682160
 20
4.235440
  0
VERTEX
  8
0
  6
CONTINUOUS
 10
5.632440
 20
4.274160
  0
VERTEX
  8
0
  6
CONTINUOUS
 10
5.588880
 20
4.318160
  0
VERTEX
  8
0
  6
CONTINUOUS
 10
5.550600
 20
4.367000
  0
VERTEX
  8
0
  6
CONTINUOUS
 10
5.518480
 20
4.420240
  0
VERTEX
  8
0
  6
CONTINUOUS
 10
5.492520
 20
4.477440
  0
VERTEX
  8
0
  6
CONTINUOUS
 10
5.471840
 20
4.537720
  0
VERTEX
  8
0
  6
CONTINUOUS
 10
5.457320
 20
4.601080
  0
VERTEX
  8
0
  6
CONTINUOUS
 10
5.448960
 20
4.666640
  0
VERTEX
  8
0
  6
CONTINUOUS
 10
5.446760
 20
4.733960
  0
VERTEX
  8
0
  6
CONTINUOUS
 10
5.447640
 20
4.768280
  0
VERTEX
  8
0
  6
CONTINUOUS
 10
5.450280
 20
4.803040
  0
VERTEX
  8
0
  6
CONTINUOUS
 10
5.460400
 20
4.872560
  0
VERTEX
  8
0
  6
CONTINUOUS
 10
5.467440
 20
4.907320
  0
VERTEX
  8
0
  6
CONTINUOUS
 10
5.476240
 20
4.942520
  0
VERTEX
  8
0
  6
CONTINUOUS
 10
5.498680
 20
5.012040
  0
VERTEX
  8
0
  6
CONTINUOUS
 10
5.511880
 20
5.046800
  0
VERTEX
  8
0
  6
CONTINUOUS
 10
5.544000
 20
5.115880
  0
VERTEX
  8
0
  6
CONTINUOUS
 10
5.581840
 20
5.182760
  0
VERTEX
  8
0
  6
CONTINUOUS
 10
5.626280
 20
5.248320
  0
VERTEX
  8
0
  6
CONTINUOUS
 10
5.650920
 20
5.280440
  0
VERTEX
  8
0
  6
CONTINUOUS
 10
5.705040
 20
5.342040
  0
VERTEX
  8
0
  6
CONTINUOUS
 10
5.765760
 20
5.400560
  0
VERTEX
  8
0
  6
CONTINUOUS
 10
5.832640
 20
5.455560
  0
VERTEX
  8
0
  6
CONTINUOUS
 10
5.868720
 20
5.481520
  0
VERTEX
  8
0
  6
CONTINUOUS
 10
5.945720
 20
5.529920
  0
VERTEX
  8
0
  6
CONTINUOUS
 10
5.986640
 20
5.552360
  0
VERTEX
  8
0
  6
CONTINUOUS
 10
6.073760
 20
5.593720
  0
VERTEX
  8
0
  6
CONTINUOUS
 10
6.119960
 20
5.612200
  0
VERTEX
  8
0
  6
CONTINUOUS
 10
6.167480
 20
5.628920
  0
VERTEX
  8
0
  6
CONTINUOUS
 10
6.217200
 20
5.644320
  0
VERTEX
  8
0
  6
CONTINUOUS
 10
6.268240
 20
5.658400
  0
VERTEX
  8
0
  6
CONTINUOUS
 10
6.321040
 20
5.670720
  0
VERTEX
  8
0
  6
CONTINUOUS
 10
6.375600
 20
5.681280
  0
VERTEX
  8
0
  6
CONTINUOUS
 10
6.431920
 20
5.690080
  0
VERTEX
  8
0
  6
CONTINUOUS
 10
6.519480
 20
5.699760
  0
VERTEX
  8
0
  6
CONTINUOUS
 10
6.610560
 20
5.705040
  0
VERTEX
  8
0
  6
CONTINUOUS
 10
6.673920
 20
5.705920
  0
VERTEX
  8
0
  6
CONTINUOUS
 10
6.673920
 20
5.706800
  0
VERTEX
  8
0
  6
CONTINUOUS
 10
6.768080
 20
5.704600
  0
VERTEX
  8
0
  6
CONTINUOUS
 10
6.828360
 20
5.700640
  0
VERTEX
  8
0
  6
CONTINUOUS
 10
6.915920
 20
5.690960
  0
VERTEX
  8
0
  6
CONTINUOUS
 10
6.972240
 20
5.682160
  0
VERTEX
  8
0
  6
CONTINUOUS
 10
7.026800
 20
5.671600
  0
VERTEX
  8
0
  6
CONTINUOUS
 10
7.079600
 20
5.659280
  0
VERTEX
  8
0
  6
CONTINUOUS
 10
7.130640
 20
5.645200
  0
VERTEX
  8
0
  6
CONTINUOUS
 10
7.179920
 20
5.629800
  0
VERTEX
  8
0
  6
CONTINUOUS
 10
7.227880
 20
5.613080
  0
VERTEX
  8
0
  6
CONTINUOUS
 10
7.273640
 20
5.594600
  0
VERTEX
  8
0
  6
CONTINUOUS
 10
7.360760
 20
5.553240
  0
VERTEX
  8
0
  6
CONTINUOUS
 10
7.401680
 20
5.530800
  0
VERTEX
  8
0
  6
CONTINUOUS
 10
7.441280
 20
5.507040
  0
VERTEX
  8
0
  6
CONTINUOUS
 10
7.478680
 20
5.482400
  0
VERTEX
  8
0
  6
CONTINUOUS
 10
7.514760
 20
5.456440
  0
VERTEX
  8
0
  6
CONTINUOUS
 10
7.582080
 20
5.401440
  0
VERTEX
  8
0
  6
CONTINUOUS
 10
7.642360
 20
5.342920
  0
VERTEX
  8
0
  6
CONTINUOUS
 10
7.696480
 20
5.281320
  0
VERTEX
  8
0
  6
CONTINUOUS
 10
7.744440
 20
5.216640
  0
VERTEX
  8
0
  6
CONTINUOUS
 10
7.785360
 20
5.150200
  0
VERTEX
  8
0
  6
CONTINUOUS
 10
7.820560
 20
5.082440
  0
VERTEX
  8
0
  6
CONTINUOUS
 10
7.848720
 20
5.012920
  0
VERTEX
  8
0
  6
CONTINUOUS
 10
7.861040
 20
4.978160
  0
VERTEX
  8
0
  6
CONTINUOUS
 10
7.879960
 20
4.908200
  0
VERTEX
  8
0
  6
CONTINUOUS
 10
7.887440
 20
4.873440
  0
VERTEX
  8
0
  6
CONTINUOUS
 10
7.897120
 20
4.803480
  0
VERTEX
  8
0
  6
CONTINUOUS
 10
7.899760
 20
4.769160
  0
VERTEX
  8
0
  6
CONTINUOUS
 10
7.900200
 20
4.700960
  0
VERTEX
  8
0
  6
CONTINUOUS
 10
7.898440
 20
4.667520
  0
VERTEX
  8
0
  6
CONTINUOUS
 10
7.890080
 20
4.601960
  0
VERTEX
  8
0
  6
CONTINUOUS
 10
7.875560
 20
4.538600
  0
VERTEX
  8
0
  6
CONTINUOUS
 10
7.866320
 20
4.507800
  0
VERTEX
  8
0
  6
CONTINUOUS
 10
7.843000
 20
4.449280
  0
VERTEX
  8
0
  6
CONTINUOUS
 10
7.813520
 20
4.393840
  0
VERTEX
  8
0
  6
CONTINUOUS
 10
7.778760
 20
4.342800
  0
VERTEX
  8
0
  6
CONTINUOUS
 10
7.737840
 20
4.296160
  0
VERTEX
  8
0
  6
CONTINUOUS
 10
7.691200
 20
4.254800
  0
VERTEX
  8
0
  6
CONTINUOUS
 10
7.638840
 20
4.218720
  0
VERTEX
  8
0
  6
CONTINUOUS
 10
7.580760
 20
4.189240
  0
VERTEX
  8
0
  6
CONTINUOUS
 10
7.549520
 20
4.176480
  0
VERTEX
  8
0
  6
CONTINUOUS
 10
7.516960
 20
4.165920
  0
VERTEX
  8
0
  6
CONTINUOUS
 10
7.483080
 20
4.156680
  0
VERTEX
  8
0
  6
CONTINUOUS
 10
7.447880
 20
4.149640
  0
VERTEX
  8
0
  6
CONTINUOUS
 10
7.447880
 20
4.125440
  0
VERTEX
  8
0
  6
CONTINUOUS
 10
7.552600
 20
4.071320
  0
VERTEX
  8
0
  6
CONTINUOUS
 10
7.590880
 20
4.047560
  0
VERTEX
  8
0
  6
CONTINUOUS
 10
7.624760
 20
4.019400
  0
VERTEX
  8
0
  6
CONTINUOUS
 10
7.652920
 20
3.984640
  0
VERTEX
  8
0
  6
CONTINUOUS
 10
7.714080
 20
3.904120
  0
VERTEX
  8
0
  6
CONTINUOUS
 10
7.757640
 20
3.853960
  0
VERTEX
  8
0
  6
CONTINUOUS
 10
7.787120
 20
3.825360
  0
VERTEX
  8
0
  6
CONTINUOUS
 10
7.815280
 20
3.803800
  0
VERTEX
  8
0
  6
CONTINUOUS
 10
7.841680
 20
3.791920
  0
VERTEX
  8
0
  6
CONTINUOUS
 10
7.853560
 20
3.790600
  0
VERTEX
  8
0
  6
CONTINUOUS
 10
7.853120
 20
2.761880
  0
VERTEX
  8
0
  6
CONTINUOUS
 10
7.852240
 20
2.755280
  0
VERTEX
  8
0
  6
CONTINUOUS
 10
7.845640
 20
2.742080
  0
VERTEX
  8
0
  6
CONTINUOUS
 10
7.831560
 20
2.729760
  0
VERTEX
  8
0
  6
CONTINUOUS
 10
7.810880
 20
2.719200
  0
VERTEX
  8
0
  6
CONTINUOUS
 10
7.783160
 20
2.709960
  0
VERTEX
  8
0
  6
CONTINUOUS
 10
7.748400
 20
2.702480
  0
VERTEX
  8
0
  6
CONTINUOUS
 10
7.706600
 20
2.697640
  0
VERTEX
  8
0
  6
CONTINUOUS
 10
7.656880
 20
2.695880
  0
VERTEX
  8
0
  6
CONTINUOUS
 10
7.629600
 20
2.695880
  0
VERTEX
  8
0
  6
CONTINUOUS
 10
7.629600
 20
2.656720
  0
VERTEX
  8
0
  6
CONTINUOUS
 10
7.652480
 20
2.655400
  0
VERTEX
  8
0
  6
CONTINUOUS
 10
7.684600
 20
2.647920
  0
VERTEX
  8
0
  6
CONTINUOUS
 10
7.714960
 20
2.635160
  0
VERTEX
  8
0
  6
CONTINUOUS
 10
7.733880
 20
2.624160
  0
VERTEX
  8
0
  6
CONTINUOUS
 10
7.751480
 20
2.610960
  0
VERTEX
  8
0
  6
CONTINUOUS
 10
7.767760
 20
2.596000
  0
VERTEX
  8
0
  6
CONTINUOUS
 10
7.782720
 20
2.579280
  0
VERTEX
  8
0
  6
CONTINUOUS
 10
7.808680
 20
2.541440
  0
VERTEX
  8
0
  6
CONTINUOUS
 10
7.819240
 20
2.520760
  0
VERTEX
  8
0
  6
CONTINUOUS
 10
7.828040
 20
2.499640
  0
VERTEX
  8
0
  6
CONTINUOUS
 10
7.835520
 20
2.477200
  0
VERTEX
  8
0
  6
CONTINUOUS
 10
7.840800
 20
2.454760
  0
VERTEX
  8
0
  6
CONTINUOUS
 10
7.844320
 20
2.431440
  0
VERTEX
  8
0
  6
CONTINUOUS
 10
7.846080
 20
2.408120
  0
VERTEX
  8
0
  6
CONTINUOUS
 10
7.845640
 20
2.385240
  0
VERTEX
  8
0
  6
CONTINUOUS
 10
7.843000
 20
2.361920
  0
VERTEX
  8
0
  6
CONTINUOUS
 10
7.838160
 20
2.339480
  0
VERTEX
  8
0
  6
CONTINUOUS
 10
7.831560
 20
2.317040
  0
VERTEX
  8
0
  6
CONTINUOUS
 10
7.816600
 20
2.285360
  0
VERTEX
  8
0
  6
CONTINUOUS
 10
7.803840
 20
2.265120
  0
VERTEX
  8
0
  6
CONTINUOUS
 10
7.779640
 20
2.237400
  0
VERTEX
  8
0
  6
CONTINUOUS
 10
7.749720
 20
2.213200
  0
VERTEX
  8
0
  6
CONTINUOUS
 10
7.713200
 20
2.192520
  0
VERTEX
  8
0
  6
CONTINUOUS
 10
7.670520
 20
2.176680
  0
VERTEX
  8
0
  6
CONTINUOUS
 10
7.638400
 20
2.168760
  0
VERTEX
  8
0
  6
CONTINUOUS
 10
7.603200
 20
2.163040
  0
VERTEX
  8
0
  6
CONTINUOUS
 10
7.564480
 20
2.160400
  0
VERTEX
  8
0
  6
CONTINUOUS
 10
7.544240
 20
2.159960
  0
VERTEX
  8
0
  6
CONTINUOUS
 10
7.544240
 20
2.093960
  0
VERTEX
  8
0
  6
CONTINUOUS
 10
7.563160
 20
2.090880
  0
VERTEX
  8
0
  6
CONTINUOUS
 10
7.580760
 20
2.082080
  0
VERTEX
  8
0
  6
CONTINUOUS
 10
7.597040
 20
2.068440
  0
VERTEX
  8
0
  6
CONTINUOUS
 10
7.611560
 20
2.050840
  0
VERTEX
  8
0
  6
CONTINUOUS
 10
7.628720
 20
2.018280
  0
VERTEX
  8
0
  6
CONTINUOUS
 10
7.638840
 20
1.981760
  0
VERTEX
  8
0
  6
CONTINUOUS
 10
7.641040
 20
1.955800
  0
VERTEX
  8
0
  6
CONTINUOUS
 10
7.639280
 20
1.929840
  0
VERTEX
  8
0
  6
CONTINUOUS
 10
7.632680
 20
1.905200
  0
VERTEX
  8
0
  6
CONTINUOUS
 10
7.627840
 20
1.893320
  0
VERTEX
  8
0
  6
CONTINUOUS
 10
7.613320
 20
1.870880
  0
VERTEX
  8
0
  6
CONTINUOUS
 10
7.593520
 20
1.851520
  0
VERTEX
  8
0
  6
CONTINUOUS
 10
7.567120
 20
1.835680
  0
VERTEX
  8
0
  6
CONTINUOUS
 10
7.551720
 20
1.829520
  0
VERTEX
  8
0
  6
CONTINUOUS
 10
7.515200
 20
1.820720
  0
VERTEX
  8
0
  6
CONTINUOUS
 10
7.494520
 20
1.818520
  0
VERTEX
  8
0
  6
CONTINUOUS
 10
7.471640
 20
1.817640
  0
VERTEX
  8
0
  6
CONTINUOUS
 10
5.875760
 20
1.816760
  0
SEQEND
  8
0
  0
TEXT
  8
0
 10
6.344360
 20
2.143240
 40
0.138260
  1
BA 1051
 41
1.000000
  7
SN0
 71
     0
 72
     5
 11
6.981500
 21
2.143240
  0
TEXT
  8
0
 10
6.138000
 20
1.951400
 40
0.138260
  1
2-1/2" x 3-7/8"
 41
1.000000
  7
SN0
 71
     0
 72
     5
 11
7.187523
 21
1.951400
  0
ENDSEC
  0
EOF
