  0
SECTION
  2
HEADER
  9
$ACADVER
  1
AC1006
  9
$EXTMIN
 10
0.618200
 20
0.537240
  9
$EXTMAX
 10
8.013720
 20
3.255560
  9
$LTSCALE
 40
0.044000
  9
$PDMODE
 70
    35
  9
$PDSIZE
 40
0.035200
  0
ENDSEC
  0
SECTION
  2
TABLES
  0
TABLE
  2
LTYPE
 70
     9
  0
LTYPE
  2
CONTINUOUS
 70
    64
  3
Solid line
 72
    65
 73
     0
 40
0.000000
  0
LTYPE
  2
DASHED
 70
    64
  3
__ __ __ __ __ __ __ __ __ __ __ __ __ __ __
 72
    65
 73
     2
 40
0.000330
 49
0.000220
 49
-0.000110
  0
LTYPE
  2
HIDDEN
 70
    64
  3
 _ _ _ _ _ _ _ _ _ _ _ _ _ _ _ _ _ _ _ _ _ _
 72
    65
 73
     2
 40
0.000165
 49
0.000110
 49
-0.000055
  0
LTYPE
  2
CENTER
 70
    64
  3
____ _ ____ _ ____ _ ____ _ ____ _ ____ _ ____
 72
    65
 73
     4
 40
0.000880
 49
0.000550
 49
-0.000110
 49
0.000110
 49
-0.000110
  0
LTYPE
  2
PHANTOM
 70
    64
  3
_____ _ _ _____ _ _ _____ _ _ _____ _ _ ____
 72
    65
 73
     6
 40
0.001100
 49
0.000550
 49
-0.000110
 49
0.000110
 49
-0.000110
 49
0.000110
 49
-0.000110
  0
LTYPE
  2
DOT
 70
    64
  3
...............................................
 72
    65
 73
     2
 40
0.000110
 49
0.000000
 49
-0.000110
  0
LTYPE
  2
DASHDOT
 70
    64
  3
__ . __ . __ . __ . __ . __ . __ . __ . __ . __
 72
    65
 73
     4
 40
0.000440
 49
0.000220
 49
-0.000110
 49
0.000000
 49
-0.000110
  0
LTYPE
  2
BORDER
 70
    64
  3
__ __ . __ __ . __ __ . __ __ . __ __ . __ __
 72
    65
 73
     6
 40
0.000770
 49
0.000220
 49
-0.000110
 49
0.000220
 49
-0.000110
 49
0.000000
 49
-0.000110
  0
LTYPE
  2
DIVIDE
 70
    64
  3
__ . . __ . . __ . . __ . . __ . . __ . . __
 72
    65
 73
     6
 40
0.000550
 49
0.000220
 49
-0.000110
 49
0.000000
 49
-0.000110
 49
0.000000
 49
-0.000110
  0
LTYPE
  2
DOTDOT
 70
    64
  3
 . .  . .  . .  . .  . .  . . 
 72
    65
 73
     5
 40
0.000242
 49
-0.000110
 49
0.000000
 49
-0.000110
 49
0.000000
 49
-0.000110
  0
ENDTAB
  0
TABLE
  2
STYLE
 70
     2
  0
STYLE
 70
     0
  2
SN0
 40
0.000000
 41
0.000440
 50
0.000000
 71
     0
 42
0.000000
  3
ROMAND
  0
STYLE
 70
    68
  2
SV0
 40
0.000000
 41
0.000440
 50
0.000000
 71
     0
 42
0.000000
  3
ROMAND
  0
ENDTAB
  0
TABLE
  2
LAYER
 70
     3
  0
LAYER
  2
FOREGROUND
 70
    64
 62
     7
  6
CONTINUOUS
  0
LAYER
  2
BACKGROUND
 70
    65
 62
    -7
  6
CONTINUOUS
  0
LAYER
  2
0
 70
    64
 62
     7
  6
CONTINUOUS
  0
ENDTAB
  0
ENDSEC
  0
SECTION
  2
ENTITIES
  0
POLYLINE
  8
FOREGROUND
  6
CONTINUOUS
 66
     1
 40
0.000000
 41
0.000000
  0
VERTEX
  8
FOREGROUND
  6
CONTINUOUS
 10
0.000000
 20
3.792800
  0
VERTEX
  8
FOREGROUND
  6
CONTINUOUS
 10
8.499920
 20
3.792800
  0
VERTEX
  8
FOREGROUND
  6
CONTINUOUS
 10
8.499920
 20
-7.207200
  0
VERTEX
  8
FOREGROUND
  6
CONTINUOUS
 10
0.000000
 20
-7.207200
  0
VERTEX
  8
FOREGROUND
  6
CONTINUOUS
 10
0.000000
 20
3.792800
  0
SEQEND
  8
0
  0
POLYLINE
  8
FOREGROUND
  6
CONTINUOUS
 66
     1
 40
0.000000
 41
0.000000
  0
VERTEX
  8
FOREGROUND
  6
CONTINUOUS
 10
0.000000
 20
3.792800
  0
VERTEX
  8
FOREGROUND
  6
CONTINUOUS
 10
8.499920
 20
3.792800
  0
VERTEX
  8
FOREGROUND
  6
CONTINUOUS
 10
8.499920
 20
-7.207200
  0
VERTEX
  8
FOREGROUND
  6
CONTINUOUS
 10
0.000000
 20
-7.207200
  0
VERTEX
  8
FOREGROUND
  6
CONTINUOUS
 10
0.000000
 20
3.792800
  0
SEQEND
  8
0
  0
SOLID
  8
0
 62
    15
 10
3.215960
 20
2.576640
 11
3.856160
 21
2.951960
 12
3.316280
 22
2.552880
 13
3.956480
 23
2.928200
  0
POLYLINE
  8
0
  6
CONTINUOUS
 66
     1
 40
0.000000
 41
0.000000
  0
VERTEX
  8
0
  6
CONTINUOUS
 10
3.215960
 20
2.576640
  0
VERTEX
  8
0
  6
CONTINUOUS
 10
3.856160
 20
2.951960
  0
VERTEX
  8
0
  6
CONTINUOUS
 10
3.956480
 20
2.928200
  0
VERTEX
  8
0
  6
CONTINUOUS
 10
3.316280
 20
2.552880
  0
VERTEX
  8
0
  6
CONTINUOUS
 10
3.215960
 20
2.576640
  0
SEQEND
  8
0
  0
SOLID
  8
0
 62
    15
 10
1.081080
 20
2.524280
 11
1.721280
 21
2.899600
 12
1.150600
 22
2.552440
 13
1.790800
 23
2.927760
  0
POLYLINE
  8
0
  6
CONTINUOUS
 66
     1
 40
0.000000
 41
0.000000
  0
VERTEX
  8
0
  6
CONTINUOUS
 10
1.081080
 20
2.524280
  0
VERTEX
  8
0
  6
CONTINUOUS
 10
1.721280
 20
2.899600
  0
VERTEX
  8
0
  6
CONTINUOUS
 10
1.790800
 20
2.927760
  0
VERTEX
  8
0
  6
CONTINUOUS
 10
1.150600
 20
2.552440
  0
VERTEX
  8
0
  6
CONTINUOUS
 10
1.081080
 20
2.524280
  0
SEQEND
  8
0
  0
SOLID
  8
0
 62
    15
 10
0.892320
 20
2.391840
 11
1.532080
 21
2.767160
 12
1.027840
 22
2.436280
 13
1.668040
 23
2.811600
  0
POLYLINE
  8
0
  6
CONTINUOUS
 66
     1
 40
0.000000
 41
0.000000
  0
VERTEX
  8
0
  6
CONTINUOUS
 10
0.892320
 20
2.391840
  0
VERTEX
  8
0
  6
CONTINUOUS
 10
1.532080
 20
2.767160
  0
VERTEX
  8
0
  6
CONTINUOUS
 10
1.668040
 20
2.811600
  0
VERTEX
  8
0
  6
CONTINUOUS
 10
1.027840
 20
2.436280
  0
VERTEX
  8
0
  6
CONTINUOUS
 10
0.892320
 20
2.391840
  0
SEQEND
  8
0
  0
SOLID
  8
0
 62
    15
 10
1.250920
 20
2.576200
 11
1.891120
 21
2.951520
 12
1.413720
 22
2.615800
 13
2.053480
 23
2.991120
  0
POLYLINE
  8
0
  6
CONTINUOUS
 66
     1
 40
0.000000
 41
0.000000
  0
VERTEX
  8
0
  6
CONTINUOUS
 10
1.250920
 20
2.576200
  0
VERTEX
  8
0
  6
CONTINUOUS
 10
1.891120
 20
2.951520
  0
VERTEX
  8
0
  6
CONTINUOUS
 10
2.053480
 20
2.991120
  0
VERTEX
  8
0
  6
CONTINUOUS
 10
1.413720
 20
2.615800
  0
VERTEX
  8
0
  6
CONTINUOUS
 10
1.250920
 20
2.576200
  0
SEQEND
  8
0
  0
SOLID
  8
0
 62
    15
 10
1.413720
 20
2.615800
 11
2.053480
 21
2.991120
 12
1.553640
 22
2.662440
 13
2.193840
 23
3.037760
  0
POLYLINE
  8
0
  6
CONTINUOUS
 66
     1
 40
0.000000
 41
0.000000
  0
VERTEX
  8
0
  6
CONTINUOUS
 10
1.413720
 20
2.615800
  0
VERTEX
  8
0
  6
CONTINUOUS
 10
2.053480
 20
2.991120
  0
VERTEX
  8
0
  6
CONTINUOUS
 10
2.193840
 20
3.037760
  0
VERTEX
  8
0
  6
CONTINUOUS
 10
1.553640
 20
2.662440
  0
VERTEX
  8
0
  6
CONTINUOUS
 10
1.413720
 20
2.615800
  0
SEQEND
  8
0
  0
SOLID
  8
0
 62
    15
 10
1.553640
 20
2.662440
 11
2.193840
 21
3.037760
 12
1.676400
 22
2.712160
 13
2.316600
 23
3.087480
  0
POLYLINE
  8
0
  6
CONTINUOUS
 66
     1
 40
0.000000
 41
0.000000
  0
VERTEX
  8
0
  6
CONTINUOUS
 10
1.553640
 20
2.662440
  0
VERTEX
  8
0
  6
CONTINUOUS
 10
2.193840
 20
3.037760
  0
VERTEX
  8
0
  6
CONTINUOUS
 10
2.316600
 20
3.087480
  0
VERTEX
  8
0
  6
CONTINUOUS
 10
1.676400
 20
2.712160
  0
VERTEX
  8
0
  6
CONTINUOUS
 10
1.553640
 20
2.662440
  0
SEQEND
  8
0
  0
SOLID
  8
0
 62
    15
 10
1.676400
 20
2.712160
 11
2.316600
 21
3.087480
 12
1.733160
 22
2.737240
 13
2.373360
 23
3.112560
  0
POLYLINE
  8
0
  6
CONTINUOUS
 66
     1
 40
0.000000
 41
0.000000
  0
VERTEX
  8
0
  6
CONTINUOUS
 10
1.676400
 20
2.712160
  0
VERTEX
  8
0
  6
CONTINUOUS
 10
2.316600
 20
3.087480
  0
VERTEX
  8
0
  6
CONTINUOUS
 10
2.373360
 20
3.112560
  0
VERTEX
  8
0
  6
CONTINUOUS
 10
1.733160
 20
2.737240
  0
VERTEX
  8
0
  6
CONTINUOUS
 10
1.676400
 20
2.712160
  0
SEQEND
  8
0
  0
SOLID
  8
0
 62
    15
 10
1.733160
 20
2.737240
 11
2.373360
 21
3.112560
 12
1.788160
 22
2.761440
 13
2.427920
 23
3.136760
  0
POLYLINE
  8
0
  6
CONTINUOUS
 66
     1
 40
0.000000
 41
0.000000
  0
VERTEX
  8
0
  6
CONTINUOUS
 10
1.733160
 20
2.737240
  0
VERTEX
  8
0
  6
CONTINUOUS
 10
2.373360
 20
3.112560
  0
VERTEX
  8
0
  6
CONTINUOUS
 10
2.427920
 20
3.136760
  0
VERTEX
  8
0
  6
CONTINUOUS
 10
1.788160
 20
2.761440
  0
VERTEX
  8
0
  6
CONTINUOUS
 10
1.733160
 20
2.737240
  0
SEQEND
  8
0
  0
SOLID
  8
0
 62
    15
 10
1.788160
 20
2.761440
 11
2.427920
 21
3.136760
 12
1.998480
 22
2.843280
 13
2.638680
 23
3.218600
  0
POLYLINE
  8
0
  6
CONTINUOUS
 66
     1
 40
0.000000
 41
0.000000
  0
VERTEX
  8
0
  6
CONTINUOUS
 10
1.788160
 20
2.761440
  0
VERTEX
  8
0
  6
CONTINUOUS
 10
2.427920
 20
3.136760
  0
VERTEX
  8
0
  6
CONTINUOUS
 10
2.638680
 20
3.218600
  0
VERTEX
  8
0
  6
CONTINUOUS
 10
1.998480
 20
2.843280
  0
VERTEX
  8
0
  6
CONTINUOUS
 10
1.788160
 20
2.761440
  0
SEQEND
  8
0
  0
SOLID
  8
0
 62
    15
 10
1.998480
 20
2.843280
 11
2.638680
 21
3.218600
 12
2.108920
 22
2.868800
 13
2.748680
 23
3.244120
  0
POLYLINE
  8
0
  6
CONTINUOUS
 66
     1
 40
0.000000
 41
0.000000
  0
VERTEX
  8
0
  6
CONTINUOUS
 10
1.998480
 20
2.843280
  0
VERTEX
  8
0
  6
CONTINUOUS
 10
2.638680
 20
3.218600
  0
VERTEX
  8
0
  6
CONTINUOUS
 10
2.748680
 20
3.244120
  0
VERTEX
  8
0
  6
CONTINUOUS
 10
2.108920
 20
2.868800
  0
VERTEX
  8
0
  6
CONTINUOUS
 10
1.998480
 20
2.843280
  0
SEQEND
  8
0
  0
SOLID
  8
0
 62
    15
 10
2.108920
 20
2.868800
 11
2.748680
 21
3.244120
 12
2.229920
 22
2.878920
 13
2.869680
 23
3.254240
  0
POLYLINE
  8
0
  6
CONTINUOUS
 66
     1
 40
0.000000
 41
0.000000
  0
VERTEX
  8
0
  6
CONTINUOUS
 10
2.108920
 20
2.868800
  0
VERTEX
  8
0
  6
CONTINUOUS
 10
2.748680
 20
3.244120
  0
VERTEX
  8
0
  6
CONTINUOUS
 10
2.869680
 20
3.254240
  0
VERTEX
  8
0
  6
CONTINUOUS
 10
2.229920
 20
2.878920
  0
VERTEX
  8
0
  6
CONTINUOUS
 10
2.108920
 20
2.868800
  0
SEQEND
  8
0
  0
SOLID
  8
0
 62
    15
 10
2.227720
 20
2.879800
 11
2.867480
 21
3.254680
 12
2.350480
 22
2.870560
 13
2.990680
 23
3.245880
  0
POLYLINE
  8
0
  6
CONTINUOUS
 66
     1
 40
0.000000
 41
0.000000
  0
VERTEX
  8
0
  6
CONTINUOUS
 10
2.227720
 20
2.879800
  0
VERTEX
  8
0
  6
CONTINUOUS
 10
2.867480
 20
3.254680
  0
VERTEX
  8
0
  6
CONTINUOUS
 10
2.990680
 20
3.245880
  0
VERTEX
  8
0
  6
CONTINUOUS
 10
2.350480
 20
2.870560
  0
VERTEX
  8
0
  6
CONTINUOUS
 10
2.227720
 20
2.879800
  0
SEQEND
  8
0
  0
SOLID
  8
0
 62
    15
 10
2.350480
 20
2.870560
 11
2.990680
 21
3.245880
 12
2.462240
 22
2.845480
 13
3.102440
 23
3.220800
  0
POLYLINE
  8
0
  6
CONTINUOUS
 66
     1
 40
0.000000
 41
0.000000
  0
VERTEX
  8
0
  6
CONTINUOUS
 10
2.350480
 20
2.870560
  0
VERTEX
  8
0
  6
CONTINUOUS
 10
2.990680
 20
3.245880
  0
VERTEX
  8
0
  6
CONTINUOUS
 10
3.102440
 20
3.220800
  0
VERTEX
  8
0
  6
CONTINUOUS
 10
2.462240
 20
2.845480
  0
VERTEX
  8
0
  6
CONTINUOUS
 10
2.350480
 20
2.870560
  0
SEQEND
  8
0
  0
SOLID
  8
0
 62
    15
 10
2.462240
 20
2.845480
 11
3.102440
 21
3.220800
 12
2.674760
 22
2.763640
 13
3.314960
 23
3.138960
  0
POLYLINE
  8
0
  6
CONTINUOUS
 66
     1
 40
0.000000
 41
0.000000
  0
VERTEX
  8
0
  6
CONTINUOUS
 10
2.462240
 20
2.845480
  0
VERTEX
  8
0
  6
CONTINUOUS
 10
3.102440
 20
3.220800
  0
VERTEX
  8
0
  6
CONTINUOUS
 10
3.314960
 20
3.138960
  0
VERTEX
  8
0
  6
CONTINUOUS
 10
2.674760
 20
2.763640
  0
VERTEX
  8
0
  6
CONTINUOUS
 10
2.462240
 20
2.845480
  0
SEQEND
  8
0
  0
SOLID
  8
0
 62
    15
 10
2.674760
 20
2.763640
 11
3.314960
 21
3.138960
 12
2.729760
 22
2.739440
 13
3.369960
 23
3.114320
  0
POLYLINE
  8
0
  6
CONTINUOUS
 66
     1
 40
0.000000
 41
0.000000
  0
VERTEX
  8
0
  6
CONTINUOUS
 10
2.674760
 20
2.763640
  0
VERTEX
  8
0
  6
CONTINUOUS
 10
3.314960
 20
3.138960
  0
VERTEX
  8
0
  6
CONTINUOUS
 10
3.369960
 20
3.114320
  0
VERTEX
  8
0
  6
CONTINUOUS
 10
2.729760
 20
2.739440
  0
VERTEX
  8
0
  6
CONTINUOUS
 10
2.674760
 20
2.763640
  0
SEQEND
  8
0
  0
SOLID
  8
0
 62
    15
 10
2.729760
 20
2.739440
 11
3.369960
 21
3.114320
 12
2.786960
 22
2.714360
 13
3.427160
 23
3.089240
  0
POLYLINE
  8
0
  6
CONTINUOUS
 66
     1
 40
0.000000
 41
0.000000
  0
VERTEX
  8
0
  6
CONTINUOUS
 10
2.729760
 20
2.739440
  0
VERTEX
  8
0
  6
CONTINUOUS
 10
3.369960
 20
3.114320
  0
VERTEX
  8
0
  6
CONTINUOUS
 10
3.427160
 20
3.089240
  0
VERTEX
  8
0
  6
CONTINUOUS
 10
2.786960
 20
2.714360
  0
VERTEX
  8
0
  6
CONTINUOUS
 10
2.729760
 20
2.739440
  0
SEQEND
  8
0
  0
SOLID
  8
0
 62
    15
 10
2.786960
 20
2.714360
 11
3.427160
 21
3.089240
 12
2.911040
 22
2.664200
 13
3.550800
 23
3.039080
  0
POLYLINE
  8
0
  6
CONTINUOUS
 66
     1
 40
0.000000
 41
0.000000
  0
VERTEX
  8
0
  6
CONTINUOUS
 10
2.786960
 20
2.714360
  0
VERTEX
  8
0
  6
CONTINUOUS
 10
3.427160
 20
3.089240
  0
VERTEX
  8
0
  6
CONTINUOUS
 10
3.550800
 20
3.039080
  0
VERTEX
  8
0
  6
CONTINUOUS
 10
2.911040
 20
2.664200
  0
VERTEX
  8
0
  6
CONTINUOUS
 10
2.786960
 20
2.714360
  0
SEQEND
  8
0
  0
SOLID
  8
0
 62
    15
 10
2.911040
 20
2.664200
 11
3.550800
 21
3.039080
 12
3.051840
 22
2.617120
 13
3.692040
 23
2.992440
  0
POLYLINE
  8
0
  6
CONTINUOUS
 66
     1
 40
0.000000
 41
0.000000
  0
VERTEX
  8
0
  6
CONTINUOUS
 10
2.911040
 20
2.664200
  0
VERTEX
  8
0
  6
CONTINUOUS
 10
3.550800
 20
3.039080
  0
VERTEX
  8
0
  6
CONTINUOUS
 10
3.692040
 20
2.992440
  0
VERTEX
  8
0
  6
CONTINUOUS
 10
3.051840
 20
2.617120
  0
VERTEX
  8
0
  6
CONTINUOUS
 10
2.911040
 20
2.664200
  0
SEQEND
  8
0
  0
SOLID
  8
0
 62
    15
 10
3.051840
 20
2.617120
 11
3.692040
 21
2.992440
 12
3.215960
 22
2.576640
 13
3.856160
 23
2.951960
  0
POLYLINE
  8
0
  6
CONTINUOUS
 66
     1
 40
0.000000
 41
0.000000
  0
VERTEX
  8
0
  6
CONTINUOUS
 10
3.051840
 20
2.617120
  0
VERTEX
  8
0
  6
CONTINUOUS
 10
3.692040
 20
2.992440
  0
VERTEX
  8
0
  6
CONTINUOUS
 10
3.856160
 20
2.951960
  0
VERTEX
  8
0
  6
CONTINUOUS
 10
3.215960
 20
2.576640
  0
VERTEX
  8
0
  6
CONTINUOUS
 10
3.051840
 20
2.617120
  0
SEQEND
  8
0
  0
SOLID
  8
0
 62
    15
 10
1.150600
 20
2.552440
 11
1.790800
 21
2.927760
 12
1.250920
 22
2.576200
 13
1.891120
 23
2.951520
  0
POLYLINE
  8
0
  6
CONTINUOUS
 66
     1
 40
0.000000
 41
0.000000
  0
VERTEX
  8
0
  6
CONTINUOUS
 10
1.150600
 20
2.552440
  0
VERTEX
  8
0
  6
CONTINUOUS
 10
1.790800
 20
2.927760
  0
VERTEX
  8
0
  6
CONTINUOUS
 10
1.891120
 20
2.951520
  0
VERTEX
  8
0
  6
CONTINUOUS
 10
1.250920
 20
2.576200
  0
VERTEX
  8
0
  6
CONTINUOUS
 10
1.150600
 20
2.552440
  0
SEQEND
  8
0
  0
SOLID
  8
0
 62
    15
 10
3.316280
 20
2.552880
 11
3.956480
 21
2.928200
 12
3.385800
 22
2.525160
 13
4.026000
 23
2.900480
  0
POLYLINE
  8
0
  6
CONTINUOUS
 66
     1
 40
0.000000
 41
0.000000
  0
VERTEX
  8
0
  6
CONTINUOUS
 10
3.316280
 20
2.552880
  0
VERTEX
  8
0
  6
CONTINUOUS
 10
3.956480
 20
2.928200
  0
VERTEX
  8
0
  6
CONTINUOUS
 10
4.026000
 20
2.900480
  0
VERTEX
  8
0
  6
CONTINUOUS
 10
3.385800
 20
2.525160
  0
VERTEX
  8
0
  6
CONTINUOUS
 10
3.316280
 20
2.552880
  0
SEQEND
  8
0
  0
SOLID
  8
0
 62
    15
 10
3.385800
 20
2.525160
 11
4.026000
 21
2.900480
 12
3.426280
 22
2.487760
 13
4.066040
 23
2.863080
  0
POLYLINE
  8
0
  6
CONTINUOUS
 66
     1
 40
0.000000
 41
0.000000
  0
VERTEX
  8
0
  6
CONTINUOUS
 10
3.385800
 20
2.525160
  0
VERTEX
  8
0
  6
CONTINUOUS
 10
4.026000
 20
2.900480
  0
VERTEX
  8
0
  6
CONTINUOUS
 10
4.066040
 20
2.863080
  0
VERTEX
  8
0
  6
CONTINUOUS
 10
3.426280
 20
2.487760
  0
VERTEX
  8
0
  6
CONTINUOUS
 10
3.385800
 20
2.525160
  0
SEQEND
  8
0
  0
SOLID
  8
0
 62
    15
 10
3.426280
 20
2.487760
 11
4.066040
 21
2.863080
 12
3.439040
 22
2.436720
 13
4.078800
 23
2.812040
  0
POLYLINE
  8
0
  6
CONTINUOUS
 66
     1
 40
0.000000
 41
0.000000
  0
VERTEX
  8
0
  6
CONTINUOUS
 10
3.426280
 20
2.487760
  0
VERTEX
  8
0
  6
CONTINUOUS
 10
4.066040
 20
2.863080
  0
VERTEX
  8
0
  6
CONTINUOUS
 10
4.078800
 20
2.812040
  0
VERTEX
  8
0
  6
CONTINUOUS
 10
3.439040
 20
2.436720
  0
VERTEX
  8
0
  6
CONTINUOUS
 10
3.426280
 20
2.487760
  0
SEQEND
  8
0
  0
SOLID
  8
0
 62
    15
 10
3.439040
 20
2.436720
 11
4.078800
 21
2.812040
 12
3.574560
 22
2.392280
 13
4.214760
 23
2.767600
  0
POLYLINE
  8
0
  6
CONTINUOUS
 66
     1
 40
0.000000
 41
0.000000
  0
VERTEX
  8
0
  6
CONTINUOUS
 10
3.439040
 20
2.436720
  0
VERTEX
  8
0
  6
CONTINUOUS
 10
4.078800
 20
2.812040
  0
VERTEX
  8
0
  6
CONTINUOUS
 10
4.214760
 20
2.767600
  0
VERTEX
  8
0
  6
CONTINUOUS
 10
3.574560
 20
2.392280
  0
VERTEX
  8
0
  6
CONTINUOUS
 10
3.439040
 20
2.436720
  0
SEQEND
  8
0
  0
SOLID
  8
0
 62
    15
 10
3.574560
 20
2.392280
 11
4.214760
 21
2.767600
 12
3.684560
 22
2.327160
 13
4.324760
 23
2.702480
  0
POLYLINE
  8
0
  6
CONTINUOUS
 66
     1
 40
0.000000
 41
0.000000
  0
VERTEX
  8
0
  6
CONTINUOUS
 10
3.574560
 20
2.392280
  0
VERTEX
  8
0
  6
CONTINUOUS
 10
4.214760
 20
2.767600
  0
VERTEX
  8
0
  6
CONTINUOUS
 10
4.324760
 20
2.702480
  0
VERTEX
  8
0
  6
CONTINUOUS
 10
3.684560
 20
2.327160
  0
VERTEX
  8
0
  6
CONTINUOUS
 10
3.574560
 20
2.392280
  0
SEQEND
  8
0
  0
SOLID
  8
0
 62
    15
 10
3.684560
 20
2.327160
 11
4.324760
 21
2.702480
 12
3.767720
 22
2.245320
 13
4.407920
 23
2.620640
  0
POLYLINE
  8
0
  6
CONTINUOUS
 66
     1
 40
0.000000
 41
0.000000
  0
VERTEX
  8
0
  6
CONTINUOUS
 10
3.684560
 20
2.327160
  0
VERTEX
  8
0
  6
CONTINUOUS
 10
4.324760
 20
2.702480
  0
VERTEX
  8
0
  6
CONTINUOUS
 10
4.407920
 20
2.620640
  0
VERTEX
  8
0
  6
CONTINUOUS
 10
3.767720
 20
2.245320
  0
VERTEX
  8
0
  6
CONTINUOUS
 10
3.684560
 20
2.327160
  0
SEQEND
  8
0
  0
SOLID
  8
0
 62
    15
 10
3.767720
 20
2.245320
 11
4.407920
 21
2.620640
 12
3.822720
 22
2.149840
 13
4.462920
 23
2.525160
  0
POLYLINE
  8
0
  6
CONTINUOUS
 66
     1
 40
0.000000
 41
0.000000
  0
VERTEX
  8
0
  6
CONTINUOUS
 10
3.767720
 20
2.245320
  0
VERTEX
  8
0
  6
CONTINUOUS
 10
4.407920
 20
2.620640
  0
VERTEX
  8
0
  6
CONTINUOUS
 10
4.462920
 20
2.525160
  0
VERTEX
  8
0
  6
CONTINUOUS
 10
3.822720
 20
2.149840
  0
VERTEX
  8
0
  6
CONTINUOUS
 10
3.767720
 20
2.245320
  0
SEQEND
  8
0
  0
SOLID
  8
0
 62
    15
 10
3.822720
 20
2.149840
 11
4.462920
 21
2.525160
 12
3.847800
 22
2.045120
 13
4.488000
 23
2.420440
  0
POLYLINE
  8
0
  6
CONTINUOUS
 66
     1
 40
0.000000
 41
0.000000
  0
VERTEX
  8
0
  6
CONTINUOUS
 10
3.822720
 20
2.149840
  0
VERTEX
  8
0
  6
CONTINUOUS
 10
4.462920
 20
2.525160
  0
VERTEX
  8
0
  6
CONTINUOUS
 10
4.488000
 20
2.420440
  0
VERTEX
  8
0
  6
CONTINUOUS
 10
3.847800
 20
2.045120
  0
VERTEX
  8
0
  6
CONTINUOUS
 10
3.822720
 20
2.149840
  0
SEQEND
  8
0
  0
SOLID
  8
0
 62
    15
 10
3.847800
 20
2.045120
 11
4.488000
 21
2.420440
 12
3.841640
 22
1.935120
 13
4.481840
 23
2.310000
  0
POLYLINE
  8
0
  6
CONTINUOUS
 66
     1
 40
0.000000
 41
0.000000
  0
VERTEX
  8
0
  6
CONTINUOUS
 10
3.847800
 20
2.045120
  0
VERTEX
  8
0
  6
CONTINUOUS
 10
4.488000
 20
2.420440
  0
VERTEX
  8
0
  6
CONTINUOUS
 10
4.481840
 20
2.310000
  0
VERTEX
  8
0
  6
CONTINUOUS
 10
3.841640
 20
1.935120
  0
VERTEX
  8
0
  6
CONTINUOUS
 10
3.847800
 20
2.045120
  0
SEQEND
  8
0
  0
SOLID
  8
0
 62
    15
 10
3.841640
 20
1.935120
 11
4.481840
 21
2.310000
 12
3.803360
 22
1.822480
 13
4.443120
 23
2.197800
  0
POLYLINE
  8
0
  6
CONTINUOUS
 66
     1
 40
0.000000
 41
0.000000
  0
VERTEX
  8
0
  6
CONTINUOUS
 10
3.841640
 20
1.935120
  0
VERTEX
  8
0
  6
CONTINUOUS
 10
4.481840
 20
2.310000
  0
VERTEX
  8
0
  6
CONTINUOUS
 10
4.443120
 20
2.197800
  0
VERTEX
  8
0
  6
CONTINUOUS
 10
3.803360
 20
1.822480
  0
VERTEX
  8
0
  6
CONTINUOUS
 10
3.841640
 20
1.935120
  0
SEQEND
  8
0
  0
SOLID
  8
0
 62
    15
 10
3.803360
 20
1.822480
 11
4.443120
 21
2.197800
 12
3.730760
 22
1.712040
 13
4.370960
 23
2.087360
  0
POLYLINE
  8
0
  6
CONTINUOUS
 66
     1
 40
0.000000
 41
0.000000
  0
VERTEX
  8
0
  6
CONTINUOUS
 10
3.803360
 20
1.822480
  0
VERTEX
  8
0
  6
CONTINUOUS
 10
4.443120
 20
2.197800
  0
VERTEX
  8
0
  6
CONTINUOUS
 10
4.370960
 20
2.087360
  0
VERTEX
  8
0
  6
CONTINUOUS
 10
3.730760
 20
1.712040
  0
VERTEX
  8
0
  6
CONTINUOUS
 10
3.803360
 20
1.822480
  0
SEQEND
  8
0
  0
SOLID
  8
0
 62
    15
 10
3.730760
 20
1.712040
 11
4.370960
 21
2.087360
 12
3.650240
 22
1.615240
 13
4.290440
 23
1.990560
  0
POLYLINE
  8
0
  6
CONTINUOUS
 66
     1
 40
0.000000
 41
0.000000
  0
VERTEX
  8
0
  6
CONTINUOUS
 10
3.730760
 20
1.712040
  0
VERTEX
  8
0
  6
CONTINUOUS
 10
4.370960
 20
2.087360
  0
VERTEX
  8
0
  6
CONTINUOUS
 10
4.290440
 20
1.990560
  0
VERTEX
  8
0
  6
CONTINUOUS
 10
3.650240
 20
1.615240
  0
VERTEX
  8
0
  6
CONTINUOUS
 10
3.730760
 20
1.712040
  0
SEQEND
  8
0
  0
SOLID
  8
0
 62
    15
 10
3.650240
 20
1.615240
 11
4.290440
 21
1.990560
 12
3.586440
 22
1.537360
 13
4.226640
 23
1.912680
  0
POLYLINE
  8
0
  6
CONTINUOUS
 66
     1
 40
0.000000
 41
0.000000
  0
VERTEX
  8
0
  6
CONTINUOUS
 10
3.650240
 20
1.615240
  0
VERTEX
  8
0
  6
CONTINUOUS
 10
4.290440
 20
1.990560
  0
VERTEX
  8
0
  6
CONTINUOUS
 10
4.226640
 20
1.912680
  0
VERTEX
  8
0
  6
CONTINUOUS
 10
3.586440
 20
1.537360
  0
VERTEX
  8
0
  6
CONTINUOUS
 10
3.650240
 20
1.615240
  0
SEQEND
  8
0
  0
SOLID
  8
0
 62
    15
 10
3.586440
 20
1.537360
 11
4.226640
 21
1.912680
 12
3.535840
 22
1.470920
 13
4.176040
 23
1.846240
  0
POLYLINE
  8
0
  6
CONTINUOUS
 66
     1
 40
0.000000
 41
0.000000
  0
VERTEX
  8
0
  6
CONTINUOUS
 10
3.586440
 20
1.537360
  0
VERTEX
  8
0
  6
CONTINUOUS
 10
4.226640
 20
1.912680
  0
VERTEX
  8
0
  6
CONTINUOUS
 10
4.176040
 20
1.846240
  0
VERTEX
  8
0
  6
CONTINUOUS
 10
3.535840
 20
1.470920
  0
VERTEX
  8
0
  6
CONTINUOUS
 10
3.586440
 20
1.537360
  0
SEQEND
  8
0
  0
SOLID
  8
0
 62
    15
 10
3.535840
 20
1.470920
 11
4.176040
 21
1.846240
 12
3.496240
 22
1.408000
 13
4.136000
 23
1.783320
  0
POLYLINE
  8
0
  6
CONTINUOUS
 66
     1
 40
0.000000
 41
0.000000
  0
VERTEX
  8
0
  6
CONTINUOUS
 10
3.535840
 20
1.470920
  0
VERTEX
  8
0
  6
CONTINUOUS
 10
4.176040
 20
1.846240
  0
VERTEX
  8
0
  6
CONTINUOUS
 10
4.136000
 20
1.783320
  0
VERTEX
  8
0
  6
CONTINUOUS
 10
3.496240
 20
1.408000
  0
VERTEX
  8
0
  6
CONTINUOUS
 10
3.535840
 20
1.470920
  0
SEQEND
  8
0
  0
SOLID
  8
0
 62
    15
 10
3.496240
 20
1.408000
 11
4.136000
 21
1.783320
 12
3.463240
 22
1.341560
 13
4.103440
 23
1.716880
  0
POLYLINE
  8
0
  6
CONTINUOUS
 66
     1
 40
0.000000
 41
0.000000
  0
VERTEX
  8
0
  6
CONTINUOUS
 10
3.496240
 20
1.408000
  0
VERTEX
  8
0
  6
CONTINUOUS
 10
4.136000
 20
1.783320
  0
VERTEX
  8
0
  6
CONTINUOUS
 10
4.103440
 20
1.716880
  0
VERTEX
  8
0
  6
CONTINUOUS
 10
3.463240
 20
1.341560
  0
VERTEX
  8
0
  6
CONTINUOUS
 10
3.496240
 20
1.408000
  0
SEQEND
  8
0
  0
SOLID
  8
0
 62
    15
 10
3.463240
 20
1.341560
 11
4.103440
 21
1.716880
 12
3.434640
 22
1.264120
 13
4.074840
 23
1.639440
  0
POLYLINE
  8
0
  6
CONTINUOUS
 66
     1
 40
0.000000
 41
0.000000
  0
VERTEX
  8
0
  6
CONTINUOUS
 10
3.463240
 20
1.341560
  0
VERTEX
  8
0
  6
CONTINUOUS
 10
4.103440
 20
1.716880
  0
VERTEX
  8
0
  6
CONTINUOUS
 10
4.074840
 20
1.639440
  0
VERTEX
  8
0
  6
CONTINUOUS
 10
3.434640
 20
1.264120
  0
VERTEX
  8
0
  6
CONTINUOUS
 10
3.463240
 20
1.341560
  0
SEQEND
  8
0
  0
SOLID
  8
0
 62
    15
 10
3.434640
 20
1.264120
 11
4.074840
 21
1.639440
 12
3.407360
 22
1.167760
 13
4.047560
 23
1.543080
  0
POLYLINE
  8
0
  6
CONTINUOUS
 66
     1
 40
0.000000
 41
0.000000
  0
VERTEX
  8
0
  6
CONTINUOUS
 10
3.434640
 20
1.264120
  0
VERTEX
  8
0
  6
CONTINUOUS
 10
4.074840
 20
1.639440
  0
VERTEX
  8
0
  6
CONTINUOUS
 10
4.047560
 20
1.543080
  0
VERTEX
  8
0
  6
CONTINUOUS
 10
3.407360
 20
1.167760
  0
VERTEX
  8
0
  6
CONTINUOUS
 10
3.434640
 20
1.264120
  0
SEQEND
  8
0
  0
SOLID
  8
0
 62
    15
 10
3.407360
 20
1.167760
 11
4.047560
 21
1.543080
 12
3.378320
 22
1.045880
 13
4.018520
 23
1.420760
  0
POLYLINE
  8
0
  6
CONTINUOUS
 66
     1
 40
0.000000
 41
0.000000
  0
VERTEX
  8
0
  6
CONTINUOUS
 10
3.407360
 20
1.167760
  0
VERTEX
  8
0
  6
CONTINUOUS
 10
4.047560
 20
1.543080
  0
VERTEX
  8
0
  6
CONTINUOUS
 10
4.018520
 20
1.420760
  0
VERTEX
  8
0
  6
CONTINUOUS
 10
3.378320
 20
1.045880
  0
VERTEX
  8
0
  6
CONTINUOUS
 10
3.407360
 20
1.167760
  0
SEQEND
  8
0
  0
POLYLINE
  8
0
  6
CONTINUOUS
 66
     1
 40
0.000000
 41
0.000000
  0
VERTEX
  8
0
  6
CONTINUOUS
 10
1.088560
 20
1.045000
  0
VERTEX
  8
0
  6
CONTINUOUS
 10
1.059080
 20
1.167320
  0
VERTEX
  8
0
  6
CONTINUOUS
 10
1.031800
 20
1.263680
  0
VERTEX
  8
0
  6
CONTINUOUS
 10
1.003640
 20
1.341120
  0
VERTEX
  8
0
  6
CONTINUOUS
 10
0.970640
 20
1.407560
  0
VERTEX
  8
0
  6
CONTINUOUS
 10
0.930600
 20
1.470040
  0
VERTEX
  8
0
  6
CONTINUOUS
 10
0.880440
 20
1.536920
  0
VERTEX
  8
0
  6
CONTINUOUS
 10
0.736120
 20
1.711160
  0
VERTEX
  8
0
  6
CONTINUOUS
 10
0.663520
 20
1.822040
  0
VERTEX
  8
0
  6
CONTINUOUS
 10
0.625240
 20
1.934240
  0
VERTEX
  8
0
  6
CONTINUOUS
 10
0.619080
 20
2.044680
  0
VERTEX
  8
0
  6
CONTINUOUS
 10
0.644160
 20
2.149400
  0
VERTEX
  8
0
  6
CONTINUOUS
 10
0.698720
 20
2.244440
  0
VERTEX
  8
0
  6
CONTINUOUS
 10
0.781880
 20
2.326720
  0
VERTEX
  8
0
  6
CONTINUOUS
 10
0.892320
 20
2.391840
  0
VERTEX
  8
0
  6
CONTINUOUS
 10
1.027840
 20
2.436280
  0
VERTEX
  8
0
  6
CONTINUOUS
 10
1.040600
 20
2.487320
  0
VERTEX
  8
0
  6
CONTINUOUS
 10
1.081080
 20
2.524280
  0
VERTEX
  8
0
  6
CONTINUOUS
 10
1.150600
 20
2.552440
  0
VERTEX
  8
0
  6
CONTINUOUS
 10
1.413720
 20
2.615800
  0
VERTEX
  8
0
  6
CONTINUOUS
 10
1.553640
 20
2.662440
  0
VERTEX
  8
0
  6
CONTINUOUS
 10
1.676400
 20
2.712160
  0
VERTEX
  8
0
  6
CONTINUOUS
 10
1.788160
 20
2.761440
  0
VERTEX
  8
0
  6
CONTINUOUS
 10
1.998480
 20
2.843280
  0
VERTEX
  8
0
  6
CONTINUOUS
 10
2.108920
 20
2.868800
  0
VERTEX
  8
0
  6
CONTINUOUS
 10
2.229920
 20
2.878920
  0
VERTEX
  8
0
  6
CONTINUOUS
 10
2.227720
 20
2.879800
  0
VERTEX
  8
0
  6
CONTINUOUS
 10
2.350480
 20
2.870560
  0
VERTEX
  8
0
  6
CONTINUOUS
 10
2.462240
 20
2.845480
  0
VERTEX
  8
0
  6
CONTINUOUS
 10
2.674760
 20
2.763640
  0
VERTEX
  8
0
  6
CONTINUOUS
 10
2.786960
 20
2.714360
  0
VERTEX
  8
0
  6
CONTINUOUS
 10
2.911040
 20
2.664200
  0
VERTEX
  8
0
  6
CONTINUOUS
 10
3.051840
 20
2.617120
  0
VERTEX
  8
0
  6
CONTINUOUS
 10
3.316280
 20
2.552880
  0
VERTEX
  8
0
  6
CONTINUOUS
 10
3.385800
 20
2.525160
  0
VERTEX
  8
0
  6
CONTINUOUS
 10
3.426280
 20
2.487760
  0
VERTEX
  8
0
  6
CONTINUOUS
 10
3.439040
 20
2.436720
  0
VERTEX
  8
0
  6
CONTINUOUS
 10
3.574560
 20
2.392280
  0
VERTEX
  8
0
  6
CONTINUOUS
 10
3.684560
 20
2.327160
  0
VERTEX
  8
0
  6
CONTINUOUS
 10
3.767720
 20
2.245320
  0
VERTEX
  8
0
  6
CONTINUOUS
 10
3.822720
 20
2.149840
  0
VERTEX
  8
0
  6
CONTINUOUS
 10
3.847800
 20
2.045120
  0
VERTEX
  8
0
  6
CONTINUOUS
 10
3.841640
 20
1.935120
  0
VERTEX
  8
0
  6
CONTINUOUS
 10
3.803360
 20
1.822480
  0
VERTEX
  8
0
  6
CONTINUOUS
 10
3.730760
 20
1.712040
  0
VERTEX
  8
0
  6
CONTINUOUS
 10
3.586440
 20
1.537360
  0
VERTEX
  8
0
  6
CONTINUOUS
 10
3.535840
 20
1.470920
  0
VERTEX
  8
0
  6
CONTINUOUS
 10
3.496240
 20
1.408000
  0
VERTEX
  8
0
  6
CONTINUOUS
 10
3.463240
 20
1.341560
  0
VERTEX
  8
0
  6
CONTINUOUS
 10
3.434640
 20
1.264120
  0
VERTEX
  8
0
  6
CONTINUOUS
 10
3.407360
 20
1.167760
  0
VERTEX
  8
0
  6
CONTINUOUS
 10
3.378320
 20
1.045880
  0
VERTEX
  8
0
  6
CONTINUOUS
 10
1.088560
 20
1.045000
  0
SEQEND
  8
0
  0
TEXT
  8
0
 10
2.234760
 20
0.771760
 40
0.137962
  1
BA 1050
 41
1.000000
  7
SN0
 71
     0
 72
     5
 11
2.870405
 21
0.771760
  0
TEXT
  8
0
 10
1.936000
 20
0.580360
 40
0.137962
  1
1-13/16" x 3-1/4"
 41
1.000000
  7
SN0
 71
     0
 72
     5
 11
3.166984
 21
0.580360
  0
POLYLINE
  8
0
  6
CONTINUOUS
 66
     1
 40
0.014080
 41
0.014080
  0
VERTEX
  8
0
  6
CONTINUOUS
 10
5.245680
 20
0.942920
  0
VERTEX
  8
0
  6
CONTINUOUS
 10
5.232268
 20
1.000950
  0
VERTEX
  8
0
  6
CONTINUOUS
 10
5.219572
 20
1.053012
  0
VERTEX
  8
0
  6
CONTINUOUS
 10
5.207321
 20
1.099760
  0
VERTEX
  8
0
  6
CONTINUOUS
 10
5.195245
 20
1.141849
  0
VERTEX
  8
0
  6
CONTINUOUS
 10
5.183074
 20
1.179937
  0
VERTEX
  8
0
  6
CONTINUOUS
 10
5.170538
 20
1.214677
  0
VERTEX
  8
0
  6
CONTINUOUS
 10
5.157366
 20
1.246726
  0
VERTEX
  8
0
  6
CONTINUOUS
 10
5.143289
 20
1.276738
  0
VERTEX
  8
0
  6
CONTINUOUS
 10
5.128035
 20
1.305370
  0
VERTEX
  8
0
  6
CONTINUOUS
 10
5.111335
 20
1.333277
  0
VERTEX
  8
0
  6
CONTINUOUS
 10
5.092919
 20
1.361114
  0
VERTEX
  8
0
  6
CONTINUOUS
 10
5.072516
 20
1.389536
  0
VERTEX
  8
0
  6
CONTINUOUS
 10
5.049855
 20
1.419200
  0
VERTEX
  8
0
  6
CONTINUOUS
 10
5.024668
 20
1.450761
  0
VERTEX
  8
0
  6
CONTINUOUS
 10
4.996683
 20
1.484874
  0
VERTEX
  8
0
  6
CONTINUOUS
 10
4.965630
 20
1.522194
  0
VERTEX
  8
0
  6
CONTINUOUS
 10
4.931239
 20
1.563378
  0
VERTEX
  8
0
  6
CONTINUOUS
 10
4.893240
 20
1.609080
  0
VERTEX
  8
0
  6
CONTINUOUS
 10
4.869027
 20
1.640308
  0
VERTEX
  8
0
  6
CONTINUOUS
 10
4.847657
 20
1.671893
  0
VERTEX
  8
0
  6
CONTINUOUS
 10
4.829100
 20
1.703749
  0
VERTEX
  8
0
  6
CONTINUOUS
 10
4.813322
 20
1.735790
  0
VERTEX
  8
0
  6
CONTINUOUS
 10
4.800291
 20
1.767927
  0
VERTEX
  8
0
  6
CONTINUOUS
 10
4.789977
 20
1.800075
  0
VERTEX
  8
0
  6
CONTINUOUS
 10
4.782346
 20
1.832146
  0
VERTEX
  8
0
  6
CONTINUOUS
 10
4.777367
 20
1.864054
  0
VERTEX
  8
0
  6
CONTINUOUS
 10
4.775008
 20
1.895712
  0
VERTEX
  8
0
  6
CONTINUOUS
 10
4.775237
 20
1.927033
  0
VERTEX
  8
0
  6
CONTINUOUS
 10
4.778021
 20
1.957930
  0
VERTEX
  8
0
  6
CONTINUOUS
 10
4.783330
 20
1.988316
  0
VERTEX
  8
0
  6
CONTINUOUS
 10
4.791130
 20
2.018105
  0
VERTEX
  8
0
  6
CONTINUOUS
 10
4.801390
 20
2.047210
  0
VERTEX
  8
0
  6
CONTINUOUS
 10
4.814078
 20
2.075544
  0
VERTEX
  8
0
  6
CONTINUOUS
 10
4.829162
 20
2.103019
  0
VERTEX
  8
0
  6
CONTINUOUS
 10
4.846609
 20
2.129550
  0
VERTEX
  8
0
  6
CONTINUOUS
 10
4.866389
 20
2.155049
  0
VERTEX
  8
0
  6
CONTINUOUS
 10
4.888468
 20
2.179430
  0
VERTEX
  8
0
  6
CONTINUOUS
 10
4.912816
 20
2.202605
  0
VERTEX
  8
0
  6
CONTINUOUS
 10
4.939399
 20
2.224489
  0
VERTEX
  8
0
  6
CONTINUOUS
 10
4.968186
 20
2.244993
  0
VERTEX
  8
0
  6
CONTINUOUS
 10
4.999145
 20
2.264032
  0
VERTEX
  8
0
  6
CONTINUOUS
 10
5.032244
 20
2.281518
  0
VERTEX
  8
0
  6
CONTINUOUS
 10
5.067451
 20
2.297365
  0
VERTEX
  8
0
  6
CONTINUOUS
 10
5.104734
 20
2.311485
  0
VERTEX
  8
0
  6
CONTINUOUS
 10
5.144061
 20
2.323793
  0
VERTEX
  8
0
  6
CONTINUOUS
 10
5.185400
 20
2.334200
  0
VERTEX
  8
0
  6
CONTINUOUS
 10
5.190831
 20
2.370078
  0
VERTEX
  8
0
  6
CONTINUOUS
 10
5.208313
 20
2.399027
  0
VERTEX
  8
0
  6
CONTINUOUS
 10
5.238310
 20
2.422475
  0
VERTEX
  8
0
  6
CONTINUOUS
 10
5.281287
 20
2.441853
  0
VERTEX
  8
0
  6
CONTINUOUS
 10
5.337709
 20
2.458592
  0
VERTEX
  8
0
  6
CONTINUOUS
 10
5.408040
 20
2.474120
  0
VERTEX
  8
0
  6
CONTINUOUS
 10
5.460851
 20
2.485412
  0
VERTEX
  8
0
  6
CONTINUOUS
 10
5.511154
 20
2.497589
  0
VERTEX
  8
0
  6
CONTINUOUS
 10
5.559109
 20
2.510543
  0
VERTEX
  8
0
  6
CONTINUOUS
 10
5.604879
 20
2.524169
  0
VERTEX
  8
0
  6
CONTINUOUS
 10
5.648626
 20
2.538357
  0
VERTEX
  8
0
  6
CONTINUOUS
 10
5.690512
 20
2.553003
  0
VERTEX
  8
0
  6
CONTINUOUS
 10
5.730700
 20
2.567997
  0
VERTEX
  8
0
  6
CONTINUOUS
 10
5.769350
 20
2.583234
  0
VERTEX
  8
0
  6
CONTINUOUS
 10
5.806626
 20
2.598607
  0
VERTEX
  8
0
  6
CONTINUOUS
 10
5.842690
 20
2.614007
  0
VERTEX
  8
0
  6
CONTINUOUS
 10
5.877703
 20
2.629328
  0
VERTEX
  8
0
  6
CONTINUOUS
 10
5.911827
 20
2.644463
  0
VERTEX
  8
0
  6
CONTINUOUS
 10
5.945225
 20
2.659305
  0
VERTEX
  8
0
  6
CONTINUOUS
 10
5.978059
 20
2.673747
  0
VERTEX
  8
0
  6
CONTINUOUS
 10
6.010490
 20
2.687681
  0
VERTEX
  8
0
  6
CONTINUOUS
 10
6.042681
 20
2.701001
  0
VERTEX
  8
0
  6
CONTINUOUS
 10
6.074795
 20
2.713599
  0
VERTEX
  8
0
  6
CONTINUOUS
 10
6.106992
 20
2.725368
  0
VERTEX
  8
0
  6
CONTINUOUS
 10
6.139435
 20
2.736202
  0
VERTEX
  8
0
  6
CONTINUOUS
 10
6.172286
 20
2.745993
  0
VERTEX
  8
0
  6
CONTINUOUS
 10
6.205708
 20
2.754634
  0
VERTEX
  8
0
  6
CONTINUOUS
 10
6.239861
 20
2.762017
  0
VERTEX
  8
0
  6
CONTINUOUS
 10
6.274909
 20
2.768037
  0
VERTEX
  8
0
  6
CONTINUOUS
 10
6.311014
 20
2.772585
  0
VERTEX
  8
0
  6
CONTINUOUS
 10
6.348337
 20
2.775555
  0
VERTEX
  8
0
  6
CONTINUOUS
 10
6.387040
 20
2.776840
  0
VERTEX
  8
0
  6
CONTINUOUS
 10
6.387040
 20
2.776840
  0
VERTEX
  8
0
  6
CONTINUOUS
 10
6.386959
 20
2.776873
  0
VERTEX
  8
0
  6
CONTINUOUS
 10
6.386388
 20
2.777101
  0
VERTEX
  8
0
  6
CONTINUOUS
 10
6.384840
 20
2.777720
  0
VERTEX
  8
0
  6
CONTINUOUS
 10
6.424224
 20
2.776815
  0
VERTEX
  8
0
  6
CONTINUOUS
 10
6.462168
 20
2.774172
  0
VERTEX
  8
0
  6
CONTINUOUS
 10
6.498840
 20
2.769902
  0
VERTEX
  8
0
  6
CONTINUOUS
 10
6.534405
 20
2.764113
  0
VERTEX
  8
0
  6
CONTINUOUS
 10
6.569030
 20
2.756917
  0
VERTEX
  8
0
  6
CONTINUOUS
 10
6.602880
 20
2.748423
  0
VERTEX
  8
0
  6
CONTINUOUS
 10
6.636121
 20
2.738740
  0
VERTEX
  8
0
  6
CONTINUOUS
 10
6.668921
 20
2.727979
  0
VERTEX
  8
0
  6
CONTINUOUS
 10
6.701444
 20
2.716248
  0
VERTEX
  8
0
  6
CONTINUOUS
 10
6.733858
 20
2.703659
  0
VERTEX
  8
0
  6
CONTINUOUS
 10
6.766328
 20
2.690320
  0
VERTEX
  8
0
  6
CONTINUOUS
 10
6.799020
 20
2.676343
  0
VERTEX
  8
0
  6
CONTINUOUS
 10
6.832100
 20
2.661835
  0
VERTEX
  8
0
  6
CONTINUOUS
 10
6.865735
 20
2.646908
  0
VERTEX
  8
0
  6
CONTINUOUS
 10
6.900091
 20
2.631670
  0
VERTEX
  8
0
  6
CONTINUOUS
 10
6.935333
 20
2.616233
  0
VERTEX
  8
0
  6
CONTINUOUS
 10
6.971628
 20
2.600705
  0
VERTEX
  8
0
  6
CONTINUOUS
 10
7.009143
 20
2.585196
  0
VERTEX
  8
0
  6
CONTINUOUS
 10
7.048043
 20
2.569816
  0
VERTEX
  8
0
  6
CONTINUOUS
 10
7.088494
 20
2.554676
  0
VERTEX
  8
0
  6
CONTINUOUS
 10
7.130662
 20
2.539884
  0
VERTEX
  8
0
  6
CONTINUOUS
 10
7.174714
 20
2.525551
  0
VERTEX
  8
0
  6
CONTINUOUS
 10
7.220816
 20
2.511786
  0
VERTEX
  8
0
  6
CONTINUOUS
 10
7.269133
 20
2.498700
  0
VERTEX
  8
0
  6
CONTINUOUS
 10
7.319832
 20
2.486401
  0
VERTEX
  8
0
  6
CONTINUOUS
 10
7.373080
 20
2.475000
  0
VERTEX
  8
0
  6
CONTINUOUS
 10
7.443596
 20
2.459317
  0
VERTEX
  8
0
  6
CONTINUOUS
 10
7.500142
 20
2.442521
  0
VERTEX
  8
0
  6
CONTINUOUS
 10
7.543195
 20
2.423135
  0
VERTEX
  8
0
  6
CONTINUOUS
 10
7.573231
 20
2.399679
  0
VERTEX
  8
0
  6
CONTINUOUS
 10
7.590727
 20
2.370673
  0
VERTEX
  8
0
  6
CONTINUOUS
 10
7.596160
 20
2.334640
  0
VERTEX
  8
0
  6
CONTINUOUS
 10
7.637497
 20
2.324276
  0
VERTEX
  8
0
  6
CONTINUOUS
 10
7.676820
 20
2.312007
  0
VERTEX
  8
0
  6
CONTINUOUS
 10
7.714095
 20
2.297918
  0
VERTEX
  8
0
  6
CONTINUOUS
 10
7.749292
 20
2.282098
  0
VERTEX
  8
0
  6
CONTINUOUS
 10
7.782378
 20
2.264633
  0
VERTEX
  8
0
  6
CONTINUOUS
 10
7.813322
 20
2.245612
  0
VERTEX
  8
0
  6
CONTINUOUS
 10
7.842092
 20
2.225121
  0
VERTEX
  8
0
  6
CONTINUOUS
 10
7.868657
 20
2.203248
  0
VERTEX
  8
0
  6
CONTINUOUS
 10
7.892985
 20
2.180080
  0
VERTEX
  8
0
  6
CONTINUOUS
 10
7.915043
 20
2.155704
  0
VERTEX
  8
0
  6
CONTINUOUS
 10
7.934800
 20
2.130208
  0
VERTEX
  8
0
  6
CONTINUOUS
 10
7.952225
 20
2.103678
  0
VERTEX
  8
0
  6
CONTINUOUS
 10
7.967286
 20
2.076203
  0
VERTEX
  8
0
  6
CONTINUOUS
 10
7.979950
 20
2.047870
  0
VERTEX
  8
0
  6
CONTINUOUS
 10
7.990186
 20
2.018765
  0
VERTEX
  8
0
  6
CONTINUOUS
 10
7.997963
 20
1.988977
  0
VERTEX
  8
0
  6
CONTINUOUS
 10
8.003249
 20
1.958592
  0
VERTEX
  8
0
  6
CONTINUOUS
 10
8.006011
 20
1.927698
  0
VERTEX
  8
0
  6
CONTINUOUS
 10
8.006219
 20
1.896382
  0
VERTEX
  8
0
  6
CONTINUOUS
 10
8.003840
 20
1.864732
  0
VERTEX
  8
0
  6
CONTINUOUS
 10
7.998842
 20
1.832834
  0
VERTEX
  8
0
  6
CONTINUOUS
 10
7.991195
 20
1.800776
  0
VERTEX
  8
0
  6
CONTINUOUS
 10
7.980866
 20
1.768646
  0
VERTEX
  8
0
  6
CONTINUOUS
 10
7.967823
 20
1.736530
  0
VERTEX
  8
0
  6
CONTINUOUS
 10
7.952034
 20
1.704516
  0
VERTEX
  8
0
  6
CONTINUOUS
 10
7.933469
 20
1.672692
  0
VERTEX
  8
0
  6
CONTINUOUS
 10
7.912095
 20
1.641144
  0
VERTEX
  8
0
  6
CONTINUOUS
 10
7.887880
 20
1.609960
  0
VERTEX
  8
0
  6
CONTINUOUS
 10
7.849885
 20
1.564189
  0
VERTEX
  8
0
  6
CONTINUOUS
 10
7.815505
 20
1.522944
  0
VERTEX
  8
0
  6
CONTINUOUS
 10
7.784468
 20
1.485570
  0
VERTEX
  8
0
  6
CONTINUOUS
 10
7.756503
 20
1.451413
  0
VERTEX
  8
0
  6
CONTINUOUS
 10
7.731338
 20
1.419815
  0
VERTEX
  8
0
  6
CONTINUOUS
 10
7.708702
 20
1.390123
  0
VERTEX
  8
0
  6
CONTINUOUS
 10
7.688323
 20
1.361680
  0
VERTEX
  8
0
  6
CONTINUOUS
 10
7.669930
 20
1.333831
  0
VERTEX
  8
0
  6
CONTINUOUS
 10
7.653250
 20
1.305920
  0
VERTEX
  8
0
  6
CONTINUOUS
 10
7.638013
 20
1.277292
  0
VERTEX
  8
0
  6
CONTINUOUS
 10
7.623946
 20
1.247292
  0
VERTEX
  8
0
  6
CONTINUOUS
 10
7.610778
 20
1.215264
  0
VERTEX
  8
0
  6
CONTINUOUS
 10
7.598237
 20
1.180552
  0
VERTEX
  8
0
  6
CONTINUOUS
 10
7.586053
 20
1.142501
  0
VERTEX
  8
0
  6
CONTINUOUS
 10
7.573952
 20
1.100456
  0
VERTEX
  8
0
  6
CONTINUOUS
 10
7.561664
 20
1.053761
  0
VERTEX
  8
0
  6
CONTINUOUS
 10
7.548917
 20
1.001761
  0
VERTEX
  8
0
  6
CONTINUOUS
 10
7.535440
 20
0.943800
  0
VERTEX
  8
0
  6
CONTINUOUS
 10
5.245680
 20
0.942920
  0
SEQEND
  8
0
  0
TEXT
  8
0
 10
6.169240
 20
1.268960
 40
0.137962
  1
BA 1050
 41
1.000000
  7
SN0
 71
     0
 72
     5
 11
6.804885
 21
1.268960
  0
TEXT
  8
0
 10
5.870480
 20
1.077560
 40
0.137962
  1
1-13/16" x 3-1/4"
 41
1.000000
  7
SN0
 71
     0
 72
     5
 11
7.101464
 21
1.077560
  0
ENDSEC
  0
EOF
