  0
SECTION
  2
HEADER
  9
$ACADVER
  1
AC1006
  9
$EXTMIN
 10
2.301200
 20
0.933240
  9
$EXTMAX
 10
6.565240
 20
4.374920
  9
$LTSCALE
 40
0.044000
  9
$PDMODE
 70
    35
  9
$PDSIZE
 40
0.035200
  0
ENDSEC
  0
SECTION
  2
TABLES
  0
TABLE
  2
LTYPE
 70
     9
  0
LTYPE
  2
CONTINUOUS
 70
    64
  3
Solid line
 72
    65
 73
     0
 40
0.000000
  0
LTYPE
  2
DASHED
 70
    64
  3
__ __ __ __ __ __ __ __ __ __ __ __ __ __ __
 72
    65
 73
     2
 40
0.000330
 49
0.000220
 49
-0.000110
  0
LTYPE
  2
HIDDEN
 70
    64
  3
 _ _ _ _ _ _ _ _ _ _ _ _ _ _ _ _ _ _ _ _ _ _
 72
    65
 73
     2
 40
0.000165
 49
0.000110
 49
-0.000055
  0
LTYPE
  2
CENTER
 70
    64
  3
____ _ ____ _ ____ _ ____ _ ____ _ ____ _ ____
 72
    65
 73
     4
 40
0.000880
 49
0.000550
 49
-0.000110
 49
0.000110
 49
-0.000110
  0
LTYPE
  2
PHANTOM
 70
    64
  3
_____ _ _ _____ _ _ _____ _ _ _____ _ _ ____
 72
    65
 73
     6
 40
0.001100
 49
0.000550
 49
-0.000110
 49
0.000110
 49
-0.000110
 49
0.000110
 49
-0.000110
  0
LTYPE
  2
DOT
 70
    64
  3
...............................................
 72
    65
 73
     2
 40
0.000110
 49
0.000000
 49
-0.000110
  0
LTYPE
  2
DASHDOT
 70
    64
  3
__ . __ . __ . __ . __ . __ . __ . __ . __ . __
 72
    65
 73
     4
 40
0.000440
 49
0.000220
 49
-0.000110
 49
0.000000
 49
-0.000110
  0
LTYPE
  2
BORDER
 70
    64
  3
__ __ . __ __ . __ __ . __ __ . __ __ . __ __
 72
    65
 73
     6
 40
0.000770
 49
0.000220
 49
-0.000110
 49
0.000220
 49
-0.000110
 49
0.000000
 49
-0.000110
  0
LTYPE
  2
DIVIDE
 70
    64
  3
__ . . __ . . __ . . __ . . __ . . __ . . __
 72
    65
 73
     6
 40
0.000550
 49
0.000220
 49
-0.000110
 49
0.000000
 49
-0.000110
 49
0.000000
 49
-0.000110
  0
LTYPE
  2
DOTDOT
 70
    64
  3
 . .  . .  . .  . .  . .  . . 
 72
    65
 73
     5
 40
0.000242
 49
-0.000110
 49
0.000000
 49
-0.000110
 49
0.000000
 49
-0.000110
  0
ENDTAB
  0
TABLE
  2
STYLE
 70
     2
  0
STYLE
 70
     0
  2
SN0
 40
0.000000
 41
0.000440
 50
0.000000
 71
     0
 42
0.000000
  3
ROMAND
  0
STYLE
 70
    68
  2
SV0
 40
0.000000
 41
0.000440
 50
0.000000
 71
     0
 42
0.000000
  3
ROMAND
  0
ENDTAB
  0
TABLE
  2
LAYER
 70
     3
  0
LAYER
  2
FOREGROUND
 70
    64
 62
     7
  6
CONTINUOUS
  0
LAYER
  2
BACKGROUND
 70
    65
 62
    -7
  6
CONTINUOUS
  0
LAYER
  2
0
 70
    64
 62
     7
  6
CONTINUOUS
  0
ENDTAB
  0
ENDSEC
  0
SECTION
  2
ENTITIES
  0
POLYLINE
  8
FOREGROUND
  6
CONTINUOUS
 66
     1
 40
0.000000
 41
0.000000
  0
VERTEX
  8
FOREGROUND
  6
CONTINUOUS
 10
0.000000
 20
5.308160
  0
VERTEX
  8
FOREGROUND
  6
CONTINUOUS
 10
8.499920
 20
5.308160
  0
VERTEX
  8
FOREGROUND
  6
CONTINUOUS
 10
8.499920
 20
-5.691840
  0
VERTEX
  8
FOREGROUND
  6
CONTINUOUS
 10
0.000000
 20
-5.691840
  0
VERTEX
  8
FOREGROUND
  6
CONTINUOUS
 10
0.000000
 20
5.308160
  0
SEQEND
  8
0
  0
POLYLINE
  8
FOREGROUND
  6
CONTINUOUS
 66
     1
 40
0.000000
 41
0.000000
  0
VERTEX
  8
FOREGROUND
  6
CONTINUOUS
 10
0.000000
 20
5.308160
  0
VERTEX
  8
FOREGROUND
  6
CONTINUOUS
 10
8.499920
 20
5.308160
  0
VERTEX
  8
FOREGROUND
  6
CONTINUOUS
 10
8.499920
 20
-5.691840
  0
VERTEX
  8
FOREGROUND
  6
CONTINUOUS
 10
0.000000
 20
-5.691840
  0
VERTEX
  8
FOREGROUND
  6
CONTINUOUS
 10
0.000000
 20
5.308160
  0
SEQEND
  8
0
  0
SOLID
  8
0
 62
    15
 10
3.582040
 20
1.843600
 11
3.582040
 21
2.584560
 12
5.284840
 22
1.843600
 13
5.284840
 23
2.584560
  0
POLYLINE
  8
0
  6
CONTINUOUS
 66
     1
 40
0.000000
 41
0.000000
  0
VERTEX
  8
0
  6
CONTINUOUS
 10
3.582040
 20
1.843600
  0
VERTEX
  8
0
  6
CONTINUOUS
 10
3.582040
 20
2.584560
  0
VERTEX
  8
0
  6
CONTINUOUS
 10
5.284840
 20
2.584560
  0
VERTEX
  8
0
  6
CONTINUOUS
 10
5.284840
 20
1.843600
  0
VERTEX
  8
0
  6
CONTINUOUS
 10
3.582040
 20
1.843600
  0
SEQEND
  8
0
  0
SOLID
  8
0
 62
    15
 10
3.102000
 20
2.150280
 11
3.102000
 21
2.891240
 12
3.102000
 22
2.080760
 13
3.102000
 23
2.821720
  0
POLYLINE
  8
0
  6
CONTINUOUS
 66
     1
 40
0.000000
 41
0.000000
  0
VERTEX
  8
0
  6
CONTINUOUS
 10
3.102000
 20
2.150280
  0
VERTEX
  8
0
  6
CONTINUOUS
 10
3.102000
 20
2.891240
  0
VERTEX
  8
0
  6
CONTINUOUS
 10
3.102000
 20
2.821720
  0
VERTEX
  8
0
  6
CONTINUOUS
 10
3.102000
 20
2.080760
  0
VERTEX
  8
0
  6
CONTINUOUS
 10
3.102000
 20
2.150280
  0
SEQEND
  8
0
  0
SOLID
  8
0
 62
    15
 10
3.102000
 20
2.080760
 11
3.102000
 21
2.821720
 12
3.108600
 22
2.080760
 13
3.109040
 23
2.821720
  0
POLYLINE
  8
0
  6
CONTINUOUS
 66
     1
 40
0.000000
 41
0.000000
  0
VERTEX
  8
0
  6
CONTINUOUS
 10
3.102000
 20
2.080760
  0
VERTEX
  8
0
  6
CONTINUOUS
 10
3.102000
 20
2.821720
  0
VERTEX
  8
0
  6
CONTINUOUS
 10
3.109040
 20
2.821720
  0
VERTEX
  8
0
  6
CONTINUOUS
 10
3.108600
 20
2.080760
  0
VERTEX
  8
0
  6
CONTINUOUS
 10
3.102000
 20
2.080760
  0
SEQEND
  8
0
  0
SOLID
  8
0
 62
    15
 10
3.108600
 20
2.080760
 11
3.109040
 21
2.821720
 12
3.153920
 22
2.085600
 13
3.154360
 23
2.826560
  0
POLYLINE
  8
0
  6
CONTINUOUS
 66
     1
 40
0.000000
 41
0.000000
  0
VERTEX
  8
0
  6
CONTINUOUS
 10
3.108600
 20
2.080760
  0
VERTEX
  8
0
  6
CONTINUOUS
 10
3.109040
 20
2.821720
  0
VERTEX
  8
0
  6
CONTINUOUS
 10
3.154360
 20
2.826560
  0
VERTEX
  8
0
  6
CONTINUOUS
 10
3.153920
 20
2.085600
  0
VERTEX
  8
0
  6
CONTINUOUS
 10
3.108600
 20
2.080760
  0
SEQEND
  8
0
  0
SOLID
  8
0
 62
    15
 10
3.153920
 20
2.085600
 11
3.154360
 21
2.826560
 12
3.193080
 22
2.085160
 13
3.193080
 23
2.826560
  0
POLYLINE
  8
0
  6
CONTINUOUS
 66
     1
 40
0.000000
 41
0.000000
  0
VERTEX
  8
0
  6
CONTINUOUS
 10
3.153920
 20
2.085600
  0
VERTEX
  8
0
  6
CONTINUOUS
 10
3.154360
 20
2.826560
  0
VERTEX
  8
0
  6
CONTINUOUS
 10
3.193080
 20
2.826560
  0
VERTEX
  8
0
  6
CONTINUOUS
 10
3.193080
 20
2.085160
  0
VERTEX
  8
0
  6
CONTINUOUS
 10
3.153920
 20
2.085600
  0
SEQEND
  8
0
  0
SOLID
  8
0
 62
    15
 10
3.193080
 20
2.085160
 11
3.193080
 21
2.826560
 12
3.226080
 22
2.080760
 13
3.226520
 23
2.821720
  0
POLYLINE
  8
0
  6
CONTINUOUS
 66
     1
 40
0.000000
 41
0.000000
  0
VERTEX
  8
0
  6
CONTINUOUS
 10
3.193080
 20
2.085160
  0
VERTEX
  8
0
  6
CONTINUOUS
 10
3.193080
 20
2.826560
  0
VERTEX
  8
0
  6
CONTINUOUS
 10
3.226520
 20
2.821720
  0
VERTEX
  8
0
  6
CONTINUOUS
 10
3.226080
 20
2.080760
  0
VERTEX
  8
0
  6
CONTINUOUS
 10
3.193080
 20
2.085160
  0
SEQEND
  8
0
  0
SOLID
  8
0
 62
    15
 10
3.226080
 20
2.080760
 11
3.226520
 21
2.821720
 12
3.254680
 22
2.072840
 13
3.255120
 23
2.813800
  0
POLYLINE
  8
0
  6
CONTINUOUS
 66
     1
 40
0.000000
 41
0.000000
  0
VERTEX
  8
0
  6
CONTINUOUS
 10
3.226080
 20
2.080760
  0
VERTEX
  8
0
  6
CONTINUOUS
 10
3.226520
 20
2.821720
  0
VERTEX
  8
0
  6
CONTINUOUS
 10
3.255120
 20
2.813800
  0
VERTEX
  8
0
  6
CONTINUOUS
 10
3.254680
 20
2.072840
  0
VERTEX
  8
0
  6
CONTINUOUS
 10
3.226080
 20
2.080760
  0
SEQEND
  8
0
  0
SOLID
  8
0
 62
    15
 10
3.254680
 20
2.072840
 11
3.255120
 21
2.813800
 12
3.279760
 22
2.061840
 13
3.279760
 23
2.802800
  0
POLYLINE
  8
0
  6
CONTINUOUS
 66
     1
 40
0.000000
 41
0.000000
  0
VERTEX
  8
0
  6
CONTINUOUS
 10
3.254680
 20
2.072840
  0
VERTEX
  8
0
  6
CONTINUOUS
 10
3.255120
 20
2.813800
  0
VERTEX
  8
0
  6
CONTINUOUS
 10
3.279760
 20
2.802800
  0
VERTEX
  8
0
  6
CONTINUOUS
 10
3.279760
 20
2.061840
  0
VERTEX
  8
0
  6
CONTINUOUS
 10
3.254680
 20
2.072840
  0
SEQEND
  8
0
  0
SOLID
  8
0
 62
    15
 10
3.279760
 20
2.061840
 11
3.279760
 21
2.802800
 12
3.301760
 22
2.048200
 13
3.302200
 23
2.789160
  0
POLYLINE
  8
0
  6
CONTINUOUS
 66
     1
 40
0.000000
 41
0.000000
  0
VERTEX
  8
0
  6
CONTINUOUS
 10
3.279760
 20
2.061840
  0
VERTEX
  8
0
  6
CONTINUOUS
 10
3.279760
 20
2.802800
  0
VERTEX
  8
0
  6
CONTINUOUS
 10
3.302200
 20
2.789160
  0
VERTEX
  8
0
  6
CONTINUOUS
 10
3.301760
 20
2.048200
  0
VERTEX
  8
0
  6
CONTINUOUS
 10
3.279760
 20
2.061840
  0
SEQEND
  8
0
  0
SOLID
  8
0
 62
    15
 10
3.301760
 20
2.048200
 11
3.302200
 21
2.789160
 12
3.341800
 22
2.016520
 13
3.341800
 23
2.757480
  0
POLYLINE
  8
0
  6
CONTINUOUS
 66
     1
 40
0.000000
 41
0.000000
  0
VERTEX
  8
0
  6
CONTINUOUS
 10
3.301760
 20
2.048200
  0
VERTEX
  8
0
  6
CONTINUOUS
 10
3.302200
 20
2.789160
  0
VERTEX
  8
0
  6
CONTINUOUS
 10
3.341800
 20
2.757480
  0
VERTEX
  8
0
  6
CONTINUOUS
 10
3.341800
 20
2.016520
  0
VERTEX
  8
0
  6
CONTINUOUS
 10
3.301760
 20
2.048200
  0
SEQEND
  8
0
  0
SOLID
  8
0
 62
    15
 10
3.341800
 20
2.016520
 11
3.341800
 21
2.757480
 12
3.381840
 22
1.982640
 13
3.381840
 23
2.723600
  0
POLYLINE
  8
0
  6
CONTINUOUS
 66
     1
 40
0.000000
 41
0.000000
  0
VERTEX
  8
0
  6
CONTINUOUS
 10
3.341800
 20
2.016520
  0
VERTEX
  8
0
  6
CONTINUOUS
 10
3.341800
 20
2.757480
  0
VERTEX
  8
0
  6
CONTINUOUS
 10
3.381840
 20
2.723600
  0
VERTEX
  8
0
  6
CONTINUOUS
 10
3.381840
 20
1.982640
  0
VERTEX
  8
0
  6
CONTINUOUS
 10
3.341800
 20
2.016520
  0
SEQEND
  8
0
  0
SOLID
  8
0
 62
    15
 10
3.381840
 20
1.982640
 11
3.381840
 21
2.723600
 12
3.429800
 22
1.951400
 13
3.430240
 23
2.692360
  0
POLYLINE
  8
0
  6
CONTINUOUS
 66
     1
 40
0.000000
 41
0.000000
  0
VERTEX
  8
0
  6
CONTINUOUS
 10
3.381840
 20
1.982640
  0
VERTEX
  8
0
  6
CONTINUOUS
 10
3.381840
 20
2.723600
  0
VERTEX
  8
0
  6
CONTINUOUS
 10
3.430240
 20
2.692360
  0
VERTEX
  8
0
  6
CONTINUOUS
 10
3.429800
 20
1.951400
  0
VERTEX
  8
0
  6
CONTINUOUS
 10
3.381840
 20
1.982640
  0
SEQEND
  8
0
  0
SOLID
  8
0
 62
    15
 10
3.429800
 20
1.951400
 11
3.430240
 21
2.692360
 12
3.459280
 22
1.938200
 13
3.459720
 23
2.679600
  0
POLYLINE
  8
0
  6
CONTINUOUS
 66
     1
 40
0.000000
 41
0.000000
  0
VERTEX
  8
0
  6
CONTINUOUS
 10
3.429800
 20
1.951400
  0
VERTEX
  8
0
  6
CONTINUOUS
 10
3.430240
 20
2.692360
  0
VERTEX
  8
0
  6
CONTINUOUS
 10
3.459720
 20
2.679600
  0
VERTEX
  8
0
  6
CONTINUOUS
 10
3.459280
 20
1.938200
  0
VERTEX
  8
0
  6
CONTINUOUS
 10
3.429800
 20
1.951400
  0
SEQEND
  8
0
  0
SOLID
  8
0
 62
    15
 10
3.459280
 20
1.938200
 11
3.459720
 21
2.679600
 12
3.493600
 22
1.928080
 13
3.494040
 23
2.669040
  0
POLYLINE
  8
0
  6
CONTINUOUS
 66
     1
 40
0.000000
 41
0.000000
  0
VERTEX
  8
0
  6
CONTINUOUS
 10
3.459280
 20
1.938200
  0
VERTEX
  8
0
  6
CONTINUOUS
 10
3.459720
 20
2.679600
  0
VERTEX
  8
0
  6
CONTINUOUS
 10
3.494040
 20
2.669040
  0
VERTEX
  8
0
  6
CONTINUOUS
 10
3.493600
 20
1.928080
  0
VERTEX
  8
0
  6
CONTINUOUS
 10
3.459280
 20
1.938200
  0
SEQEND
  8
0
  0
SOLID
  8
0
 62
    15
 10
3.493600
 20
1.928080
 11
3.494040
 21
2.669040
 12
3.533640
 22
1.920600
 13
3.534080
 23
2.661560
  0
POLYLINE
  8
0
  6
CONTINUOUS
 66
     1
 40
0.000000
 41
0.000000
  0
VERTEX
  8
0
  6
CONTINUOUS
 10
3.493600
 20
1.928080
  0
VERTEX
  8
0
  6
CONTINUOUS
 10
3.494040
 20
2.669040
  0
VERTEX
  8
0
  6
CONTINUOUS
 10
3.534080
 20
2.661560
  0
VERTEX
  8
0
  6
CONTINUOUS
 10
3.533640
 20
1.920600
  0
VERTEX
  8
0
  6
CONTINUOUS
 10
3.493600
 20
1.928080
  0
SEQEND
  8
0
  0
SOLID
  8
0
 62
    15
 10
3.533640
 20
1.920600
 11
3.534080
 21
2.661560
 12
3.580720
 22
1.917080
 13
3.580720
 23
2.658040
  0
POLYLINE
  8
0
  6
CONTINUOUS
 66
     1
 40
0.000000
 41
0.000000
  0
VERTEX
  8
0
  6
CONTINUOUS
 10
3.533640
 20
1.920600
  0
VERTEX
  8
0
  6
CONTINUOUS
 10
3.534080
 20
2.661560
  0
VERTEX
  8
0
  6
CONTINUOUS
 10
3.580720
 20
2.658040
  0
VERTEX
  8
0
  6
CONTINUOUS
 10
3.580720
 20
1.917080
  0
VERTEX
  8
0
  6
CONTINUOUS
 10
3.533640
 20
1.920600
  0
SEQEND
  8
0
  0
SOLID
  8
0
 62
    15
 10
3.580720
 20
1.917080
 11
3.580720
 21
2.658040
 12
3.582040
 22
1.914440
 13
3.582040
 23
2.655400
  0
POLYLINE
  8
0
  6
CONTINUOUS
 66
     1
 40
0.000000
 41
0.000000
  0
VERTEX
  8
0
  6
CONTINUOUS
 10
3.580720
 20
1.917080
  0
VERTEX
  8
0
  6
CONTINUOUS
 10
3.580720
 20
2.658040
  0
VERTEX
  8
0
  6
CONTINUOUS
 10
3.582040
 20
2.655400
  0
VERTEX
  8
0
  6
CONTINUOUS
 10
3.582040
 20
1.914440
  0
VERTEX
  8
0
  6
CONTINUOUS
 10
3.580720
 20
1.917080
  0
SEQEND
  8
0
  0
SOLID
  8
0
 62
    15
 10
3.582040
 20
1.914440
 11
3.582040
 21
2.655400
 12
3.582040
 22
1.843600
 13
3.582040
 23
2.584560
  0
POLYLINE
  8
0
  6
CONTINUOUS
 66
     1
 40
0.000000
 41
0.000000
  0
VERTEX
  8
0
  6
CONTINUOUS
 10
3.582040
 20
1.914440
  0
VERTEX
  8
0
  6
CONTINUOUS
 10
3.582040
 20
2.655400
  0
VERTEX
  8
0
  6
CONTINUOUS
 10
3.582040
 20
2.584560
  0
VERTEX
  8
0
  6
CONTINUOUS
 10
3.582040
 20
1.843600
  0
VERTEX
  8
0
  6
CONTINUOUS
 10
3.582040
 20
1.914440
  0
SEQEND
  8
0
  0
SOLID
  8
0
 62
    15
 10
5.284840
 20
1.914440
 11
5.284840
 21
2.655400
 12
5.286160
 22
1.917080
 13
5.286160
 23
2.658040
  0
POLYLINE
  8
0
  6
CONTINUOUS
 66
     1
 40
0.000000
 41
0.000000
  0
VERTEX
  8
0
  6
CONTINUOUS
 10
5.284840
 20
1.914440
  0
VERTEX
  8
0
  6
CONTINUOUS
 10
5.284840
 20
2.655400
  0
VERTEX
  8
0
  6
CONTINUOUS
 10
5.286160
 20
2.658040
  0
VERTEX
  8
0
  6
CONTINUOUS
 10
5.286160
 20
1.917080
  0
VERTEX
  8
0
  6
CONTINUOUS
 10
5.284840
 20
1.914440
  0
SEQEND
  8
0
  0
SOLID
  8
0
 62
    15
 10
2.308680
 20
2.150280
 11
2.308680
 21
2.891240
 12
3.102000
 22
2.150280
 13
3.102000
 23
2.891240
  0
POLYLINE
  8
0
  6
CONTINUOUS
 66
     1
 40
0.000000
 41
0.000000
  0
VERTEX
  8
0
  6
CONTINUOUS
 10
2.308680
 20
2.150280
  0
VERTEX
  8
0
  6
CONTINUOUS
 10
2.308680
 20
2.891240
  0
VERTEX
  8
0
  6
CONTINUOUS
 10
3.102000
 20
2.891240
  0
VERTEX
  8
0
  6
CONTINUOUS
 10
3.102000
 20
2.150280
  0
VERTEX
  8
0
  6
CONTINUOUS
 10
2.308680
 20
2.150280
  0
SEQEND
  8
0
  0
SOLID
  8
0
 62
    15
 10
5.286160
 20
1.917080
 11
5.286160
 21
2.658040
 12
5.332800
 22
1.920600
 13
5.332800
 23
2.661560
  0
POLYLINE
  8
0
  6
CONTINUOUS
 66
     1
 40
0.000000
 41
0.000000
  0
VERTEX
  8
0
  6
CONTINUOUS
 10
5.286160
 20
1.917080
  0
VERTEX
  8
0
  6
CONTINUOUS
 10
5.286160
 20
2.658040
  0
VERTEX
  8
0
  6
CONTINUOUS
 10
5.332800
 20
2.661560
  0
VERTEX
  8
0
  6
CONTINUOUS
 10
5.332800
 20
1.920600
  0
VERTEX
  8
0
  6
CONTINUOUS
 10
5.286160
 20
1.917080
  0
SEQEND
  8
0
  0
SOLID
  8
0
 62
    15
 10
5.332800
 20
1.920600
 11
5.332800
 21
2.661560
 12
5.372840
 22
1.928080
 13
5.372840
 23
2.669040
  0
POLYLINE
  8
0
  6
CONTINUOUS
 66
     1
 40
0.000000
 41
0.000000
  0
VERTEX
  8
0
  6
CONTINUOUS
 10
5.332800
 20
1.920600
  0
VERTEX
  8
0
  6
CONTINUOUS
 10
5.332800
 20
2.661560
  0
VERTEX
  8
0
  6
CONTINUOUS
 10
5.372840
 20
2.669040
  0
VERTEX
  8
0
  6
CONTINUOUS
 10
5.372840
 20
1.928080
  0
VERTEX
  8
0
  6
CONTINUOUS
 10
5.332800
 20
1.920600
  0
SEQEND
  8
0
  0
SOLID
  8
0
 62
    15
 10
5.372840
 20
1.928080
 11
5.372840
 21
2.669040
 12
5.407160
 22
1.938200
 13
5.407160
 23
2.679600
  0
POLYLINE
  8
0
  6
CONTINUOUS
 66
     1
 40
0.000000
 41
0.000000
  0
VERTEX
  8
0
  6
CONTINUOUS
 10
5.372840
 20
1.928080
  0
VERTEX
  8
0
  6
CONTINUOUS
 10
5.372840
 20
2.669040
  0
VERTEX
  8
0
  6
CONTINUOUS
 10
5.407160
 20
2.679600
  0
VERTEX
  8
0
  6
CONTINUOUS
 10
5.407160
 20
1.938200
  0
VERTEX
  8
0
  6
CONTINUOUS
 10
5.372840
 20
1.928080
  0
SEQEND
  8
0
  0
SOLID
  8
0
 62
    15
 10
5.407160
 20
1.938200
 11
5.407160
 21
2.679600
 12
5.436640
 22
1.951400
 13
5.436640
 23
2.692360
  0
POLYLINE
  8
0
  6
CONTINUOUS
 66
     1
 40
0.000000
 41
0.000000
  0
VERTEX
  8
0
  6
CONTINUOUS
 10
5.407160
 20
1.938200
  0
VERTEX
  8
0
  6
CONTINUOUS
 10
5.407160
 20
2.679600
  0
VERTEX
  8
0
  6
CONTINUOUS
 10
5.436640
 20
2.692360
  0
VERTEX
  8
0
  6
CONTINUOUS
 10
5.436640
 20
1.951400
  0
VERTEX
  8
0
  6
CONTINUOUS
 10
5.407160
 20
1.938200
  0
SEQEND
  8
0
  0
SOLID
  8
0
 62
    15
 10
5.436640
 20
1.951400
 11
5.436640
 21
2.692360
 12
5.484600
 22
1.982640
 13
5.485040
 23
2.723600
  0
POLYLINE
  8
0
  6
CONTINUOUS
 66
     1
 40
0.000000
 41
0.000000
  0
VERTEX
  8
0
  6
CONTINUOUS
 10
5.436640
 20
1.951400
  0
VERTEX
  8
0
  6
CONTINUOUS
 10
5.436640
 20
2.692360
  0
VERTEX
  8
0
  6
CONTINUOUS
 10
5.485040
 20
2.723600
  0
VERTEX
  8
0
  6
CONTINUOUS
 10
5.484600
 20
1.982640
  0
VERTEX
  8
0
  6
CONTINUOUS
 10
5.436640
 20
1.951400
  0
SEQEND
  8
0
  0
SOLID
  8
0
 62
    15
 10
5.484600
 20
1.982640
 11
5.485040
 21
2.723600
 12
5.525080
 22
2.016520
 13
5.525080
 23
2.757480
  0
POLYLINE
  8
0
  6
CONTINUOUS
 66
     1
 40
0.000000
 41
0.000000
  0
VERTEX
  8
0
  6
CONTINUOUS
 10
5.484600
 20
1.982640
  0
VERTEX
  8
0
  6
CONTINUOUS
 10
5.485040
 20
2.723600
  0
VERTEX
  8
0
  6
CONTINUOUS
 10
5.525080
 20
2.757480
  0
VERTEX
  8
0
  6
CONTINUOUS
 10
5.525080
 20
2.016520
  0
VERTEX
  8
0
  6
CONTINUOUS
 10
5.484600
 20
1.982640
  0
SEQEND
  8
0
  0
SOLID
  8
0
 62
    15
 10
5.525080
 20
2.016520
 11
5.525080
 21
2.757480
 12
5.564680
 22
2.048200
 13
5.565120
 23
2.789160
  0
POLYLINE
  8
0
  6
CONTINUOUS
 66
     1
 40
0.000000
 41
0.000000
  0
VERTEX
  8
0
  6
CONTINUOUS
 10
5.525080
 20
2.016520
  0
VERTEX
  8
0
  6
CONTINUOUS
 10
5.525080
 20
2.757480
  0
VERTEX
  8
0
  6
CONTINUOUS
 10
5.565120
 20
2.789160
  0
VERTEX
  8
0
  6
CONTINUOUS
 10
5.564680
 20
2.048200
  0
VERTEX
  8
0
  6
CONTINUOUS
 10
5.525080
 20
2.016520
  0
SEQEND
  8
0
  0
SOLID
  8
0
 62
    15
 10
5.564680
 20
2.048200
 11
5.565120
 21
2.789160
 12
5.586680
 22
2.061840
 13
5.587120
 23
2.802800
  0
POLYLINE
  8
0
  6
CONTINUOUS
 66
     1
 40
0.000000
 41
0.000000
  0
VERTEX
  8
0
  6
CONTINUOUS
 10
5.564680
 20
2.048200
  0
VERTEX
  8
0
  6
CONTINUOUS
 10
5.565120
 20
2.789160
  0
VERTEX
  8
0
  6
CONTINUOUS
 10
5.587120
 20
2.802800
  0
VERTEX
  8
0
  6
CONTINUOUS
 10
5.586680
 20
2.061840
  0
VERTEX
  8
0
  6
CONTINUOUS
 10
5.564680
 20
2.048200
  0
SEQEND
  8
0
  0
SOLID
  8
0
 62
    15
 10
5.586680
 20
2.061840
 11
5.587120
 21
2.802800
 12
5.611760
 22
2.072840
 13
5.611760
 23
2.813800
  0
POLYLINE
  8
0
  6
CONTINUOUS
 66
     1
 40
0.000000
 41
0.000000
  0
VERTEX
  8
0
  6
CONTINUOUS
 10
5.586680
 20
2.061840
  0
VERTEX
  8
0
  6
CONTINUOUS
 10
5.587120
 20
2.802800
  0
VERTEX
  8
0
  6
CONTINUOUS
 10
5.611760
 20
2.813800
  0
VERTEX
  8
0
  6
CONTINUOUS
 10
5.611760
 20
2.072840
  0
VERTEX
  8
0
  6
CONTINUOUS
 10
5.586680
 20
2.061840
  0
SEQEND
  8
0
  0
SOLID
  8
0
 62
    15
 10
5.611760
 20
2.072840
 11
5.611760
 21
2.813800
 12
5.640360
 22
2.080760
 13
5.640360
 23
2.821720
  0
POLYLINE
  8
0
  6
CONTINUOUS
 66
     1
 40
0.000000
 41
0.000000
  0
VERTEX
  8
0
  6
CONTINUOUS
 10
5.611760
 20
2.072840
  0
VERTEX
  8
0
  6
CONTINUOUS
 10
5.611760
 20
2.813800
  0
VERTEX
  8
0
  6
CONTINUOUS
 10
5.640360
 20
2.821720
  0
VERTEX
  8
0
  6
CONTINUOUS
 10
5.640360
 20
2.080760
  0
VERTEX
  8
0
  6
CONTINUOUS
 10
5.611760
 20
2.072840
  0
SEQEND
  8
0
  0
SOLID
  8
0
 62
    15
 10
5.640360
 20
2.080760
 11
5.640360
 21
2.821720
 12
5.673800
 22
2.085160
 13
5.673800
 23
2.826560
  0
POLYLINE
  8
0
  6
CONTINUOUS
 66
     1
 40
0.000000
 41
0.000000
  0
VERTEX
  8
0
  6
CONTINUOUS
 10
5.640360
 20
2.080760
  0
VERTEX
  8
0
  6
CONTINUOUS
 10
5.640360
 20
2.821720
  0
VERTEX
  8
0
  6
CONTINUOUS
 10
5.673800
 20
2.826560
  0
VERTEX
  8
0
  6
CONTINUOUS
 10
5.673800
 20
2.085160
  0
VERTEX
  8
0
  6
CONTINUOUS
 10
5.640360
 20
2.080760
  0
SEQEND
  8
0
  0
SOLID
  8
0
 62
    15
 10
5.673800
 20
2.085160
 11
5.673800
 21
2.826560
 12
5.712520
 22
2.085600
 13
5.712520
 23
2.826560
  0
POLYLINE
  8
0
  6
CONTINUOUS
 66
     1
 40
0.000000
 41
0.000000
  0
VERTEX
  8
0
  6
CONTINUOUS
 10
5.673800
 20
2.085160
  0
VERTEX
  8
0
  6
CONTINUOUS
 10
5.673800
 20
2.826560
  0
VERTEX
  8
0
  6
CONTINUOUS
 10
5.712520
 20
2.826560
  0
VERTEX
  8
0
  6
CONTINUOUS
 10
5.712520
 20
2.085600
  0
VERTEX
  8
0
  6
CONTINUOUS
 10
5.673800
 20
2.085160
  0
SEQEND
  8
0
  0
SOLID
  8
0
 62
    15
 10
5.712520
 20
2.085600
 11
5.712520
 21
2.826560
 12
5.757840
 22
2.080760
 13
5.758280
 23
2.821720
  0
POLYLINE
  8
0
  6
CONTINUOUS
 66
     1
 40
0.000000
 41
0.000000
  0
VERTEX
  8
0
  6
CONTINUOUS
 10
5.712520
 20
2.085600
  0
VERTEX
  8
0
  6
CONTINUOUS
 10
5.712520
 20
2.826560
  0
VERTEX
  8
0
  6
CONTINUOUS
 10
5.758280
 20
2.821720
  0
VERTEX
  8
0
  6
CONTINUOUS
 10
5.757840
 20
2.080760
  0
VERTEX
  8
0
  6
CONTINUOUS
 10
5.712520
 20
2.085600
  0
SEQEND
  8
0
  0
SOLID
  8
0
 62
    15
 10
5.757840
 20
2.080760
 11
5.758280
 21
2.821720
 12
5.764440
 22
2.080760
 13
5.764880
 23
2.821720
  0
POLYLINE
  8
0
  6
CONTINUOUS
 66
     1
 40
0.000000
 41
0.000000
  0
VERTEX
  8
0
  6
CONTINUOUS
 10
5.757840
 20
2.080760
  0
VERTEX
  8
0
  6
CONTINUOUS
 10
5.758280
 20
2.821720
  0
VERTEX
  8
0
  6
CONTINUOUS
 10
5.764880
 20
2.821720
  0
VERTEX
  8
0
  6
CONTINUOUS
 10
5.764440
 20
2.080760
  0
VERTEX
  8
0
  6
CONTINUOUS
 10
5.757840
 20
2.080760
  0
SEQEND
  8
0
  0
SOLID
  8
0
 62
    15
 10
5.764440
 20
2.150280
 11
5.764880
 21
2.891240
 12
5.779400
 22
2.150280
 13
5.779400
 23
2.891240
  0
POLYLINE
  8
0
  6
CONTINUOUS
 66
     1
 40
0.000000
 41
0.000000
  0
VERTEX
  8
0
  6
CONTINUOUS
 10
5.764440
 20
2.150280
  0
VERTEX
  8
0
  6
CONTINUOUS
 10
5.764880
 20
2.891240
  0
VERTEX
  8
0
  6
CONTINUOUS
 10
5.779400
 20
2.891240
  0
VERTEX
  8
0
  6
CONTINUOUS
 10
5.779400
 20
2.150280
  0
VERTEX
  8
0
  6
CONTINUOUS
 10
5.764440
 20
2.150280
  0
SEQEND
  8
0
  0
SOLID
  8
0
 62
    15
 10
6.557760
 20
2.150280
 11
6.558200
 21
2.891240
 12
6.557760
 22
1.404920
 13
6.558200
 23
2.145880
  0
POLYLINE
  8
0
  6
CONTINUOUS
 66
     1
 40
0.000000
 41
0.000000
  0
VERTEX
  8
0
  6
CONTINUOUS
 10
6.557760
 20
2.150280
  0
VERTEX
  8
0
  6
CONTINUOUS
 10
6.558200
 20
2.891240
  0
VERTEX
  8
0
  6
CONTINUOUS
 10
6.558200
 20
2.145880
  0
VERTEX
  8
0
  6
CONTINUOUS
 10
6.557760
 20
1.404920
  0
VERTEX
  8
0
  6
CONTINUOUS
 10
6.557760
 20
2.150280
  0
SEQEND
  8
0
  0
SOLID
  8
0
 62
    15
 10
5.779400
 20
2.150280
 11
5.779400
 21
2.891240
 12
6.557760
 22
2.150280
 13
6.558200
 23
2.891240
  0
POLYLINE
  8
0
  6
CONTINUOUS
 66
     1
 40
0.000000
 41
0.000000
  0
VERTEX
  8
0
  6
CONTINUOUS
 10
5.779400
 20
2.150280
  0
VERTEX
  8
0
  6
CONTINUOUS
 10
5.779400
 20
2.891240
  0
VERTEX
  8
0
  6
CONTINUOUS
 10
6.558200
 20
2.891240
  0
VERTEX
  8
0
  6
CONTINUOUS
 10
6.557760
 20
2.150280
  0
VERTEX
  8
0
  6
CONTINUOUS
 10
5.779400
 20
2.150280
  0
SEQEND
  8
0
  0
SOLID
  8
0
 62
    15
 10
2.308240
 20
1.404920
 11
2.308680
 21
2.145880
 12
2.308240
 22
1.404920
 13
2.308680
 23
1.404920
  0
POLYLINE
  8
0
  6
CONTINUOUS
 66
     1
 40
0.000000
 41
0.000000
  0
VERTEX
  8
0
  6
CONTINUOUS
 10
2.308240
 20
1.404920
  0
VERTEX
  8
0
  6
CONTINUOUS
 10
2.308680
 20
2.145880
  0
VERTEX
  8
0
  6
CONTINUOUS
 10
2.308680
 20
1.404920
  0
VERTEX
  8
0
  6
CONTINUOUS
 10
2.308240
 20
1.404920
  0
SEQEND
  8
0
  0
POLYLINE
  8
0
  6
CONTINUOUS
 66
     1
 40
0.000000
 41
0.000000
  0
VERTEX
  8
0
  6
CONTINUOUS
 10
2.308680
 20
1.404920
  0
VERTEX
  8
0
  6
CONTINUOUS
 10
2.308680
 20
2.150280
  0
VERTEX
  8
0
  6
CONTINUOUS
 10
3.102000
 20
2.150280
  0
VERTEX
  8
0
  6
CONTINUOUS
 10
3.102000
 20
2.080760
  0
VERTEX
  8
0
  6
CONTINUOUS
 10
3.108600
 20
2.080760
  0
VERTEX
  8
0
  6
CONTINUOUS
 10
3.153920
 20
2.085600
  0
VERTEX
  8
0
  6
CONTINUOUS
 10
3.193080
 20
2.085160
  0
VERTEX
  8
0
  6
CONTINUOUS
 10
3.226080
 20
2.080760
  0
VERTEX
  8
0
  6
CONTINUOUS
 10
3.254680
 20
2.072840
  0
VERTEX
  8
0
  6
CONTINUOUS
 10
3.279760
 20
2.061840
  0
VERTEX
  8
0
  6
CONTINUOUS
 10
3.301760
 20
2.048200
  0
VERTEX
  8
0
  6
CONTINUOUS
 10
3.341800
 20
2.016520
  0
VERTEX
  8
0
  6
CONTINUOUS
 10
3.381840
 20
1.982640
  0
VERTEX
  8
0
  6
CONTINUOUS
 10
3.429800
 20
1.951400
  0
VERTEX
  8
0
  6
CONTINUOUS
 10
3.459280
 20
1.938200
  0
VERTEX
  8
0
  6
CONTINUOUS
 10
3.493600
 20
1.928080
  0
VERTEX
  8
0
  6
CONTINUOUS
 10
3.533640
 20
1.920600
  0
VERTEX
  8
0
  6
CONTINUOUS
 10
3.580720
 20
1.917080
  0
VERTEX
  8
0
  6
CONTINUOUS
 10
3.582040
 20
1.914440
  0
VERTEX
  8
0
  6
CONTINUOUS
 10
3.582040
 20
1.843600
  0
VERTEX
  8
0
  6
CONTINUOUS
 10
5.284840
 20
1.843600
  0
VERTEX
  8
0
  6
CONTINUOUS
 10
5.284840
 20
1.914440
  0
VERTEX
  8
0
  6
CONTINUOUS
 10
5.286160
 20
1.917080
  0
VERTEX
  8
0
  6
CONTINUOUS
 10
5.332800
 20
1.920600
  0
VERTEX
  8
0
  6
CONTINUOUS
 10
5.372840
 20
1.928080
  0
VERTEX
  8
0
  6
CONTINUOUS
 10
5.407160
 20
1.938200
  0
VERTEX
  8
0
  6
CONTINUOUS
 10
5.436640
 20
1.951400
  0
VERTEX
  8
0
  6
CONTINUOUS
 10
5.484600
 20
1.982640
  0
VERTEX
  8
0
  6
CONTINUOUS
 10
5.525080
 20
2.016520
  0
VERTEX
  8
0
  6
CONTINUOUS
 10
5.564680
 20
2.048200
  0
VERTEX
  8
0
  6
CONTINUOUS
 10
5.586680
 20
2.061840
  0
VERTEX
  8
0
  6
CONTINUOUS
 10
5.611760
 20
2.072840
  0
VERTEX
  8
0
  6
CONTINUOUS
 10
5.640360
 20
2.080760
  0
VERTEX
  8
0
  6
CONTINUOUS
 10
5.673800
 20
2.085160
  0
VERTEX
  8
0
  6
CONTINUOUS
 10
5.712520
 20
2.085600
  0
VERTEX
  8
0
  6
CONTINUOUS
 10
5.757840
 20
2.080760
  0
VERTEX
  8
0
  6
CONTINUOUS
 10
5.764440
 20
2.080760
  0
VERTEX
  8
0
  6
CONTINUOUS
 10
5.764440
 20
2.150280
  0
VERTEX
  8
0
  6
CONTINUOUS
 10
5.779400
 20
2.150280
  0
VERTEX
  8
0
  6
CONTINUOUS
 10
6.557760
 20
2.150280
  0
VERTEX
  8
0
  6
CONTINUOUS
 10
6.557760
 20
1.404920
  0
VERTEX
  8
0
  6
CONTINUOUS
 10
2.308240
 20
1.404920
  0
VERTEX
  8
0
  6
CONTINUOUS
 10
2.308680
 20
1.404920
  0
SEQEND
  8
0
  0
TEXT
  8
0
 10
4.092000
 20
1.167760
 40
0.138178
  1
BA  1049
 41
1.000000
  7
SN0
 71
     0
 72
     5
 11
4.773820
 21
1.167760
  0
TEXT
  8
0
 10
3.982440
 20
0.976360
 40
0.138178
  1
3/4" x 4-1/4"
 41
1.000000
  7
SN0
 71
     0
 72
     5
 11
4.881939
 21
0.976360
  0
POLYLINE
  8
0
  6
CONTINUOUS
 66
     1
 40
0.014080
 41
0.014080
  0
VERTEX
  8
0
  6
CONTINUOUS
 10
2.308680
 20
3.622080
  0
VERTEX
  8
0
  6
CONTINUOUS
 10
2.308680
 20
4.357760
  0
VERTEX
  8
0
  6
CONTINUOUS
 10
2.308680
 20
4.355120
  0
VERTEX
  8
0
  6
CONTINUOUS
 10
2.308680
 20
4.367440
  0
VERTEX
  8
0
  6
CONTINUOUS
 10
3.102000
 20
4.367440
  0
VERTEX
  8
0
  6
CONTINUOUS
 10
3.087480
 20
4.367440
  0
VERTEX
  8
0
  6
CONTINUOUS
 10
3.102000
 20
4.367440
  0
VERTEX
  8
0
  6
CONTINUOUS
 10
3.102000
 20
4.351160
  0
VERTEX
  8
0
  6
CONTINUOUS
 10
3.102000
 20
4.359080
  0
VERTEX
  8
0
  6
CONTINUOUS
 10
3.102000
 20
4.297920
  0
VERTEX
  8
0
  6
CONTINUOUS
 10
3.153920
 20
4.302760
  0
VERTEX
  8
0
  6
CONTINUOUS
 10
3.174160
 20
4.303200
  0
VERTEX
  8
0
  6
CONTINUOUS
 10
3.210240
 20
4.300560
  0
VERTEX
  8
0
  6
CONTINUOUS
 10
3.241040
 20
4.294400
  0
VERTEX
  8
0
  6
CONTINUOUS
 10
3.267440
 20
4.284720
  0
VERTEX
  8
0
  6
CONTINUOUS
 10
3.291200
 20
4.272400
  0
VERTEX
  8
0
  6
CONTINUOUS
 10
3.341800
 20
4.233680
  0
VERTEX
  8
0
  6
CONTINUOUS
 10
3.392840
 20
4.191440
  0
VERTEX
  8
0
  6
CONTINUOUS
 10
3.430240
 20
4.168560
  0
VERTEX
  8
0
  6
CONTINUOUS
 10
3.459720
 20
4.155360
  0
VERTEX
  8
0
  6
CONTINUOUS
 10
3.494040
 20
4.144800
  0
VERTEX
  8
0
  6
CONTINUOUS
 10
3.534080
 20
4.137320
  0
VERTEX
  8
0
  6
CONTINUOUS
 10
3.580720
 20
4.133800
  0
VERTEX
  8
0
  6
CONTINUOUS
 10
3.582040
 20
4.131160
  0
VERTEX
  8
0
  6
CONTINUOUS
 10
3.582040
 20
4.060760
  0
VERTEX
  8
0
  6
CONTINUOUS
 10
5.284400
 20
4.060760
  0
VERTEX
  8
0
  6
CONTINUOUS
 10
5.284400
 20
4.131160
  0
VERTEX
  8
0
  6
CONTINUOUS
 10
5.285720
 20
4.133800
  0
VERTEX
  8
0
  6
CONTINUOUS
 10
5.332800
 20
4.137320
  0
VERTEX
  8
0
  6
CONTINUOUS
 10
5.372840
 20
4.144800
  0
VERTEX
  8
0
  6
CONTINUOUS
 10
5.407160
 20
4.155360
  0
VERTEX
  8
0
  6
CONTINUOUS
 10
5.449840
 20
4.175600
  0
VERTEX
  8
0
  6
CONTINUOUS
 10
5.484600
 20
4.199800
  0
VERTEX
  8
0
  6
CONTINUOUS
 10
5.564680
 20
4.265360
  0
VERTEX
  8
0
  6
CONTINUOUS
 10
5.599000
 20
4.284720
  0
VERTEX
  8
0
  6
CONTINUOUS
 10
5.625400
 20
4.294400
  0
VERTEX
  8
0
  6
CONTINUOUS
 10
5.656200
 20
4.300560
  0
VERTEX
  8
0
  6
CONTINUOUS
 10
5.692280
 20
4.303200
  0
VERTEX
  8
0
  6
CONTINUOUS
 10
5.734080
 20
4.301000
  0
VERTEX
  8
0
  6
CONTINUOUS
 10
5.764440
 20
4.297920
  0
VERTEX
  8
0
  6
CONTINUOUS
 10
5.764440
 20
4.359080
  0
VERTEX
  8
0
  6
CONTINUOUS
 10
5.764440
 20
4.351160
  0
VERTEX
  8
0
  6
CONTINUOUS
 10
5.764440
 20
4.367440
  0
VERTEX
  8
0
  6
CONTINUOUS
 10
5.779400
 20
4.367440
  0
VERTEX
  8
0
  6
CONTINUOUS
 10
5.764440
 20
4.367440
  0
VERTEX
  8
0
  6
CONTINUOUS
 10
6.557760
 20
4.367440
  0
VERTEX
  8
0
  6
CONTINUOUS
 10
6.557760
 20
4.355120
  0
VERTEX
  8
0
  6
CONTINUOUS
 10
6.557760
 20
4.357760
  0
VERTEX
  8
0
  6
CONTINUOUS
 10
6.557760
 20
3.622080
  0
VERTEX
  8
0
  6
CONTINUOUS
 10
2.308240
 20
3.622080
  0
VERTEX
  8
0
  6
CONTINUOUS
 10
2.308680
 20
3.622080
  0
SEQEND
  8
0
  0
TEXT
  8
0
 10
2.699840
 20
3.889160
 40
0.138178
  1
BA  1049
 41
1.000000
  7
SN0
 71
     0
 72
     5
 11
3.381660
 21
3.889160
  0
TEXT
  8
0
 10
2.590280
 20
3.697760
 40
0.138178
  1
3/4" x 4-1/4"
 41
1.000000
  7
SN0
 71
     0
 72
     5
 11
3.489779
 21
3.697760
  0
TEXT
  8
0
 10
4.040960
 20
3.265680
 40
0.138178
  1
Similar to 
 41
1.000000
  7
SN0
 71
     0
 72
     5
 11
4.777147
 21
3.265680
  0
TEXT
  8
0
 10
4.114440
 20
3.074280
 40
0.138178
  1
BA 231
 41
1.000000
  7
SN0
 71
     0
 72
     5
 11
4.658318
 21
3.074280
  0
ENDSEC
  0
EOF
