  0
SECTION
  2
HEADER
  9
$ACADVER
  1
AC1006
  9
$EXTMIN
 10
3.420560
 20
0.517000
  9
$EXTMAX
 10
7.853560
 20
2.675640
  9
$LTSCALE
 40
0.044000
  9
$PDMODE
 70
    35
  9
$PDSIZE
 40
0.035200
  0
ENDSEC
  0
SECTION
  2
TABLES
  0
TABLE
  2
LTYPE
 70
     9
  0
LTYPE
  2
CONTINUOUS
 70
    64
  3
Solid line
 72
    65
 73
     0
 40
0.000000
  0
LTYPE
  2
DASHED
 70
    64
  3
__ __ __ __ __ __ __ __ __ __ __ __ __ __ __
 72
    65
 73
     2
 40
0.000330
 49
0.000220
 49
-0.000110
  0
LTYPE
  2
HIDDEN
 70
    64
  3
 _ _ _ _ _ _ _ _ _ _ _ _ _ _ _ _ _ _ _ _ _ _
 72
    65
 73
     2
 40
0.000165
 49
0.000110
 49
-0.000055
  0
LTYPE
  2
CENTER
 70
    64
  3
____ _ ____ _ ____ _ ____ _ ____ _ ____ _ ____
 72
    65
 73
     4
 40
0.000880
 49
0.000550
 49
-0.000110
 49
0.000110
 49
-0.000110
  0
LTYPE
  2
PHANTOM
 70
    64
  3
_____ _ _ _____ _ _ _____ _ _ _____ _ _ ____
 72
    65
 73
     6
 40
0.001100
 49
0.000550
 49
-0.000110
 49
0.000110
 49
-0.000110
 49
0.000110
 49
-0.000110
  0
LTYPE
  2
DOT
 70
    64
  3
...............................................
 72
    65
 73
     2
 40
0.000110
 49
0.000000
 49
-0.000110
  0
LTYPE
  2
DASHDOT
 70
    64
  3
__ . __ . __ . __ . __ . __ . __ . __ . __ . __
 72
    65
 73
     4
 40
0.000440
 49
0.000220
 49
-0.000110
 49
0.000000
 49
-0.000110
  0
LTYPE
  2
BORDER
 70
    64
  3
__ __ . __ __ . __ __ . __ __ . __ __ . __ __
 72
    65
 73
     6
 40
0.000770
 49
0.000220
 49
-0.000110
 49
0.000220
 49
-0.000110
 49
0.000000
 49
-0.000110
  0
LTYPE
  2
DIVIDE
 70
    64
  3
__ . . __ . . __ . . __ . . __ . . __ . . __
 72
    65
 73
     6
 40
0.000550
 49
0.000220
 49
-0.000110
 49
0.000000
 49
-0.000110
 49
0.000000
 49
-0.000110
  0
LTYPE
  2
DOTDOT
 70
    64
  3
 . .  . .  . .  . .  . .  . . 
 72
    65
 73
     5
 40
0.000242
 49
-0.000110
 49
0.000000
 49
-0.000110
 49
0.000000
 49
-0.000110
  0
ENDTAB
  0
TABLE
  2
STYLE
 70
     2
  0
STYLE
 70
     0
  2
SN0
 40
0.000000
 41
0.000440
 50
0.000000
 71
     0
 42
0.000000
  3
ROMAND
  0
STYLE
 70
    68
  2
SV0
 40
0.000000
 41
0.000440
 50
0.000000
 71
     0
 42
0.000000
  3
ROMAND
  0
ENDTAB
  0
TABLE
  2
LAYER
 70
     3
  0
LAYER
  2
FOREGROUND
 70
    64
 62
     7
  6
CONTINUOUS
  0
LAYER
  2
BACKGROUND
 70
    65
 62
    -7
  6
CONTINUOUS
  0
LAYER
  2
0
 70
    64
 62
     7
  6
CONTINUOUS
  0
ENDTAB
  0
ENDSEC
  0
SECTION
  2
ENTITIES
  0
POLYLINE
  8
FOREGROUND
  6
CONTINUOUS
 66
     1
 40
0.000000
 41
0.000000
  0
VERTEX
  8
FOREGROUND
  6
CONTINUOUS
 10
0.000000
 20
3.192640
  0
VERTEX
  8
FOREGROUND
  6
CONTINUOUS
 10
8.499920
 20
3.192640
  0
VERTEX
  8
FOREGROUND
  6
CONTINUOUS
 10
8.499920
 20
-7.807360
  0
VERTEX
  8
FOREGROUND
  6
CONTINUOUS
 10
0.000000
 20
-7.807360
  0
VERTEX
  8
FOREGROUND
  6
CONTINUOUS
 10
0.000000
 20
3.192640
  0
SEQEND
  8
0
  0
POLYLINE
  8
FOREGROUND
  6
CONTINUOUS
 66
     1
 40
0.000000
 41
0.000000
  0
VERTEX
  8
FOREGROUND
  6
CONTINUOUS
 10
0.000000
 20
3.192640
  0
VERTEX
  8
FOREGROUND
  6
CONTINUOUS
 10
8.499920
 20
3.192640
  0
VERTEX
  8
FOREGROUND
  6
CONTINUOUS
 10
8.499920
 20
-7.807360
  0
VERTEX
  8
FOREGROUND
  6
CONTINUOUS
 10
0.000000
 20
-7.807360
  0
VERTEX
  8
FOREGROUND
  6
CONTINUOUS
 10
0.000000
 20
3.192640
  0
SEQEND
  8
0
  0
SOLID
  8
0
 62
    15
 10
4.009280
 20
1.375000
 11
4.643320
 21
1.016840
 12
3.944160
 22
1.302400
 13
4.578200
 23
0.944240
  0
POLYLINE
  8
0
  6
CONTINUOUS
 66
     1
 40
0.000000
 41
0.000000
  0
VERTEX
  8
0
  6
CONTINUOUS
 10
4.009280
 20
1.375000
  0
VERTEX
  8
0
  6
CONTINUOUS
 10
4.643320
 20
1.016840
  0
VERTEX
  8
0
  6
CONTINUOUS
 10
4.578200
 20
0.944240
  0
VERTEX
  8
0
  6
CONTINUOUS
 10
3.944160
 20
1.302400
  0
VERTEX
  8
0
  6
CONTINUOUS
 10
4.009280
 20
1.375000
  0
SEQEND
  8
0
  0
SOLID
  8
0
 62
    15
 10
4.482720
 20
2.166120
 11
5.116760
 21
1.807960
 12
4.417160
 22
2.129600
 13
5.051640
 23
1.771440
  0
POLYLINE
  8
0
  6
CONTINUOUS
 66
     1
 40
0.000000
 41
0.000000
  0
VERTEX
  8
0
  6
CONTINUOUS
 10
4.482720
 20
2.166120
  0
VERTEX
  8
0
  6
CONTINUOUS
 10
5.116760
 20
1.807960
  0
VERTEX
  8
0
  6
CONTINUOUS
 10
5.051640
 20
1.771440
  0
VERTEX
  8
0
  6
CONTINUOUS
 10
4.417160
 20
2.129600
  0
VERTEX
  8
0
  6
CONTINUOUS
 10
4.482720
 20
2.166120
  0
SEQEND
  8
0
  0
SOLID
  8
0
 62
    15
 10
4.417160
 20
2.129600
 11
5.051640
 21
1.771440
 12
4.359520
 22
2.083840
 13
4.993560
 23
1.725680
  0
POLYLINE
  8
0
  6
CONTINUOUS
 66
     1
 40
0.000000
 41
0.000000
  0
VERTEX
  8
0
  6
CONTINUOUS
 10
4.417160
 20
2.129600
  0
VERTEX
  8
0
  6
CONTINUOUS
 10
5.051640
 20
1.771440
  0
VERTEX
  8
0
  6
CONTINUOUS
 10
4.993560
 20
1.725680
  0
VERTEX
  8
0
  6
CONTINUOUS
 10
4.359520
 20
2.083840
  0
VERTEX
  8
0
  6
CONTINUOUS
 10
4.417160
 20
2.129600
  0
SEQEND
  8
0
  0
SOLID
  8
0
 62
    15
 10
4.359520
 20
2.083840
 11
4.993560
 21
1.725680
 12
4.309360
 22
2.031040
 13
4.943400
 23
1.672880
  0
POLYLINE
  8
0
  6
CONTINUOUS
 66
     1
 40
0.000000
 41
0.000000
  0
VERTEX
  8
0
  6
CONTINUOUS
 10
4.359520
 20
2.083840
  0
VERTEX
  8
0
  6
CONTINUOUS
 10
4.993560
 20
1.725680
  0
VERTEX
  8
0
  6
CONTINUOUS
 10
4.943400
 20
1.672880
  0
VERTEX
  8
0
  6
CONTINUOUS
 10
4.309360
 20
2.031040
  0
VERTEX
  8
0
  6
CONTINUOUS
 10
4.359520
 20
2.083840
  0
SEQEND
  8
0
  0
SOLID
  8
0
 62
    15
 10
4.309360
 20
2.031040
 11
4.943400
 21
1.672880
 12
4.266680
 22
1.972520
 13
4.900720
 23
1.614360
  0
POLYLINE
  8
0
  6
CONTINUOUS
 66
     1
 40
0.000000
 41
0.000000
  0
VERTEX
  8
0
  6
CONTINUOUS
 10
4.309360
 20
2.031040
  0
VERTEX
  8
0
  6
CONTINUOUS
 10
4.943400
 20
1.672880
  0
VERTEX
  8
0
  6
CONTINUOUS
 10
4.900720
 20
1.614360
  0
VERTEX
  8
0
  6
CONTINUOUS
 10
4.266680
 20
1.972520
  0
VERTEX
  8
0
  6
CONTINUOUS
 10
4.309360
 20
2.031040
  0
SEQEND
  8
0
  0
SOLID
  8
0
 62
    15
 10
4.266680
 20
1.972520
 11
4.900720
 21
1.614360
 12
4.231040
 22
1.910040
 13
4.865080
 23
1.551880
  0
POLYLINE
  8
0
  6
CONTINUOUS
 66
     1
 40
0.000000
 41
0.000000
  0
VERTEX
  8
0
  6
CONTINUOUS
 10
4.266680
 20
1.972520
  0
VERTEX
  8
0
  6
CONTINUOUS
 10
4.900720
 20
1.614360
  0
VERTEX
  8
0
  6
CONTINUOUS
 10
4.865080
 20
1.551880
  0
VERTEX
  8
0
  6
CONTINUOUS
 10
4.231040
 20
1.910040
  0
VERTEX
  8
0
  6
CONTINUOUS
 10
4.266680
 20
1.972520
  0
SEQEND
  8
0
  0
SOLID
  8
0
 62
    15
 10
4.231040
 20
1.910040
 11
4.865080
 21
1.551880
 12
4.202880
 22
1.845360
 13
4.836920
 23
1.486760
  0
POLYLINE
  8
0
  6
CONTINUOUS
 66
     1
 40
0.000000
 41
0.000000
  0
VERTEX
  8
0
  6
CONTINUOUS
 10
4.231040
 20
1.910040
  0
VERTEX
  8
0
  6
CONTINUOUS
 10
4.865080
 20
1.551880
  0
VERTEX
  8
0
  6
CONTINUOUS
 10
4.836920
 20
1.486760
  0
VERTEX
  8
0
  6
CONTINUOUS
 10
4.202880
 20
1.845360
  0
VERTEX
  8
0
  6
CONTINUOUS
 10
4.231040
 20
1.910040
  0
SEQEND
  8
0
  0
SOLID
  8
0
 62
    15
 10
4.202880
 20
1.845360
 11
4.836920
 21
1.486760
 12
4.181760
 22
1.779800
 13
4.815800
 23
1.421640
  0
POLYLINE
  8
0
  6
CONTINUOUS
 66
     1
 40
0.000000
 41
0.000000
  0
VERTEX
  8
0
  6
CONTINUOUS
 10
4.202880
 20
1.845360
  0
VERTEX
  8
0
  6
CONTINUOUS
 10
4.836920
 20
1.486760
  0
VERTEX
  8
0
  6
CONTINUOUS
 10
4.815800
 20
1.421640
  0
VERTEX
  8
0
  6
CONTINUOUS
 10
4.181760
 20
1.779800
  0
VERTEX
  8
0
  6
CONTINUOUS
 10
4.202880
 20
1.845360
  0
SEQEND
  8
0
  0
SOLID
  8
0
 62
    15
 10
4.181760
 20
1.779800
 11
4.815800
 21
1.421640
 12
4.161960
 22
1.708520
 13
4.796000
 23
1.350360
  0
POLYLINE
  8
0
  6
CONTINUOUS
 66
     1
 40
0.000000
 41
0.000000
  0
VERTEX
  8
0
  6
CONTINUOUS
 10
4.181760
 20
1.779800
  0
VERTEX
  8
0
  6
CONTINUOUS
 10
4.815800
 20
1.421640
  0
VERTEX
  8
0
  6
CONTINUOUS
 10
4.796000
 20
1.350360
  0
VERTEX
  8
0
  6
CONTINUOUS
 10
4.161960
 20
1.708520
  0
VERTEX
  8
0
  6
CONTINUOUS
 10
4.181760
 20
1.779800
  0
SEQEND
  8
0
  0
SOLID
  8
0
 62
    15
 10
4.161960
 20
1.708520
 11
4.796000
 21
1.350360
 12
4.136440
 22
1.627560
 13
4.770480
 23
1.269400
  0
POLYLINE
  8
0
  6
CONTINUOUS
 66
     1
 40
0.000000
 41
0.000000
  0
VERTEX
  8
0
  6
CONTINUOUS
 10
4.161960
 20
1.708520
  0
VERTEX
  8
0
  6
CONTINUOUS
 10
4.796000
 20
1.350360
  0
VERTEX
  8
0
  6
CONTINUOUS
 10
4.770480
 20
1.269400
  0
VERTEX
  8
0
  6
CONTINUOUS
 10
4.136440
 20
1.627560
  0
VERTEX
  8
0
  6
CONTINUOUS
 10
4.161960
 20
1.708520
  0
SEQEND
  8
0
  0
SOLID
  8
0
 62
    15
 10
4.136440
 20
1.627560
 11
4.770480
 21
1.269400
 12
4.103880
 22
1.542200
 13
4.737920
 23
1.184040
  0
POLYLINE
  8
0
  6
CONTINUOUS
 66
     1
 40
0.000000
 41
0.000000
  0
VERTEX
  8
0
  6
CONTINUOUS
 10
4.136440
 20
1.627560
  0
VERTEX
  8
0
  6
CONTINUOUS
 10
4.770480
 20
1.269400
  0
VERTEX
  8
0
  6
CONTINUOUS
 10
4.737920
 20
1.184040
  0
VERTEX
  8
0
  6
CONTINUOUS
 10
4.103880
 20
1.542200
  0
VERTEX
  8
0
  6
CONTINUOUS
 10
4.136440
 20
1.627560
  0
SEQEND
  8
0
  0
SOLID
  8
0
 62
    15
 10
4.103880
 20
1.542200
 11
4.737920
 21
1.184040
 12
4.062080
 22
1.456400
 13
4.696120
 23
1.098240
  0
POLYLINE
  8
0
  6
CONTINUOUS
 66
     1
 40
0.000000
 41
0.000000
  0
VERTEX
  8
0
  6
CONTINUOUS
 10
4.103880
 20
1.542200
  0
VERTEX
  8
0
  6
CONTINUOUS
 10
4.737920
 20
1.184040
  0
VERTEX
  8
0
  6
CONTINUOUS
 10
4.696120
 20
1.098240
  0
VERTEX
  8
0
  6
CONTINUOUS
 10
4.062080
 20
1.456400
  0
VERTEX
  8
0
  6
CONTINUOUS
 10
4.103880
 20
1.542200
  0
SEQEND
  8
0
  0
SOLID
  8
0
 62
    15
 10
4.062080
 20
1.456400
 11
4.696120
 21
1.098240
 12
4.009280
 22
1.375000
 13
4.643320
 23
1.016840
  0
POLYLINE
  8
0
  6
CONTINUOUS
 66
     1
 40
0.000000
 41
0.000000
  0
VERTEX
  8
0
  6
CONTINUOUS
 10
4.062080
 20
1.456400
  0
VERTEX
  8
0
  6
CONTINUOUS
 10
4.696120
 20
1.098240
  0
VERTEX
  8
0
  6
CONTINUOUS
 10
4.643320
 20
1.016840
  0
VERTEX
  8
0
  6
CONTINUOUS
 10
4.009280
 20
1.375000
  0
VERTEX
  8
0
  6
CONTINUOUS
 10
4.062080
 20
1.456400
  0
SEQEND
  8
0
  0
SOLID
  8
0
 62
    15
 10
4.555320
 20
2.192520
 11
5.189360
 21
1.834360
 12
4.482720
 22
2.166120
 13
5.116760
 23
1.807960
  0
POLYLINE
  8
0
  6
CONTINUOUS
 66
     1
 40
0.000000
 41
0.000000
  0
VERTEX
  8
0
  6
CONTINUOUS
 10
4.555320
 20
2.192520
  0
VERTEX
  8
0
  6
CONTINUOUS
 10
5.189360
 20
1.834360
  0
VERTEX
  8
0
  6
CONTINUOUS
 10
5.116760
 20
1.807960
  0
VERTEX
  8
0
  6
CONTINUOUS
 10
4.482720
 20
2.166120
  0
VERTEX
  8
0
  6
CONTINUOUS
 10
4.555320
 20
2.192520
  0
SEQEND
  8
0
  0
SOLID
  8
0
 62
    15
 10
3.944160
 20
1.302400
 11
4.578200
 21
0.944240
 12
3.864520
 22
1.243000
 13
4.498560
 23
0.884840
  0
POLYLINE
  8
0
  6
CONTINUOUS
 66
     1
 40
0.000000
 41
0.000000
  0
VERTEX
  8
0
  6
CONTINUOUS
 10
3.944160
 20
1.302400
  0
VERTEX
  8
0
  6
CONTINUOUS
 10
4.578200
 20
0.944240
  0
VERTEX
  8
0
  6
CONTINUOUS
 10
4.498560
 20
0.884840
  0
VERTEX
  8
0
  6
CONTINUOUS
 10
3.864520
 20
1.243000
  0
VERTEX
  8
0
  6
CONTINUOUS
 10
3.944160
 20
1.302400
  0
SEQEND
  8
0
  0
SOLID
  8
0
 62
    15
 10
3.864520
 20
1.243000
 11
4.498560
 21
0.884840
 12
3.818760
 22
1.220120
 13
4.452800
 23
0.861520
  0
POLYLINE
  8
0
  6
CONTINUOUS
 66
     1
 40
0.000000
 41
0.000000
  0
VERTEX
  8
0
  6
CONTINUOUS
 10
3.864520
 20
1.243000
  0
VERTEX
  8
0
  6
CONTINUOUS
 10
4.498560
 20
0.884840
  0
VERTEX
  8
0
  6
CONTINUOUS
 10
4.452800
 20
0.861520
  0
VERTEX
  8
0
  6
CONTINUOUS
 10
3.818760
 20
1.220120
  0
VERTEX
  8
0
  6
CONTINUOUS
 10
3.864520
 20
1.243000
  0
SEQEND
  8
0
  0
SOLID
  8
0
 62
    15
 10
3.818760
 20
1.220120
 11
4.452800
 21
0.861520
 12
3.768600
 22
1.201640
 13
4.402640
 23
0.843480
  0
POLYLINE
  8
0
  6
CONTINUOUS
 66
     1
 40
0.000000
 41
0.000000
  0
VERTEX
  8
0
  6
CONTINUOUS
 10
3.818760
 20
1.220120
  0
VERTEX
  8
0
  6
CONTINUOUS
 10
4.452800
 20
0.861520
  0
VERTEX
  8
0
  6
CONTINUOUS
 10
4.402640
 20
0.843480
  0
VERTEX
  8
0
  6
CONTINUOUS
 10
3.768600
 20
1.201640
  0
VERTEX
  8
0
  6
CONTINUOUS
 10
3.818760
 20
1.220120
  0
SEQEND
  8
0
  0
SOLID
  8
0
 62
    15
 10
3.768600
 20
1.201640
 11
4.402640
 21
0.843480
 12
3.768600
 22
1.075800
 13
4.402640
 23
0.717640
  0
POLYLINE
  8
0
  6
CONTINUOUS
 66
     1
 40
0.000000
 41
0.000000
  0
VERTEX
  8
0
  6
CONTINUOUS
 10
3.768600
 20
1.201640
  0
VERTEX
  8
0
  6
CONTINUOUS
 10
4.402640
 20
0.843480
  0
VERTEX
  8
0
  6
CONTINUOUS
 10
4.402640
 20
0.717640
  0
VERTEX
  8
0
  6
CONTINUOUS
 10
3.768600
 20
1.075800
  0
VERTEX
  8
0
  6
CONTINUOUS
 10
3.768600
 20
1.201640
  0
SEQEND
  8
0
  0
SOLID
  8
0
 62
    15
 10
3.768600
 20
1.075800
 11
4.402640
 21
0.717640
 12
3.733400
 22
1.063920
 13
4.367440
 23
0.705760
  0
POLYLINE
  8
0
  6
CONTINUOUS
 66
     1
 40
0.000000
 41
0.000000
  0
VERTEX
  8
0
  6
CONTINUOUS
 10
3.768600
 20
1.075800
  0
VERTEX
  8
0
  6
CONTINUOUS
 10
4.402640
 20
0.717640
  0
VERTEX
  8
0
  6
CONTINUOUS
 10
4.367440
 20
0.705760
  0
VERTEX
  8
0
  6
CONTINUOUS
 10
3.733400
 20
1.063920
  0
VERTEX
  8
0
  6
CONTINUOUS
 10
3.768600
 20
1.075800
  0
SEQEND
  8
0
  0
SOLID
  8
0
 62
    15
 10
3.733400
 20
1.063920
 11
4.367440
 21
0.705760
 12
3.703040
 22
1.048520
 13
4.337080
 23
0.690360
  0
POLYLINE
  8
0
  6
CONTINUOUS
 66
     1
 40
0.000000
 41
0.000000
  0
VERTEX
  8
0
  6
CONTINUOUS
 10
3.733400
 20
1.063920
  0
VERTEX
  8
0
  6
CONTINUOUS
 10
4.367440
 20
0.705760
  0
VERTEX
  8
0
  6
CONTINUOUS
 10
4.337080
 20
0.690360
  0
VERTEX
  8
0
  6
CONTINUOUS
 10
3.703040
 20
1.048520
  0
VERTEX
  8
0
  6
CONTINUOUS
 10
3.733400
 20
1.063920
  0
SEQEND
  8
0
  0
SOLID
  8
0
 62
    15
 10
3.703040
 20
1.048520
 11
4.337080
 21
0.690360
 12
3.676640
 22
1.030040
 13
4.310680
 23
0.671880
  0
POLYLINE
  8
0
  6
CONTINUOUS
 66
     1
 40
0.000000
 41
0.000000
  0
VERTEX
  8
0
  6
CONTINUOUS
 10
3.703040
 20
1.048520
  0
VERTEX
  8
0
  6
CONTINUOUS
 10
4.337080
 20
0.690360
  0
VERTEX
  8
0
  6
CONTINUOUS
 10
4.310680
 20
0.671880
  0
VERTEX
  8
0
  6
CONTINUOUS
 10
3.676640
 20
1.030040
  0
VERTEX
  8
0
  6
CONTINUOUS
 10
3.703040
 20
1.048520
  0
SEQEND
  8
0
  0
SOLID
  8
0
 62
    15
 10
3.676640
 20
1.030040
 11
4.310680
 21
0.671880
 12
3.655080
 22
1.009360
 13
4.289120
 23
0.651200
  0
POLYLINE
  8
0
  6
CONTINUOUS
 66
     1
 40
0.000000
 41
0.000000
  0
VERTEX
  8
0
  6
CONTINUOUS
 10
3.676640
 20
1.030040
  0
VERTEX
  8
0
  6
CONTINUOUS
 10
4.310680
 20
0.671880
  0
VERTEX
  8
0
  6
CONTINUOUS
 10
4.289120
 20
0.651200
  0
VERTEX
  8
0
  6
CONTINUOUS
 10
3.655080
 20
1.009360
  0
VERTEX
  8
0
  6
CONTINUOUS
 10
3.676640
 20
1.030040
  0
SEQEND
  8
0
  0
SOLID
  8
0
 62
    15
 10
3.655080
 20
1.009360
 11
4.289120
 21
0.651200
 12
3.626480
 22
0.961840
 13
4.260520
 23
0.603680
  0
POLYLINE
  8
0
  6
CONTINUOUS
 66
     1
 40
0.000000
 41
0.000000
  0
VERTEX
  8
0
  6
CONTINUOUS
 10
3.655080
 20
1.009360
  0
VERTEX
  8
0
  6
CONTINUOUS
 10
4.289120
 20
0.651200
  0
VERTEX
  8
0
  6
CONTINUOUS
 10
4.260520
 20
0.603680
  0
VERTEX
  8
0
  6
CONTINUOUS
 10
3.626480
 20
0.961840
  0
VERTEX
  8
0
  6
CONTINUOUS
 10
3.655080
 20
1.009360
  0
SEQEND
  8
0
  0
SOLID
  8
0
 62
    15
 10
3.626480
 20
0.961840
 11
4.260520
 21
0.603680
 12
3.616800
 22
0.910360
 13
4.250840
 23
0.552200
  0
POLYLINE
  8
0
  6
CONTINUOUS
 66
     1
 40
0.000000
 41
0.000000
  0
VERTEX
  8
0
  6
CONTINUOUS
 10
3.626480
 20
0.961840
  0
VERTEX
  8
0
  6
CONTINUOUS
 10
4.260520
 20
0.603680
  0
VERTEX
  8
0
  6
CONTINUOUS
 10
4.250840
 20
0.552200
  0
VERTEX
  8
0
  6
CONTINUOUS
 10
3.616800
 20
0.910360
  0
VERTEX
  8
0
  6
CONTINUOUS
 10
3.626480
 20
0.961840
  0
SEQEND
  8
0
  0
SOLID
  8
0
 62
    15
 10
3.616800
 20
0.910360
 11
4.250840
 21
0.552200
 12
3.421000
 22
0.910360
 13
4.055040
 23
0.552200
  0
POLYLINE
  8
0
  6
CONTINUOUS
 66
     1
 40
0.000000
 41
0.000000
  0
VERTEX
  8
0
  6
CONTINUOUS
 10
3.616800
 20
0.910360
  0
VERTEX
  8
0
  6
CONTINUOUS
 10
4.250840
 20
0.552200
  0
VERTEX
  8
0
  6
CONTINUOUS
 10
4.055040
 20
0.552200
  0
VERTEX
  8
0
  6
CONTINUOUS
 10
3.421000
 20
0.910360
  0
VERTEX
  8
0
  6
CONTINUOUS
 10
3.616800
 20
0.910360
  0
SEQEND
  8
0
  0
SOLID
  8
0
 62
    15
 10
4.555320
 20
2.675200
 11
5.189360
 21
2.316600
 12
4.555320
 22
2.192520
 13
5.189360
 23
1.834360
  0
POLYLINE
  8
0
  6
CONTINUOUS
 66
     1
 40
0.000000
 41
0.000000
  0
VERTEX
  8
0
  6
CONTINUOUS
 10
4.555320
 20
2.675200
  0
VERTEX
  8
0
  6
CONTINUOUS
 10
5.189360
 20
2.316600
  0
VERTEX
  8
0
  6
CONTINUOUS
 10
5.189360
 20
1.834360
  0
VERTEX
  8
0
  6
CONTINUOUS
 10
4.555320
 20
2.192520
  0
VERTEX
  8
0
  6
CONTINUOUS
 10
4.555320
 20
2.675200
  0
SEQEND
  8
0
  0
POLYLINE
  8
0
  6
CONTINUOUS
 66
     1
 40
0.000000
 41
0.000000
  0
VERTEX
  8
0
  6
CONTINUOUS
 10
4.555320
 20
2.192520
  0
VERTEX
  8
0
  6
CONTINUOUS
 10
4.482720
 20
2.166120
  0
VERTEX
  8
0
  6
CONTINUOUS
 10
4.417160
 20
2.129600
  0
VERTEX
  8
0
  6
CONTINUOUS
 10
4.359520
 20
2.083840
  0
VERTEX
  8
0
  6
CONTINUOUS
 10
4.309360
 20
2.031040
  0
VERTEX
  8
0
  6
CONTINUOUS
 10
4.266680
 20
1.972520
  0
VERTEX
  8
0
  6
CONTINUOUS
 10
4.231040
 20
1.910040
  0
VERTEX
  8
0
  6
CONTINUOUS
 10
4.202880
 20
1.845360
  0
VERTEX
  8
0
  6
CONTINUOUS
 10
4.181760
 20
1.779800
  0
VERTEX
  8
0
  6
CONTINUOUS
 10
4.161960
 20
1.708520
  0
VERTEX
  8
0
  6
CONTINUOUS
 10
4.136440
 20
1.627560
  0
VERTEX
  8
0
  6
CONTINUOUS
 10
4.103880
 20
1.542200
  0
VERTEX
  8
0
  6
CONTINUOUS
 10
4.062080
 20
1.456400
  0
VERTEX
  8
0
  6
CONTINUOUS
 10
4.009280
 20
1.375000
  0
VERTEX
  8
0
  6
CONTINUOUS
 10
3.944160
 20
1.302400
  0
VERTEX
  8
0
  6
CONTINUOUS
 10
3.864520
 20
1.243000
  0
VERTEX
  8
0
  6
CONTINUOUS
 10
3.818760
 20
1.220120
  0
VERTEX
  8
0
  6
CONTINUOUS
 10
3.768600
 20
1.201640
  0
VERTEX
  8
0
  6
CONTINUOUS
 10
3.768600
 20
1.075800
  0
VERTEX
  8
0
  6
CONTINUOUS
 10
3.733400
 20
1.063920
  0
VERTEX
  8
0
  6
CONTINUOUS
 10
3.703040
 20
1.048520
  0
VERTEX
  8
0
  6
CONTINUOUS
 10
3.676640
 20
1.030040
  0
VERTEX
  8
0
  6
CONTINUOUS
 10
3.655080
 20
1.009360
  0
VERTEX
  8
0
  6
CONTINUOUS
 10
3.626480
 20
0.961840
  0
VERTEX
  8
0
  6
CONTINUOUS
 10
3.616800
 20
0.910360
  0
VERTEX
  8
0
  6
CONTINUOUS
 10
3.421000
 20
0.910360
  0
VERTEX
  8
0
  6
CONTINUOUS
 10
3.421000
 20
2.675200
  0
VERTEX
  8
0
  6
CONTINUOUS
 10
4.555320
 20
2.675200
  0
VERTEX
  8
0
  6
CONTINUOUS
 10
4.555320
 20
2.192520
  0
SEQEND
  8
0
  0
TEXT
  8
0
 10
4.962320
 20
0.751960
 40
0.138167
  1
BA  1048
 41
1.000000
  7
SN0
 71
     0
 72
     5
 11
5.646110
 21
0.751960
  0
TEXT
  8
0
 10
4.778840
 20
0.560560
 40
0.138167
  1
1-1/8" x 1-3/4"
 41
1.000000
  7
SN0
 71
     0
 72
     5
 11
5.829461
 21
0.560560
  0
POLYLINE
  8
0
  6
CONTINUOUS
 66
     1
 40
0.014080
 41
0.014080
  0
VERTEX
  8
0
  6
CONTINUOUS
 10
6.564360
 20
2.665520
  0
VERTEX
  8
0
  6
CONTINUOUS
 10
6.576240
 20
2.628120
  0
VERTEX
  8
0
  6
CONTINUOUS
 10
6.590760
 20
2.592920
  0
VERTEX
  8
0
  6
CONTINUOUS
 10
6.617160
 20
2.543200
  0
VERTEX
  8
0
  6
CONTINUOUS
 10
6.649280
 20
2.497880
  0
VERTEX
  8
0
  6
CONTINUOUS
 10
6.673040
 20
2.469720
  0
VERTEX
  8
0
  6
CONTINUOUS
 10
6.698560
 20
2.443760
  0
VERTEX
  8
0
  6
CONTINUOUS
 10
6.725840
 20
2.419560
  0
VERTEX
  8
0
  6
CONTINUOUS
 10
6.754440
 20
2.397120
  0
VERTEX
  8
0
  6
CONTINUOUS
 10
6.784360
 20
2.376440
  0
VERTEX
  8
0
  6
CONTINUOUS
 10
6.815160
 20
2.357960
  0
VERTEX
  8
0
  6
CONTINUOUS
 10
6.846840
 20
2.341240
  0
VERTEX
  8
0
  6
CONTINUOUS
 10
6.878960
 20
2.326280
  0
VERTEX
  8
0
  6
CONTINUOUS
 10
6.911520
 20
2.313080
  0
VERTEX
  8
0
  6
CONTINUOUS
 10
6.977080
 20
2.291960
  0
VERTEX
  8
0
  6
CONTINUOUS
 10
7.087960
 20
2.260280
  0
VERTEX
  8
0
  6
CONTINUOUS
 10
7.171560
 20
2.231680
  0
VERTEX
  8
0
  6
CONTINUOUS
 10
7.214680
 20
2.214080
  0
VERTEX
  8
0
  6
CONTINUOUS
 10
7.278920
 20
2.183720
  0
VERTEX
  8
0
  6
CONTINUOUS
 10
7.321160
 20
2.159960
  0
VERTEX
  8
0
  6
CONTINUOUS
 10
7.381880
 20
2.119480
  0
VERTEX
  8
0
  6
CONTINUOUS
 10
7.419280
 20
2.088240
  0
VERTEX
  8
0
  6
CONTINUOUS
 10
7.454480
 20
2.053920
  0
VERTEX
  8
0
  6
CONTINUOUS
 10
7.486160
 20
2.016080
  0
VERTEX
  8
0
  6
CONTINUOUS
 10
7.513880
 20
1.974280
  0
VERTEX
  8
0
  6
CONTINUOUS
 10
7.526200
 20
1.952280
  0
VERTEX
  8
0
  6
CONTINUOUS
 10
7.537200
 20
1.928960
  0
VERTEX
  8
0
  6
CONTINUOUS
 10
7.555240
 20
1.878800
  0
VERTEX
  8
0
  6
CONTINUOUS
 10
7.681080
 20
1.878800
  0
VERTEX
  8
0
  6
CONTINUOUS
 10
7.692960
 20
1.843600
  0
VERTEX
  8
0
  6
CONTINUOUS
 10
7.708360
 20
1.812800
  0
VERTEX
  8
0
  6
CONTINUOUS
 10
7.726840
 20
1.786840
  0
VERTEX
  8
0
  6
CONTINUOUS
 10
7.747520
 20
1.765280
  0
VERTEX
  8
0
  6
CONTINUOUS
 10
7.770400
 20
1.748560
  0
VERTEX
  8
0
  6
CONTINUOUS
 10
7.794600
 20
1.736680
  0
VERTEX
  8
0
  6
CONTINUOUS
 10
7.807360
 20
1.732280
  0
VERTEX
  8
0
  6
CONTINUOUS
 10
7.832880
 20
1.727440
  0
VERTEX
  8
0
  6
CONTINUOUS
 10
7.846080
 20
1.727000
  0
VERTEX
  8
0
  6
CONTINUOUS
 10
7.846080
 20
1.531200
  0
VERTEX
  8
0
  6
CONTINUOUS
 10
6.081680
 20
1.531200
  0
VERTEX
  8
0
  6
CONTINUOUS
 10
6.081680
 20
2.665520
  0
VERTEX
  8
0
  6
CONTINUOUS
 10
6.564360
 20
2.665520
  0
SEQEND
  8
0
  0
TEXT
  8
0
 10
6.483840
 20
1.855040
 40
0.138167
  1
BA  1048
 41
1.000000
  7
SN0
 71
     0
 72
     5
 11
7.167630
 21
1.855040
  0
TEXT
  8
0
 10
6.300360
 20
1.663640
 40
0.138167
  1
1-1/8" x 1-3/4"
 41
1.000000
  7
SN0
 71
     0
 72
     5
 11
7.350981
 21
1.663640
  0
ENDSEC
  0
EOF
