  0
SECTION
  2
HEADER
  9
$ACADVER
  1
AC1006
  9
$EXTMIN
 10
4.690400
 20
0.573760
  9
$EXTMAX
 10
8.037480
 20
3.843400
  9
$LTSCALE
 40
0.044000
  9
$PDMODE
 70
    35
  9
$PDSIZE
 40
0.035200
  0
ENDSEC
  0
SECTION
  2
TABLES
  0
TABLE
  2
LTYPE
 70
     9
  0
LTYPE
  2
CONTINUOUS
 70
    64
  3
Solid line
 72
    65
 73
     0
 40
0.000000
  0
LTYPE
  2
DASHED
 70
    64
  3
__ __ __ __ __ __ __ __ __ __ __ __ __ __ __
 72
    65
 73
     2
 40
0.000330
 49
0.000220
 49
-0.000110
  0
LTYPE
  2
HIDDEN
 70
    64
  3
 _ _ _ _ _ _ _ _ _ _ _ _ _ _ _ _ _ _ _ _ _ _
 72
    65
 73
     2
 40
0.000165
 49
0.000110
 49
-0.000055
  0
LTYPE
  2
CENTER
 70
    64
  3
____ _ ____ _ ____ _ ____ _ ____ _ ____ _ ____
 72
    65
 73
     4
 40
0.000880
 49
0.000550
 49
-0.000110
 49
0.000110
 49
-0.000110
  0
LTYPE
  2
PHANTOM
 70
    64
  3
_____ _ _ _____ _ _ _____ _ _ _____ _ _ ____
 72
    65
 73
     6
 40
0.001100
 49
0.000550
 49
-0.000110
 49
0.000110
 49
-0.000110
 49
0.000110
 49
-0.000110
  0
LTYPE
  2
DOT
 70
    64
  3
...............................................
 72
    65
 73
     2
 40
0.000110
 49
0.000000
 49
-0.000110
  0
LTYPE
  2
DASHDOT
 70
    64
  3
__ . __ . __ . __ . __ . __ . __ . __ . __ . __
 72
    65
 73
     4
 40
0.000440
 49
0.000220
 49
-0.000110
 49
0.000000
 49
-0.000110
  0
LTYPE
  2
BORDER
 70
    64
  3
__ __ . __ __ . __ __ . __ __ . __ __ . __ __
 72
    65
 73
     6
 40
0.000770
 49
0.000220
 49
-0.000110
 49
0.000220
 49
-0.000110
 49
0.000000
 49
-0.000110
  0
LTYPE
  2
DIVIDE
 70
    64
  3
__ . . __ . . __ . . __ . . __ . . __ . . __
 72
    65
 73
     6
 40
0.000550
 49
0.000220
 49
-0.000110
 49
0.000000
 49
-0.000110
 49
0.000000
 49
-0.000110
  0
LTYPE
  2
DOTDOT
 70
    64
  3
 . .  . .  . .  . .  . .  . . 
 72
    65
 73
     5
 40
0.000242
 49
-0.000110
 49
0.000000
 49
-0.000110
 49
0.000000
 49
-0.000110
  0
ENDTAB
  0
TABLE
  2
STYLE
 70
     2
  0
STYLE
 70
     0
  2
SN0
 40
0.000000
 41
0.000440
 50
0.000000
 71
     0
 42
0.000000
  3
ROMAND
  0
STYLE
 70
    68
  2
SV0
 40
0.000000
 41
0.000440
 50
0.000000
 71
     0
 42
0.000000
  3
ROMAND
  0
ENDTAB
  0
TABLE
  2
LAYER
 70
     3
  0
LAYER
  2
FOREGROUND
 70
    64
 62
     7
  6
CONTINUOUS
  0
LAYER
  2
BACKGROUND
 70
    65
 62
    -7
  6
CONTINUOUS
  0
LAYER
  2
0
 70
    64
 62
     7
  6
CONTINUOUS
  0
ENDTAB
  0
ENDSEC
  0
SECTION
  2
ENTITIES
  0
POLYLINE
  8
FOREGROUND
  6
CONTINUOUS
 66
     1
 40
0.000000
 41
0.000000
  0
VERTEX
  8
FOREGROUND
  6
CONTINUOUS
 10
0.000000
 20
4.417160
  0
VERTEX
  8
FOREGROUND
  6
CONTINUOUS
 10
8.499920
 20
4.417160
  0
VERTEX
  8
FOREGROUND
  6
CONTINUOUS
 10
8.499920
 20
-6.582840
  0
VERTEX
  8
FOREGROUND
  6
CONTINUOUS
 10
0.000000
 20
-6.582840
  0
VERTEX
  8
FOREGROUND
  6
CONTINUOUS
 10
0.000000
 20
4.417160
  0
SEQEND
  8
0
  0
POLYLINE
  8
FOREGROUND
  6
CONTINUOUS
 66
     1
 40
0.000000
 41
0.000000
  0
VERTEX
  8
FOREGROUND
  6
CONTINUOUS
 10
0.000000
 20
4.417160
  0
VERTEX
  8
FOREGROUND
  6
CONTINUOUS
 10
8.499920
 20
4.417160
  0
VERTEX
  8
FOREGROUND
  6
CONTINUOUS
 10
8.499920
 20
-6.582840
  0
VERTEX
  8
FOREGROUND
  6
CONTINUOUS
 10
0.000000
 20
-6.582840
  0
VERTEX
  8
FOREGROUND
  6
CONTINUOUS
 10
0.000000
 20
4.417160
  0
SEQEND
  8
0
  0
SOLID
  8
0
 62
    15
 10
5.962880
 20
1.542200
 11
5.965960
 21
2.286680
 12
5.998520
 22
1.533840
 13
6.001600
 23
2.278320
  0
POLYLINE
  8
0
  6
CONTINUOUS
 66
     1
 40
0.000000
 41
0.000000
  0
VERTEX
  8
0
  6
CONTINUOUS
 10
5.962880
 20
1.542200
  0
VERTEX
  8
0
  6
CONTINUOUS
 10
5.965960
 20
2.286680
  0
VERTEX
  8
0
  6
CONTINUOUS
 10
6.001600
 20
2.278320
  0
VERTEX
  8
0
  6
CONTINUOUS
 10
5.998520
 20
1.533840
  0
VERTEX
  8
0
  6
CONTINUOUS
 10
5.962880
 20
1.542200
  0
SEQEND
  8
0
  0
SOLID
  8
0
 62
    15
 10
5.176600
 20
1.879680
 11
5.179680
 21
2.624160
 12
5.198600
 22
1.727440
 13
5.201680
 23
2.471480
  0
POLYLINE
  8
0
  6
CONTINUOUS
 66
     1
 40
0.000000
 41
0.000000
  0
VERTEX
  8
0
  6
CONTINUOUS
 10
5.176600
 20
1.879680
  0
VERTEX
  8
0
  6
CONTINUOUS
 10
5.179680
 20
2.624160
  0
VERTEX
  8
0
  6
CONTINUOUS
 10
5.201680
 20
2.471480
  0
VERTEX
  8
0
  6
CONTINUOUS
 10
5.198600
 20
1.727440
  0
VERTEX
  8
0
  6
CONTINUOUS
 10
5.176600
 20
1.879680
  0
SEQEND
  8
0
  0
SOLID
  8
0
 62
    15
 10
5.198600
 20
1.727440
 11
5.201680
 21
2.471480
 12
5.251400
 22
1.727440
 13
5.254480
 23
2.471480
  0
POLYLINE
  8
0
  6
CONTINUOUS
 66
     1
 40
0.000000
 41
0.000000
  0
VERTEX
  8
0
  6
CONTINUOUS
 10
5.198600
 20
1.727440
  0
VERTEX
  8
0
  6
CONTINUOUS
 10
5.201680
 20
2.471480
  0
VERTEX
  8
0
  6
CONTINUOUS
 10
5.254480
 20
2.471480
  0
VERTEX
  8
0
  6
CONTINUOUS
 10
5.251400
 20
1.727440
  0
VERTEX
  8
0
  6
CONTINUOUS
 10
5.198600
 20
1.727440
  0
SEQEND
  8
0
  0
SOLID
  8
0
 62
    15
 10
5.251400
 20
1.727440
 11
5.254480
 21
2.471480
 12
5.268120
 22
1.770120
 13
5.271200
 23
2.514600
  0
POLYLINE
  8
0
  6
CONTINUOUS
 66
     1
 40
0.000000
 41
0.000000
  0
VERTEX
  8
0
  6
CONTINUOUS
 10
5.251400
 20
1.727440
  0
VERTEX
  8
0
  6
CONTINUOUS
 10
5.254480
 20
2.471480
  0
VERTEX
  8
0
  6
CONTINUOUS
 10
5.271200
 20
2.514600
  0
VERTEX
  8
0
  6
CONTINUOUS
 10
5.268120
 20
1.770120
  0
VERTEX
  8
0
  6
CONTINUOUS
 10
5.251400
 20
1.727440
  0
SEQEND
  8
0
  0
SOLID
  8
0
 62
    15
 10
5.268120
 20
1.770120
 11
5.271200
 21
2.514600
 12
5.290560
 22
1.805760
 13
5.293640
 23
2.550240
  0
POLYLINE
  8
0
  6
CONTINUOUS
 66
     1
 40
0.000000
 41
0.000000
  0
VERTEX
  8
0
  6
CONTINUOUS
 10
5.268120
 20
1.770120
  0
VERTEX
  8
0
  6
CONTINUOUS
 10
5.271200
 20
2.514600
  0
VERTEX
  8
0
  6
CONTINUOUS
 10
5.293640
 20
2.550240
  0
VERTEX
  8
0
  6
CONTINUOUS
 10
5.290560
 20
1.805760
  0
VERTEX
  8
0
  6
CONTINUOUS
 10
5.268120
 20
1.770120
  0
SEQEND
  8
0
  0
SOLID
  8
0
 62
    15
 10
5.290560
 20
1.805760
 11
5.293640
 21
2.550240
 12
5.318280
 22
1.834360
 13
5.321360
 23
2.578400
  0
POLYLINE
  8
0
  6
CONTINUOUS
 66
     1
 40
0.000000
 41
0.000000
  0
VERTEX
  8
0
  6
CONTINUOUS
 10
5.290560
 20
1.805760
  0
VERTEX
  8
0
  6
CONTINUOUS
 10
5.293640
 20
2.550240
  0
VERTEX
  8
0
  6
CONTINUOUS
 10
5.321360
 20
2.578400
  0
VERTEX
  8
0
  6
CONTINUOUS
 10
5.318280
 20
1.834360
  0
VERTEX
  8
0
  6
CONTINUOUS
 10
5.290560
 20
1.805760
  0
SEQEND
  8
0
  0
SOLID
  8
0
 62
    15
 10
5.318280
 20
1.834360
 11
5.321360
 21
2.578400
 12
5.349960
 22
1.855920
 13
5.353040
 23
2.599960
  0
POLYLINE
  8
0
  6
CONTINUOUS
 66
     1
 40
0.000000
 41
0.000000
  0
VERTEX
  8
0
  6
CONTINUOUS
 10
5.318280
 20
1.834360
  0
VERTEX
  8
0
  6
CONTINUOUS
 10
5.321360
 20
2.578400
  0
VERTEX
  8
0
  6
CONTINUOUS
 10
5.353040
 20
2.599960
  0
VERTEX
  8
0
  6
CONTINUOUS
 10
5.349960
 20
1.855920
  0
VERTEX
  8
0
  6
CONTINUOUS
 10
5.318280
 20
1.834360
  0
SEQEND
  8
0
  0
SOLID
  8
0
 62
    15
 10
5.349960
 20
1.855920
 11
5.353040
 21
2.599960
 12
5.385160
 22
1.870440
 13
5.388240
 23
2.614920
  0
POLYLINE
  8
0
  6
CONTINUOUS
 66
     1
 40
0.000000
 41
0.000000
  0
VERTEX
  8
0
  6
CONTINUOUS
 10
5.349960
 20
1.855920
  0
VERTEX
  8
0
  6
CONTINUOUS
 10
5.353040
 20
2.599960
  0
VERTEX
  8
0
  6
CONTINUOUS
 10
5.388240
 20
2.614920
  0
VERTEX
  8
0
  6
CONTINUOUS
 10
5.385160
 20
1.870440
  0
VERTEX
  8
0
  6
CONTINUOUS
 10
5.349960
 20
1.855920
  0
SEQEND
  8
0
  0
SOLID
  8
0
 62
    15
 10
5.385160
 20
1.870440
 11
5.388240
 21
2.614920
 12
5.422560
 22
1.878360
 13
5.425640
 23
2.622840
  0
POLYLINE
  8
0
  6
CONTINUOUS
 66
     1
 40
0.000000
 41
0.000000
  0
VERTEX
  8
0
  6
CONTINUOUS
 10
5.385160
 20
1.870440
  0
VERTEX
  8
0
  6
CONTINUOUS
 10
5.388240
 20
2.614920
  0
VERTEX
  8
0
  6
CONTINUOUS
 10
5.425640
 20
2.622840
  0
VERTEX
  8
0
  6
CONTINUOUS
 10
5.422560
 20
1.878360
  0
VERTEX
  8
0
  6
CONTINUOUS
 10
5.385160
 20
1.870440
  0
SEQEND
  8
0
  0
SOLID
  8
0
 62
    15
 10
5.422560
 20
1.878360
 11
5.425640
 21
2.622840
 12
5.461280
 22
1.880120
 13
5.464360
 23
2.624600
  0
POLYLINE
  8
0
  6
CONTINUOUS
 66
     1
 40
0.000000
 41
0.000000
  0
VERTEX
  8
0
  6
CONTINUOUS
 10
5.422560
 20
1.878360
  0
VERTEX
  8
0
  6
CONTINUOUS
 10
5.425640
 20
2.622840
  0
VERTEX
  8
0
  6
CONTINUOUS
 10
5.464360
 20
2.624600
  0
VERTEX
  8
0
  6
CONTINUOUS
 10
5.461280
 20
1.880120
  0
VERTEX
  8
0
  6
CONTINUOUS
 10
5.422560
 20
1.878360
  0
SEQEND
  8
0
  0
SOLID
  8
0
 62
    15
 10
5.461280
 20
1.880120
 11
5.464360
 21
2.624600
 12
5.500440
 22
1.875720
 13
5.503520
 23
2.620200
  0
POLYLINE
  8
0
  6
CONTINUOUS
 66
     1
 40
0.000000
 41
0.000000
  0
VERTEX
  8
0
  6
CONTINUOUS
 10
5.461280
 20
1.880120
  0
VERTEX
  8
0
  6
CONTINUOUS
 10
5.464360
 20
2.624600
  0
VERTEX
  8
0
  6
CONTINUOUS
 10
5.503520
 20
2.620200
  0
VERTEX
  8
0
  6
CONTINUOUS
 10
5.500440
 20
1.875720
  0
VERTEX
  8
0
  6
CONTINUOUS
 10
5.461280
 20
1.880120
  0
SEQEND
  8
0
  0
SOLID
  8
0
 62
    15
 10
5.500440
 20
1.875720
 11
5.503520
 21
2.620200
 12
5.539160
 22
1.865160
 13
5.542240
 23
2.609640
  0
POLYLINE
  8
0
  6
CONTINUOUS
 66
     1
 40
0.000000
 41
0.000000
  0
VERTEX
  8
0
  6
CONTINUOUS
 10
5.500440
 20
1.875720
  0
VERTEX
  8
0
  6
CONTINUOUS
 10
5.503520
 20
2.620200
  0
VERTEX
  8
0
  6
CONTINUOUS
 10
5.542240
 20
2.609640
  0
VERTEX
  8
0
  6
CONTINUOUS
 10
5.539160
 20
1.865160
  0
VERTEX
  8
0
  6
CONTINUOUS
 10
5.500440
 20
1.875720
  0
SEQEND
  8
0
  0
SOLID
  8
0
 62
    15
 10
5.539160
 20
1.865160
 11
5.542240
 21
2.609640
 12
5.577000
 22
1.848880
 13
5.580080
 23
2.592920
  0
POLYLINE
  8
0
  6
CONTINUOUS
 66
     1
 40
0.000000
 41
0.000000
  0
VERTEX
  8
0
  6
CONTINUOUS
 10
5.539160
 20
1.865160
  0
VERTEX
  8
0
  6
CONTINUOUS
 10
5.542240
 20
2.609640
  0
VERTEX
  8
0
  6
CONTINUOUS
 10
5.580080
 20
2.592920
  0
VERTEX
  8
0
  6
CONTINUOUS
 10
5.577000
 20
1.848880
  0
VERTEX
  8
0
  6
CONTINUOUS
 10
5.539160
 20
1.865160
  0
SEQEND
  8
0
  0
SOLID
  8
0
 62
    15
 10
5.577000
 20
1.848880
 11
5.580080
 21
2.592920
 12
5.612200
 22
1.826440
 13
5.615280
 23
2.570920
  0
POLYLINE
  8
0
  6
CONTINUOUS
 66
     1
 40
0.000000
 41
0.000000
  0
VERTEX
  8
0
  6
CONTINUOUS
 10
5.577000
 20
1.848880
  0
VERTEX
  8
0
  6
CONTINUOUS
 10
5.580080
 20
2.592920
  0
VERTEX
  8
0
  6
CONTINUOUS
 10
5.615280
 20
2.570920
  0
VERTEX
  8
0
  6
CONTINUOUS
 10
5.612200
 20
1.826440
  0
VERTEX
  8
0
  6
CONTINUOUS
 10
5.577000
 20
1.848880
  0
SEQEND
  8
0
  0
SOLID
  8
0
 62
    15
 10
5.612200
 20
1.826440
 11
5.615280
 21
2.570920
 12
5.644320
 22
1.799160
 13
5.647400
 23
2.543200
  0
POLYLINE
  8
0
  6
CONTINUOUS
 66
     1
 40
0.000000
 41
0.000000
  0
VERTEX
  8
0
  6
CONTINUOUS
 10
5.612200
 20
1.826440
  0
VERTEX
  8
0
  6
CONTINUOUS
 10
5.615280
 20
2.570920
  0
VERTEX
  8
0
  6
CONTINUOUS
 10
5.647400
 20
2.543200
  0
VERTEX
  8
0
  6
CONTINUOUS
 10
5.644320
 20
1.799160
  0
VERTEX
  8
0
  6
CONTINUOUS
 10
5.612200
 20
1.826440
  0
SEQEND
  8
0
  0
SOLID
  8
0
 62
    15
 10
5.644320
 20
1.799160
 11
5.647400
 21
2.543200
 12
5.672480
 22
1.766160
 13
5.675560
 23
2.510640
  0
POLYLINE
  8
0
  6
CONTINUOUS
 66
     1
 40
0.000000
 41
0.000000
  0
VERTEX
  8
0
  6
CONTINUOUS
 10
5.644320
 20
1.799160
  0
VERTEX
  8
0
  6
CONTINUOUS
 10
5.647400
 20
2.543200
  0
VERTEX
  8
0
  6
CONTINUOUS
 10
5.675560
 20
2.510640
  0
VERTEX
  8
0
  6
CONTINUOUS
 10
5.672480
 20
1.766160
  0
VERTEX
  8
0
  6
CONTINUOUS
 10
5.644320
 20
1.799160
  0
SEQEND
  8
0
  0
SOLID
  8
0
 62
    15
 10
5.672480
 20
1.766160
 11
5.675560
 21
2.510640
 12
5.695800
 22
1.727880
 13
5.698880
 23
2.472360
  0
POLYLINE
  8
0
  6
CONTINUOUS
 66
     1
 40
0.000000
 41
0.000000
  0
VERTEX
  8
0
  6
CONTINUOUS
 10
5.672480
 20
1.766160
  0
VERTEX
  8
0
  6
CONTINUOUS
 10
5.675560
 20
2.510640
  0
VERTEX
  8
0
  6
CONTINUOUS
 10
5.698880
 20
2.472360
  0
VERTEX
  8
0
  6
CONTINUOUS
 10
5.695800
 20
1.727880
  0
VERTEX
  8
0
  6
CONTINUOUS
 10
5.672480
 20
1.766160
  0
SEQEND
  8
0
  0
SOLID
  8
0
 62
    15
 10
5.695800
 20
1.727880
 11
5.698880
 21
2.472360
 12
5.713400
 22
1.684760
 13
5.716480
 23
2.429240
  0
POLYLINE
  8
0
  6
CONTINUOUS
 66
     1
 40
0.000000
 41
0.000000
  0
VERTEX
  8
0
  6
CONTINUOUS
 10
5.695800
 20
1.727880
  0
VERTEX
  8
0
  6
CONTINUOUS
 10
5.698880
 20
2.472360
  0
VERTEX
  8
0
  6
CONTINUOUS
 10
5.716480
 20
2.429240
  0
VERTEX
  8
0
  6
CONTINUOUS
 10
5.713400
 20
1.684760
  0
VERTEX
  8
0
  6
CONTINUOUS
 10
5.695800
 20
1.727880
  0
SEQEND
  8
0
  0
SOLID
  8
0
 62
    15
 10
5.713400
 20
1.684760
 11
5.716480
 21
2.429240
 12
5.723960
 22
1.637240
 13
5.727040
 23
2.381280
  0
POLYLINE
  8
0
  6
CONTINUOUS
 66
     1
 40
0.000000
 41
0.000000
  0
VERTEX
  8
0
  6
CONTINUOUS
 10
5.713400
 20
1.684760
  0
VERTEX
  8
0
  6
CONTINUOUS
 10
5.716480
 20
2.429240
  0
VERTEX
  8
0
  6
CONTINUOUS
 10
5.727040
 20
2.381280
  0
VERTEX
  8
0
  6
CONTINUOUS
 10
5.723960
 20
1.637240
  0
VERTEX
  8
0
  6
CONTINUOUS
 10
5.713400
 20
1.684760
  0
SEQEND
  8
0
  0
SOLID
  8
0
 62
    15
 10
5.723960
 20
1.637240
 11
5.727040
 21
2.381280
 12
5.854640
 22
1.637240
 13
5.857720
 23
2.381280
  0
POLYLINE
  8
0
  6
CONTINUOUS
 66
     1
 40
0.000000
 41
0.000000
  0
VERTEX
  8
0
  6
CONTINUOUS
 10
5.723960
 20
1.637240
  0
VERTEX
  8
0
  6
CONTINUOUS
 10
5.727040
 20
2.381280
  0
VERTEX
  8
0
  6
CONTINUOUS
 10
5.857720
 20
2.381280
  0
VERTEX
  8
0
  6
CONTINUOUS
 10
5.854640
 20
1.637240
  0
VERTEX
  8
0
  6
CONTINUOUS
 10
5.723960
 20
1.637240
  0
SEQEND
  8
0
  0
SOLID
  8
0
 62
    15
 10
5.854640
 20
1.637240
 11
5.857720
 21
2.381280
 12
5.865200
 22
1.610840
 13
5.868280
 23
2.355320
  0
POLYLINE
  8
0
  6
CONTINUOUS
 66
     1
 40
0.000000
 41
0.000000
  0
VERTEX
  8
0
  6
CONTINUOUS
 10
5.854640
 20
1.637240
  0
VERTEX
  8
0
  6
CONTINUOUS
 10
5.857720
 20
2.381280
  0
VERTEX
  8
0
  6
CONTINUOUS
 10
5.868280
 20
2.355320
  0
VERTEX
  8
0
  6
CONTINUOUS
 10
5.865200
 20
1.610840
  0
VERTEX
  8
0
  6
CONTINUOUS
 10
5.854640
 20
1.637240
  0
SEQEND
  8
0
  0
SOLID
  8
0
 62
    15
 10
5.865200
 20
1.610840
 11
5.868280
 21
2.355320
 12
5.881920
 22
1.588400
 13
5.885000
 23
2.332440
  0
POLYLINE
  8
0
  6
CONTINUOUS
 66
     1
 40
0.000000
 41
0.000000
  0
VERTEX
  8
0
  6
CONTINUOUS
 10
5.865200
 20
1.610840
  0
VERTEX
  8
0
  6
CONTINUOUS
 10
5.868280
 20
2.355320
  0
VERTEX
  8
0
  6
CONTINUOUS
 10
5.885000
 20
2.332440
  0
VERTEX
  8
0
  6
CONTINUOUS
 10
5.881920
 20
1.588400
  0
VERTEX
  8
0
  6
CONTINUOUS
 10
5.865200
 20
1.610840
  0
SEQEND
  8
0
  0
SOLID
  8
0
 62
    15
 10
5.881920
 20
1.588400
 11
5.885000
 21
2.332440
 12
5.903920
 22
1.569480
 13
5.907440
 23
2.313520
  0
POLYLINE
  8
0
  6
CONTINUOUS
 66
     1
 40
0.000000
 41
0.000000
  0
VERTEX
  8
0
  6
CONTINUOUS
 10
5.881920
 20
1.588400
  0
VERTEX
  8
0
  6
CONTINUOUS
 10
5.885000
 20
2.332440
  0
VERTEX
  8
0
  6
CONTINUOUS
 10
5.907440
 20
2.313520
  0
VERTEX
  8
0
  6
CONTINUOUS
 10
5.903920
 20
1.569480
  0
VERTEX
  8
0
  6
CONTINUOUS
 10
5.881920
 20
1.588400
  0
SEQEND
  8
0
  0
SOLID
  8
0
 62
    15
 10
5.903920
 20
1.569480
 11
5.907440
 21
2.313520
 12
5.931200
 22
1.554080
 13
5.934280
 23
2.298560
  0
POLYLINE
  8
0
  6
CONTINUOUS
 66
     1
 40
0.000000
 41
0.000000
  0
VERTEX
  8
0
  6
CONTINUOUS
 10
5.903920
 20
1.569480
  0
VERTEX
  8
0
  6
CONTINUOUS
 10
5.907440
 20
2.313520
  0
VERTEX
  8
0
  6
CONTINUOUS
 10
5.934280
 20
2.298560
  0
VERTEX
  8
0
  6
CONTINUOUS
 10
5.931200
 20
1.554080
  0
VERTEX
  8
0
  6
CONTINUOUS
 10
5.903920
 20
1.569480
  0
SEQEND
  8
0
  0
SOLID
  8
0
 62
    15
 10
5.931200
 20
1.554080
 11
5.934280
 21
2.298560
 12
5.962880
 22
1.542200
 13
5.965960
 23
2.286680
  0
POLYLINE
  8
0
  6
CONTINUOUS
 66
     1
 40
0.000000
 41
0.000000
  0
VERTEX
  8
0
  6
CONTINUOUS
 10
5.931200
 20
1.554080
  0
VERTEX
  8
0
  6
CONTINUOUS
 10
5.934280
 20
2.298560
  0
VERTEX
  8
0
  6
CONTINUOUS
 10
5.965960
 20
2.286680
  0
VERTEX
  8
0
  6
CONTINUOUS
 10
5.962880
 20
1.542200
  0
VERTEX
  8
0
  6
CONTINUOUS
 10
5.931200
 20
1.554080
  0
SEQEND
  8
0
  0
SOLID
  8
0
 62
    15
 10
4.778840
 20
1.879680
 11
4.781920
 21
2.624160
 12
5.176600
 22
1.879680
 13
5.179680
 23
2.624160
  0
POLYLINE
  8
0
  6
CONTINUOUS
 66
     1
 40
0.000000
 41
0.000000
  0
VERTEX
  8
0
  6
CONTINUOUS
 10
4.778840
 20
1.879680
  0
VERTEX
  8
0
  6
CONTINUOUS
 10
4.781920
 20
2.624160
  0
VERTEX
  8
0
  6
CONTINUOUS
 10
5.179680
 20
2.624160
  0
VERTEX
  8
0
  6
CONTINUOUS
 10
5.176600
 20
1.879680
  0
VERTEX
  8
0
  6
CONTINUOUS
 10
4.778840
 20
1.879680
  0
SEQEND
  8
0
  0
SOLID
  8
0
 62
    15
 10
5.998520
 20
1.533840
 11
6.001600
 21
2.278320
 12
6.037240
 22
1.529000
 13
6.040320
 23
2.273480
  0
POLYLINE
  8
0
  6
CONTINUOUS
 66
     1
 40
0.000000
 41
0.000000
  0
VERTEX
  8
0
  6
CONTINUOUS
 10
5.998520
 20
1.533840
  0
VERTEX
  8
0
  6
CONTINUOUS
 10
6.001600
 20
2.278320
  0
VERTEX
  8
0
  6
CONTINUOUS
 10
6.040320
 20
2.273480
  0
VERTEX
  8
0
  6
CONTINUOUS
 10
6.037240
 20
1.529000
  0
VERTEX
  8
0
  6
CONTINUOUS
 10
5.998520
 20
1.533840
  0
SEQEND
  8
0
  0
SOLID
  8
0
 62
    15
 10
6.037240
 20
1.529000
 11
6.040320
 21
2.273480
 12
6.079040
 22
1.527680
 13
6.082120
 23
2.271720
  0
POLYLINE
  8
0
  6
CONTINUOUS
 66
     1
 40
0.000000
 41
0.000000
  0
VERTEX
  8
0
  6
CONTINUOUS
 10
6.037240
 20
1.529000
  0
VERTEX
  8
0
  6
CONTINUOUS
 10
6.040320
 20
2.273480
  0
VERTEX
  8
0
  6
CONTINUOUS
 10
6.082120
 20
2.271720
  0
VERTEX
  8
0
  6
CONTINUOUS
 10
6.079040
 20
1.527680
  0
VERTEX
  8
0
  6
CONTINUOUS
 10
6.037240
 20
1.529000
  0
SEQEND
  8
0
  0
SOLID
  8
0
 62
    15
 10
6.079040
 20
1.527680
 11
6.082120
 21
2.271720
 12
6.099280
 22
1.452880
 13
6.102360
 23
2.197360
  0
POLYLINE
  8
0
  6
CONTINUOUS
 66
     1
 40
0.000000
 41
0.000000
  0
VERTEX
  8
0
  6
CONTINUOUS
 10
6.079040
 20
1.527680
  0
VERTEX
  8
0
  6
CONTINUOUS
 10
6.082120
 20
2.271720
  0
VERTEX
  8
0
  6
CONTINUOUS
 10
6.102360
 20
2.197360
  0
VERTEX
  8
0
  6
CONTINUOUS
 10
6.099280
 20
1.452880
  0
VERTEX
  8
0
  6
CONTINUOUS
 10
6.079040
 20
1.527680
  0
SEQEND
  8
0
  0
SOLID
  8
0
 62
    15
 10
7.695160
 20
1.331440
 11
7.698240
 21
2.075920
 12
7.738720
 22
1.331440
 13
7.741800
 23
2.075920
  0
POLYLINE
  8
0
  6
CONTINUOUS
 66
     1
 40
0.000000
 41
0.000000
  0
VERTEX
  8
0
  6
CONTINUOUS
 10
7.695160
 20
1.331440
  0
VERTEX
  8
0
  6
CONTINUOUS
 10
7.698240
 20
2.075920
  0
VERTEX
  8
0
  6
CONTINUOUS
 10
7.741800
 20
2.075920
  0
VERTEX
  8
0
  6
CONTINUOUS
 10
7.738720
 20
1.331440
  0
VERTEX
  8
0
  6
CONTINUOUS
 10
7.695160
 20
1.331440
  0
SEQEND
  8
0
  0
SOLID
  8
0
 62
    15
 10
7.673600
 20
1.459040
 11
7.676680
 21
2.203520
 12
7.695160
 22
1.331440
 13
7.698240
 23
2.075920
  0
POLYLINE
  8
0
  6
CONTINUOUS
 66
     1
 40
0.000000
 41
0.000000
  0
VERTEX
  8
0
  6
CONTINUOUS
 10
7.673600
 20
1.459040
  0
VERTEX
  8
0
  6
CONTINUOUS
 10
7.676680
 20
2.203520
  0
VERTEX
  8
0
  6
CONTINUOUS
 10
7.698240
 20
2.075920
  0
VERTEX
  8
0
  6
CONTINUOUS
 10
7.695160
 20
1.331440
  0
VERTEX
  8
0
  6
CONTINUOUS
 10
7.673600
 20
1.459040
  0
SEQEND
  8
0
  0
SOLID
  8
0
 62
    15
 10
6.099280
 20
1.452880
 11
6.102360
 21
2.197360
 12
7.673600
 22
1.459040
 13
7.676680
 23
2.203520
  0
POLYLINE
  8
0
  6
CONTINUOUS
 66
     1
 40
0.000000
 41
0.000000
  0
VERTEX
  8
0
  6
CONTINUOUS
 10
6.099280
 20
1.452880
  0
VERTEX
  8
0
  6
CONTINUOUS
 10
6.102360
 20
2.197360
  0
VERTEX
  8
0
  6
CONTINUOUS
 10
7.676680
 20
2.203520
  0
VERTEX
  8
0
  6
CONTINUOUS
 10
7.673600
 20
1.459040
  0
VERTEX
  8
0
  6
CONTINUOUS
 10
6.099280
 20
1.452880
  0
SEQEND
  8
0
  0
SOLID
  8
0
 62
    15
 10
7.738720
 20
1.331440
 11
7.741800
 21
2.075920
 12
7.748400
 22
1.358280
 13
7.751480
 23
2.102760
  0
POLYLINE
  8
0
  6
CONTINUOUS
 66
     1
 40
0.000000
 41
0.000000
  0
VERTEX
  8
0
  6
CONTINUOUS
 10
7.738720
 20
1.331440
  0
VERTEX
  8
0
  6
CONTINUOUS
 10
7.741800
 20
2.075920
  0
VERTEX
  8
0
  6
CONTINUOUS
 10
7.751480
 20
2.102760
  0
VERTEX
  8
0
  6
CONTINUOUS
 10
7.748400
 20
1.358280
  0
VERTEX
  8
0
  6
CONTINUOUS
 10
7.738720
 20
1.331440
  0
SEQEND
  8
0
  0
SOLID
  8
0
 62
    15
 10
7.748400
 20
1.358280
 11
7.751480
 21
2.102760
 12
7.762040
 22
1.381600
 13
7.765120
 23
2.126080
  0
POLYLINE
  8
0
  6
CONTINUOUS
 66
     1
 40
0.000000
 41
0.000000
  0
VERTEX
  8
0
  6
CONTINUOUS
 10
7.748400
 20
1.358280
  0
VERTEX
  8
0
  6
CONTINUOUS
 10
7.751480
 20
2.102760
  0
VERTEX
  8
0
  6
CONTINUOUS
 10
7.765120
 20
2.126080
  0
VERTEX
  8
0
  6
CONTINUOUS
 10
7.762040
 20
1.381600
  0
VERTEX
  8
0
  6
CONTINUOUS
 10
7.748400
 20
1.358280
  0
SEQEND
  8
0
  0
SOLID
  8
0
 62
    15
 10
7.762040
 20
1.381600
 11
7.765120
 21
2.126080
 12
7.779640
 22
1.401840
 13
7.783160
 23
2.146320
  0
POLYLINE
  8
0
  6
CONTINUOUS
 66
     1
 40
0.000000
 41
0.000000
  0
VERTEX
  8
0
  6
CONTINUOUS
 10
7.762040
 20
1.381600
  0
VERTEX
  8
0
  6
CONTINUOUS
 10
7.765120
 20
2.126080
  0
VERTEX
  8
0
  6
CONTINUOUS
 10
7.783160
 20
2.146320
  0
VERTEX
  8
0
  6
CONTINUOUS
 10
7.779640
 20
1.401840
  0
VERTEX
  8
0
  6
CONTINUOUS
 10
7.762040
 20
1.381600
  0
SEQEND
  8
0
  0
SOLID
  8
0
 62
    15
 10
7.779640
 20
1.401840
 11
7.783160
 21
2.146320
 12
7.800760
 22
1.418560
 13
7.803840
 23
2.162600
  0
POLYLINE
  8
0
  6
CONTINUOUS
 66
     1
 40
0.000000
 41
0.000000
  0
VERTEX
  8
0
  6
CONTINUOUS
 10
7.779640
 20
1.401840
  0
VERTEX
  8
0
  6
CONTINUOUS
 10
7.783160
 20
2.146320
  0
VERTEX
  8
0
  6
CONTINUOUS
 10
7.803840
 20
2.162600
  0
VERTEX
  8
0
  6
CONTINUOUS
 10
7.800760
 20
1.418560
  0
VERTEX
  8
0
  6
CONTINUOUS
 10
7.779640
 20
1.401840
  0
SEQEND
  8
0
  0
SOLID
  8
0
 62
    15
 10
7.800760
 20
1.418560
 11
7.803840
 21
2.162600
 12
7.823640
 22
1.430880
 13
7.826720
 23
2.175360
  0
POLYLINE
  8
0
  6
CONTINUOUS
 66
     1
 40
0.000000
 41
0.000000
  0
VERTEX
  8
0
  6
CONTINUOUS
 10
7.800760
 20
1.418560
  0
VERTEX
  8
0
  6
CONTINUOUS
 10
7.803840
 20
2.162600
  0
VERTEX
  8
0
  6
CONTINUOUS
 10
7.826720
 20
2.175360
  0
VERTEX
  8
0
  6
CONTINUOUS
 10
7.823640
 20
1.430880
  0
VERTEX
  8
0
  6
CONTINUOUS
 10
7.800760
 20
1.418560
  0
SEQEND
  8
0
  0
SOLID
  8
0
 62
    15
 10
7.823640
 20
1.430880
 11
7.826720
 21
2.175360
 12
7.848720
 22
1.439240
 13
7.851800
 23
2.183720
  0
POLYLINE
  8
0
  6
CONTINUOUS
 66
     1
 40
0.000000
 41
0.000000
  0
VERTEX
  8
0
  6
CONTINUOUS
 10
7.823640
 20
1.430880
  0
VERTEX
  8
0
  6
CONTINUOUS
 10
7.826720
 20
2.175360
  0
VERTEX
  8
0
  6
CONTINUOUS
 10
7.851800
 20
2.183720
  0
VERTEX
  8
0
  6
CONTINUOUS
 10
7.848720
 20
1.439240
  0
VERTEX
  8
0
  6
CONTINUOUS
 10
7.823640
 20
1.430880
  0
SEQEND
  8
0
  0
SOLID
  8
0
 62
    15
 10
7.848720
 20
1.439240
 11
7.851800
 21
2.183720
 12
7.874240
 22
1.443200
 13
7.877320
 23
2.187680
  0
POLYLINE
  8
0
  6
CONTINUOUS
 66
     1
 40
0.000000
 41
0.000000
  0
VERTEX
  8
0
  6
CONTINUOUS
 10
7.848720
 20
1.439240
  0
VERTEX
  8
0
  6
CONTINUOUS
 10
7.851800
 20
2.183720
  0
VERTEX
  8
0
  6
CONTINUOUS
 10
7.877320
 20
2.187680
  0
VERTEX
  8
0
  6
CONTINUOUS
 10
7.874240
 20
1.443200
  0
VERTEX
  8
0
  6
CONTINUOUS
 10
7.848720
 20
1.439240
  0
SEQEND
  8
0
  0
SOLID
  8
0
 62
    15
 10
7.874240
 20
1.443200
 11
7.877320
 21
2.187680
 12
7.900640
 22
1.442320
 13
7.903720
 23
2.186800
  0
POLYLINE
  8
0
  6
CONTINUOUS
 66
     1
 40
0.000000
 41
0.000000
  0
VERTEX
  8
0
  6
CONTINUOUS
 10
7.874240
 20
1.443200
  0
VERTEX
  8
0
  6
CONTINUOUS
 10
7.877320
 20
2.187680
  0
VERTEX
  8
0
  6
CONTINUOUS
 10
7.903720
 20
2.186800
  0
VERTEX
  8
0
  6
CONTINUOUS
 10
7.900640
 20
1.442320
  0
VERTEX
  8
0
  6
CONTINUOUS
 10
7.874240
 20
1.443200
  0
SEQEND
  8
0
  0
SOLID
  8
0
 62
    15
 10
7.900640
 20
1.442320
 11
7.903720
 21
2.186800
 12
7.926160
 22
1.436600
 13
7.929240
 23
2.181080
  0
POLYLINE
  8
0
  6
CONTINUOUS
 66
     1
 40
0.000000
 41
0.000000
  0
VERTEX
  8
0
  6
CONTINUOUS
 10
7.900640
 20
1.442320
  0
VERTEX
  8
0
  6
CONTINUOUS
 10
7.903720
 20
2.186800
  0
VERTEX
  8
0
  6
CONTINUOUS
 10
7.929240
 20
2.181080
  0
VERTEX
  8
0
  6
CONTINUOUS
 10
7.926160
 20
1.436600
  0
VERTEX
  8
0
  6
CONTINUOUS
 10
7.900640
 20
1.442320
  0
SEQEND
  8
0
  0
SOLID
  8
0
 62
    15
 10
7.926160
 20
1.436600
 11
7.929240
 21
2.181080
 12
7.950360
 22
1.425160
 13
7.953440
 23
2.169640
  0
POLYLINE
  8
0
  6
CONTINUOUS
 66
     1
 40
0.000000
 41
0.000000
  0
VERTEX
  8
0
  6
CONTINUOUS
 10
7.926160
 20
1.436600
  0
VERTEX
  8
0
  6
CONTINUOUS
 10
7.929240
 20
2.181080
  0
VERTEX
  8
0
  6
CONTINUOUS
 10
7.953440
 20
2.169640
  0
VERTEX
  8
0
  6
CONTINUOUS
 10
7.950360
 20
1.425160
  0
VERTEX
  8
0
  6
CONTINUOUS
 10
7.926160
 20
1.436600
  0
SEQEND
  8
0
  0
SOLID
  8
0
 62
    15
 10
7.950360
 20
1.425160
 11
7.953440
 21
2.169640
 12
7.973240
 22
1.408440
 13
7.976320
 23
2.152920
  0
POLYLINE
  8
0
  6
CONTINUOUS
 66
     1
 40
0.000000
 41
0.000000
  0
VERTEX
  8
0
  6
CONTINUOUS
 10
7.950360
 20
1.425160
  0
VERTEX
  8
0
  6
CONTINUOUS
 10
7.953440
 20
2.169640
  0
VERTEX
  8
0
  6
CONTINUOUS
 10
7.976320
 20
2.152920
  0
VERTEX
  8
0
  6
CONTINUOUS
 10
7.973240
 20
1.408440
  0
VERTEX
  8
0
  6
CONTINUOUS
 10
7.950360
 20
1.425160
  0
SEQEND
  8
0
  0
SOLID
  8
0
 62
    15
 10
7.973240
 20
1.408440
 11
7.976320
 21
2.152920
 12
7.993040
 22
1.385560
 13
7.996560
 23
2.130040
  0
POLYLINE
  8
0
  6
CONTINUOUS
 66
     1
 40
0.000000
 41
0.000000
  0
VERTEX
  8
0
  6
CONTINUOUS
 10
7.973240
 20
1.408440
  0
VERTEX
  8
0
  6
CONTINUOUS
 10
7.976320
 20
2.152920
  0
VERTEX
  8
0
  6
CONTINUOUS
 10
7.996560
 20
2.130040
  0
VERTEX
  8
0
  6
CONTINUOUS
 10
7.993040
 20
1.385560
  0
VERTEX
  8
0
  6
CONTINUOUS
 10
7.973240
 20
1.408440
  0
SEQEND
  8
0
  0
SOLID
  8
0
 62
    15
 10
7.993040
 20
1.385560
 11
7.996560
 21
2.130040
 12
8.010200
 22
1.356520
 13
8.013280
 23
2.101000
  0
POLYLINE
  8
0
  6
CONTINUOUS
 66
     1
 40
0.000000
 41
0.000000
  0
VERTEX
  8
0
  6
CONTINUOUS
 10
7.993040
 20
1.385560
  0
VERTEX
  8
0
  6
CONTINUOUS
 10
7.996560
 20
2.130040
  0
VERTEX
  8
0
  6
CONTINUOUS
 10
8.013280
 20
2.101000
  0
VERTEX
  8
0
  6
CONTINUOUS
 10
8.010200
 20
1.356520
  0
VERTEX
  8
0
  6
CONTINUOUS
 10
7.993040
 20
1.385560
  0
SEQEND
  8
0
  0
SOLID
  8
0
 62
    15
 10
8.022960
 20
1.320880
 11
8.026040
 21
2.065360
 12
8.031320
 22
1.278640
 13
8.034400
 23
2.023120
  0
POLYLINE
  8
0
  6
CONTINUOUS
 66
     1
 40
0.000000
 41
0.000000
  0
VERTEX
  8
0
  6
CONTINUOUS
 10
8.022960
 20
1.320880
  0
VERTEX
  8
0
  6
CONTINUOUS
 10
8.026040
 20
2.065360
  0
VERTEX
  8
0
  6
CONTINUOUS
 10
8.034400
 20
2.023120
  0
VERTEX
  8
0
  6
CONTINUOUS
 10
8.031320
 20
1.278640
  0
VERTEX
  8
0
  6
CONTINUOUS
 10
8.022960
 20
1.320880
  0
SEQEND
  8
0
  0
SOLID
  8
0
 62
    15
 10
8.010200
 20
1.356520
 11
8.013280
 21
2.101000
 12
8.022960
 22
1.320880
 13
8.026040
 23
2.065360
  0
POLYLINE
  8
0
  6
CONTINUOUS
 66
     1
 40
0.000000
 41
0.000000
  0
VERTEX
  8
0
  6
CONTINUOUS
 10
8.010200
 20
1.356520
  0
VERTEX
  8
0
  6
CONTINUOUS
 10
8.013280
 20
2.101000
  0
VERTEX
  8
0
  6
CONTINUOUS
 10
8.026040
 20
2.065360
  0
VERTEX
  8
0
  6
CONTINUOUS
 10
8.022960
 20
1.320880
  0
VERTEX
  8
0
  6
CONTINUOUS
 10
8.010200
 20
1.356520
  0
SEQEND
  8
0
  0
SOLID
  8
0
 62
    15
 10
8.031320
 20
1.278640
 11
8.034400
 21
2.023120
 12
8.033960
 22
1.228920
 13
8.037480
 23
1.973400
  0
POLYLINE
  8
0
  6
CONTINUOUS
 66
     1
 40
0.000000
 41
0.000000
  0
VERTEX
  8
0
  6
CONTINUOUS
 10
8.031320
 20
1.278640
  0
VERTEX
  8
0
  6
CONTINUOUS
 10
8.034400
 20
2.023120
  0
VERTEX
  8
0
  6
CONTINUOUS
 10
8.037480
 20
1.973400
  0
VERTEX
  8
0
  6
CONTINUOUS
 10
8.033960
 20
1.228920
  0
VERTEX
  8
0
  6
CONTINUOUS
 10
8.031320
 20
1.278640
  0
SEQEND
  8
0
  0
SOLID
  8
0
 62
    15
 10
8.033960
 20
1.228920
 11
8.037480
 21
1.973400
 12
8.033960
 22
1.058200
 13
8.037480
 23
1.802240
  0
POLYLINE
  8
0
  6
CONTINUOUS
 66
     1
 40
0.000000
 41
0.000000
  0
VERTEX
  8
0
  6
CONTINUOUS
 10
8.033960
 20
1.228920
  0
VERTEX
  8
0
  6
CONTINUOUS
 10
8.037480
 20
1.973400
  0
VERTEX
  8
0
  6
CONTINUOUS
 10
8.037480
 20
1.802240
  0
VERTEX
  8
0
  6
CONTINUOUS
 10
8.033960
 20
1.058200
  0
VERTEX
  8
0
  6
CONTINUOUS
 10
8.033960
 20
1.228920
  0
SEQEND
  8
0
  0
SOLID
  8
0
 62
    15
 10
4.776640
 20
1.879680
 11
4.779720
 21
2.624160
 12
4.778840
 22
1.879680
 13
4.781920
 23
2.624160
  0
POLYLINE
  8
0
  6
CONTINUOUS
 66
     1
 40
0.000000
 41
0.000000
  0
VERTEX
  8
0
  6
CONTINUOUS
 10
4.776640
 20
1.879680
  0
VERTEX
  8
0
  6
CONTINUOUS
 10
4.779720
 20
2.624160
  0
VERTEX
  8
0
  6
CONTINUOUS
 10
4.781920
 20
2.624160
  0
VERTEX
  8
0
  6
CONTINUOUS
 10
4.778840
 20
1.879680
  0
VERTEX
  8
0
  6
CONTINUOUS
 10
4.776640
 20
1.879680
  0
SEQEND
  8
0
  0
POLYLINE
  8
0
  6
CONTINUOUS
 66
     1
 40
0.000000
 41
0.000000
  0
VERTEX
  8
0
  6
CONTINUOUS
 10
4.778840
 20
1.879680
  0
VERTEX
  8
0
  6
CONTINUOUS
 10
5.176600
 20
1.879680
  0
VERTEX
  8
0
  6
CONTINUOUS
 10
5.198600
 20
1.727440
  0
VERTEX
  8
0
  6
CONTINUOUS
 10
5.251400
 20
1.727440
  0
VERTEX
  8
0
  6
CONTINUOUS
 10
5.268120
 20
1.770120
  0
VERTEX
  8
0
  6
CONTINUOUS
 10
5.290560
 20
1.805760
  0
VERTEX
  8
0
  6
CONTINUOUS
 10
5.318280
 20
1.834360
  0
VERTEX
  8
0
  6
CONTINUOUS
 10
5.349960
 20
1.855920
  0
VERTEX
  8
0
  6
CONTINUOUS
 10
5.385160
 20
1.870440
  0
VERTEX
  8
0
  6
CONTINUOUS
 10
5.422560
 20
1.878360
  0
VERTEX
  8
0
  6
CONTINUOUS
 10
5.461280
 20
1.880120
  0
VERTEX
  8
0
  6
CONTINUOUS
 10
5.500440
 20
1.875720
  0
VERTEX
  8
0
  6
CONTINUOUS
 10
5.539160
 20
1.865160
  0
VERTEX
  8
0
  6
CONTINUOUS
 10
5.577000
 20
1.848880
  0
VERTEX
  8
0
  6
CONTINUOUS
 10
5.612200
 20
1.826440
  0
VERTEX
  8
0
  6
CONTINUOUS
 10
5.644320
 20
1.799160
  0
VERTEX
  8
0
  6
CONTINUOUS
 10
5.672480
 20
1.766160
  0
VERTEX
  8
0
  6
CONTINUOUS
 10
5.695800
 20
1.727880
  0
VERTEX
  8
0
  6
CONTINUOUS
 10
5.713400
 20
1.684760
  0
VERTEX
  8
0
  6
CONTINUOUS
 10
5.723960
 20
1.637240
  0
VERTEX
  8
0
  6
CONTINUOUS
 10
5.854640
 20
1.637240
  0
VERTEX
  8
0
  6
CONTINUOUS
 10
5.865200
 20
1.610840
  0
VERTEX
  8
0
  6
CONTINUOUS
 10
5.881920
 20
1.588400
  0
VERTEX
  8
0
  6
CONTINUOUS
 10
5.903920
 20
1.569480
  0
VERTEX
  8
0
  6
CONTINUOUS
 10
5.931200
 20
1.554080
  0
VERTEX
  8
0
  6
CONTINUOUS
 10
5.962880
 20
1.542200
  0
VERTEX
  8
0
  6
CONTINUOUS
 10
5.998520
 20
1.533840
  0
VERTEX
  8
0
  6
CONTINUOUS
 10
6.037240
 20
1.529000
  0
VERTEX
  8
0
  6
CONTINUOUS
 10
6.079040
 20
1.527680
  0
VERTEX
  8
0
  6
CONTINUOUS
 10
6.099280
 20
1.452880
  0
VERTEX
  8
0
  6
CONTINUOUS
 10
7.673600
 20
1.459040
  0
VERTEX
  8
0
  6
CONTINUOUS
 10
7.695160
 20
1.331440
  0
VERTEX
  8
0
  6
CONTINUOUS
 10
7.738720
 20
1.331440
  0
VERTEX
  8
0
  6
CONTINUOUS
 10
7.748400
 20
1.358280
  0
VERTEX
  8
0
  6
CONTINUOUS
 10
7.762040
 20
1.381600
  0
VERTEX
  8
0
  6
CONTINUOUS
 10
7.779640
 20
1.401840
  0
VERTEX
  8
0
  6
CONTINUOUS
 10
7.800760
 20
1.418560
  0
VERTEX
  8
0
  6
CONTINUOUS
 10
7.823640
 20
1.430880
  0
VERTEX
  8
0
  6
CONTINUOUS
 10
7.848720
 20
1.439240
  0
VERTEX
  8
0
  6
CONTINUOUS
 10
7.874240
 20
1.443200
  0
VERTEX
  8
0
  6
CONTINUOUS
 10
7.900640
 20
1.442320
  0
VERTEX
  8
0
  6
CONTINUOUS
 10
7.926160
 20
1.436600
  0
VERTEX
  8
0
  6
CONTINUOUS
 10
7.950360
 20
1.425160
  0
VERTEX
  8
0
  6
CONTINUOUS
 10
7.973240
 20
1.408440
  0
VERTEX
  8
0
  6
CONTINUOUS
 10
7.993040
 20
1.385560
  0
VERTEX
  8
0
  6
CONTINUOUS
 10
8.010200
 20
1.356520
  0
VERTEX
  8
0
  6
CONTINUOUS
 10
8.022960
 20
1.320880
  0
VERTEX
  8
0
  6
CONTINUOUS
 10
8.031320
 20
1.278640
  0
VERTEX
  8
0
  6
CONTINUOUS
 10
8.033960
 20
1.228920
  0
VERTEX
  8
0
  6
CONTINUOUS
 10
8.033960
 20
1.058200
  0
VERTEX
  8
0
  6
CONTINUOUS
 10
4.776640
 20
1.058200
  0
VERTEX
  8
0
  6
CONTINUOUS
 10
4.776640
 20
1.879680
  0
VERTEX
  8
0
  6
CONTINUOUS
 10
4.778840
 20
1.879680
  0
SEQEND
  8
0
  0
TEXT
  8
0
 10
6.065840
 20
0.809600
 40
0.138225
  1
BA  1047
 41
1.000000
  7
SN0
 71
     0
 72
     5
 11
6.748310
 21
0.809600
  0
TEXT
  8
0
 10
5.817680
 20
0.618200
 40
0.138225
  1
  13/16" x 3-1/4"
 41
1.000000
  7
SN0
 71
     0
 72
     5
 11
6.999534
 21
0.618200
  0
POLYLINE
  8
0
  6
CONTINUOUS
 66
     1
 40
0.014080
 41
0.014080
  0
VERTEX
  8
0
  6
CONTINUOUS
 10
4.700080
 20
3.835040
  0
VERTEX
  8
0
  6
CONTINUOUS
 10
5.097840
 20
3.835040
  0
VERTEX
  8
0
  6
CONTINUOUS
 10
5.119840
 20
3.682360
  0
VERTEX
  8
0
  6
CONTINUOUS
 10
5.172640
 20
3.682360
  0
VERTEX
  8
0
  6
CONTINUOUS
 10
5.180120
 20
3.704800
  0
VERTEX
  8
0
  6
CONTINUOUS
 10
5.189360
 20
3.725480
  0
VERTEX
  8
0
  6
CONTINUOUS
 10
5.199920
 20
3.743960
  0
VERTEX
  8
0
  6
CONTINUOUS
 10
5.211800
 20
3.761120
  0
VERTEX
  8
0
  6
CONTINUOUS
 10
5.225000
 20
3.776080
  0
VERTEX
  8
0
  6
CONTINUOUS
 10
5.254920
 20
3.801160
  0
VERTEX
  8
0
  6
CONTINUOUS
 10
5.288360
 20
3.819200
  0
VERTEX
  8
0
  6
CONTINUOUS
 10
5.306400
 20
3.825800
  0
VERTEX
  8
0
  6
CONTINUOUS
 10
5.324880
 20
3.830640
  0
VERTEX
  8
0
  6
CONTINUOUS
 10
5.362720
 20
3.835480
  0
VERTEX
  8
0
  6
CONTINUOUS
 10
5.382520
 20
3.835480
  0
VERTEX
  8
0
  6
CONTINUOUS
 10
5.401880
 20
3.834160
  0
VERTEX
  8
0
  6
CONTINUOUS
 10
5.441040
 20
3.826680
  0
VERTEX
  8
0
  6
CONTINUOUS
 10
5.479320
 20
3.813040
  0
VERTEX
  8
0
  6
CONTINUOUS
 10
5.498240
 20
3.804240
  0
VERTEX
  8
0
  6
CONTINUOUS
 10
5.533440
 20
3.781800
  0
VERTEX
  8
0
  6
CONTINUOUS
 10
5.565560
 20
3.754520
  0
VERTEX
  8
0
  6
CONTINUOUS
 10
5.593720
 20
3.721520
  0
VERTEX
  8
0
  6
CONTINUOUS
 10
5.606040
 20
3.703040
  0
VERTEX
  8
0
  6
CONTINUOUS
 10
5.626720
 20
3.662560
  0
VERTEX
  8
0
  6
CONTINUOUS
 10
5.634640
 20
3.640560
  0
VERTEX
  8
0
  6
CONTINUOUS
 10
5.640800
 20
3.617240
  0
VERTEX
  8
0
  6
CONTINUOUS
 10
5.645200
 20
3.592600
  0
VERTEX
  8
0
  6
CONTINUOUS
 10
5.775880
 20
3.592600
  0
VERTEX
  8
0
  6
CONTINUOUS
 10
5.780280
 20
3.578960
  0
VERTEX
  8
0
  6
CONTINUOUS
 10
5.786440
 20
3.566200
  0
VERTEX
  8
0
  6
CONTINUOUS
 10
5.803160
 20
3.543760
  0
VERTEX
  8
0
  6
CONTINUOUS
 10
5.825600
 20
3.524840
  0
VERTEX
  8
0
  6
CONTINUOUS
 10
5.852440
 20
3.509440
  0
VERTEX
  8
0
  6
CONTINUOUS
 10
5.884120
 20
3.497560
  0
VERTEX
  8
0
  6
CONTINUOUS
 10
5.919760
 20
3.489640
  0
VERTEX
  8
0
  6
CONTINUOUS
 10
5.958480
 20
3.484800
  0
VERTEX
  8
0
  6
CONTINUOUS
 10
6.000280
 20
3.483040
  0
VERTEX
  8
0
  6
CONTINUOUS
 10
6.020520
 20
3.408240
  0
VERTEX
  8
0
  6
CONTINUOUS
 10
7.594840
 20
3.414400
  0
VERTEX
  8
0
  6
CONTINUOUS
 10
7.616400
 20
3.286800
  0
VERTEX
  8
0
  6
CONTINUOUS
 10
7.659960
 20
3.286800
  0
VERTEX
  8
0
  6
CONTINUOUS
 10
7.663920
 20
3.300440
  0
VERTEX
  8
0
  6
CONTINUOUS
 10
7.675800
 20
3.325520
  0
VERTEX
  8
0
  6
CONTINUOUS
 10
7.691640
 20
3.347520
  0
VERTEX
  8
0
  6
CONTINUOUS
 10
7.711000
 20
3.365560
  0
VERTEX
  8
0
  6
CONTINUOUS
 10
7.733000
 20
3.380520
  0
VERTEX
  8
0
  6
CONTINUOUS
 10
7.757200
 20
3.390640
  0
VERTEX
  8
0
  6
CONTINUOUS
 10
7.782720
 20
3.397240
  0
VERTEX
  8
0
  6
CONTINUOUS
 10
7.808680
 20
3.398560
  0
VERTEX
  8
0
  6
CONTINUOUS
 10
7.834640
 20
3.395480
  0
VERTEX
  8
0
  6
CONTINUOUS
 10
7.859720
 20
3.386680
  0
VERTEX
  8
0
  6
CONTINUOUS
 10
7.883040
 20
3.372600
  0
VERTEX
  8
0
  6
CONTINUOUS
 10
7.904600
 20
3.352800
  0
VERTEX
  8
0
  6
CONTINUOUS
 10
7.923080
 20
3.326840
  0
VERTEX
  8
0
  6
CONTINUOUS
 10
7.938040
 20
3.294720
  0
VERTEX
  8
0
  6
CONTINUOUS
 10
7.944200
 20
3.276240
  0
VERTEX
  8
0
  6
CONTINUOUS
 10
7.952120
 20
3.233560
  0
VERTEX
  8
0
  6
CONTINUOUS
 10
7.954320
 20
3.209800
  0
VERTEX
  8
0
  6
CONTINUOUS
 10
7.955200
 20
3.184280
  0
VERTEX
  8
0
  6
CONTINUOUS
 10
7.955200
 20
3.013120
  0
VERTEX
  8
0
  6
CONTINUOUS
 10
4.697880
 20
3.013120
  0
VERTEX
  8
0
  6
CONTINUOUS
 10
4.697880
 20
3.835040
  0
VERTEX
  8
0
  6
CONTINUOUS
 10
4.700080
 20
3.835040
  0
SEQEND
  8
0
  0
TEXT
  8
0
 10
5.156360
 20
3.297360
 40
0.138225
  1
BA  1047
 41
1.000000
  7
SN0
 71
     0
 72
     5
 11
5.838830
 21
3.297360
  0
TEXT
  8
0
 10
4.908200
 20
3.105960
 40
0.138225
  1
  13/16" x 3-1/4"
 41
1.000000
  7
SN0
 71
     0
 72
     5
 11
6.090054
 21
3.105960
  0
ENDSEC
  0
EOF
