  0
SECTION
  2
HEADER
  9
$ACADVER
  1
AC1006
  9
$EXTMIN
 10
4.616480
 20
0.866800
  9
$EXTMAX
 10
7.502880
 20
2.031920
  9
$LTSCALE
 40
0.044000
  9
$PDMODE
 70
    35
  9
$PDSIZE
 40
0.035200
  0
ENDSEC
  0
SECTION
  2
TABLES
  0
TABLE
  2
LTYPE
 70
     9
  0
LTYPE
  2
CONTINUOUS
 70
    64
  3
Solid line
 72
    65
 73
     0
 40
0.000000
  0
LTYPE
  2
DASHED
 70
    64
  3
__ __ __ __ __ __ __ __ __ __ __ __ __ __ __
 72
    65
 73
     2
 40
0.000330
 49
0.000220
 49
-0.000110
  0
LTYPE
  2
HIDDEN
 70
    64
  3
 _ _ _ _ _ _ _ _ _ _ _ _ _ _ _ _ _ _ _ _ _ _
 72
    65
 73
     2
 40
0.000165
 49
0.000110
 49
-0.000055
  0
LTYPE
  2
CENTER
 70
    64
  3
____ _ ____ _ ____ _ ____ _ ____ _ ____ _ ____
 72
    65
 73
     4
 40
0.000880
 49
0.000550
 49
-0.000110
 49
0.000110
 49
-0.000110
  0
LTYPE
  2
PHANTOM
 70
    64
  3
_____ _ _ _____ _ _ _____ _ _ _____ _ _ ____
 72
    65
 73
     6
 40
0.001100
 49
0.000550
 49
-0.000110
 49
0.000110
 49
-0.000110
 49
0.000110
 49
-0.000110
  0
LTYPE
  2
DOT
 70
    64
  3
...............................................
 72
    65
 73
     2
 40
0.000110
 49
0.000000
 49
-0.000110
  0
LTYPE
  2
DASHDOT
 70
    64
  3
__ . __ . __ . __ . __ . __ . __ . __ . __ . __
 72
    65
 73
     4
 40
0.000440
 49
0.000220
 49
-0.000110
 49
0.000000
 49
-0.000110
  0
LTYPE
  2
BORDER
 70
    64
  3
__ __ . __ __ . __ __ . __ __ . __ __ . __ __
 72
    65
 73
     6
 40
0.000770
 49
0.000220
 49
-0.000110
 49
0.000220
 49
-0.000110
 49
0.000000
 49
-0.000110
  0
LTYPE
  2
DIVIDE
 70
    64
  3
__ . . __ . . __ . . __ . . __ . . __ . . __
 72
    65
 73
     6
 40
0.000550
 49
0.000220
 49
-0.000110
 49
0.000000
 49
-0.000110
 49
0.000000
 49
-0.000110
  0
LTYPE
  2
DOTDOT
 70
    64
  3
 . .  . .  . .  . .  . .  . . 
 72
    65
 73
     5
 40
0.000242
 49
-0.000110
 49
0.000000
 49
-0.000110
 49
0.000000
 49
-0.000110
  0
ENDTAB
  0
TABLE
  2
STYLE
 70
     2
  0
STYLE
 70
     0
  2
SN0
 40
0.000000
 41
0.000440
 50
0.000000
 71
     0
 42
0.000000
  3
ROMAND
  0
STYLE
 70
    68
  2
SV0
 40
0.000000
 41
0.000440
 50
0.000000
 71
     0
 42
0.000000
  3
ROMAND
  0
ENDTAB
  0
TABLE
  2
LAYER
 70
     3
  0
LAYER
  2
FOREGROUND
 70
    64
 62
     7
  6
CONTINUOUS
  0
LAYER
  2
BACKGROUND
 70
    65
 62
    -7
  6
CONTINUOUS
  0
LAYER
  2
0
 70
    64
 62
     7
  6
CONTINUOUS
  0
ENDTAB
  0
ENDSEC
  0
SECTION
  2
ENTITIES
  0
POLYLINE
  8
FOREGROUND
  6
CONTINUOUS
 66
     1
 40
0.000000
 41
0.000000
  0
VERTEX
  8
FOREGROUND
  6
CONTINUOUS
 10
0.000000
 20
2.898720
  0
VERTEX
  8
FOREGROUND
  6
CONTINUOUS
 10
8.499920
 20
2.898720
  0
VERTEX
  8
FOREGROUND
  6
CONTINUOUS
 10
8.499920
 20
-8.101280
  0
VERTEX
  8
FOREGROUND
  6
CONTINUOUS
 10
0.000000
 20
-8.101280
  0
VERTEX
  8
FOREGROUND
  6
CONTINUOUS
 10
0.000000
 20
2.898720
  0
SEQEND
  8
0
  0
POLYLINE
  8
FOREGROUND
  6
CONTINUOUS
 66
     1
 40
0.000000
 41
0.000000
  0
VERTEX
  8
FOREGROUND
  6
CONTINUOUS
 10
0.000000
 20
2.898720
  0
VERTEX
  8
FOREGROUND
  6
CONTINUOUS
 10
8.499920
 20
2.898720
  0
VERTEX
  8
FOREGROUND
  6
CONTINUOUS
 10
8.499920
 20
-8.101280
  0
VERTEX
  8
FOREGROUND
  6
CONTINUOUS
 10
0.000000
 20
-8.101280
  0
VERTEX
  8
FOREGROUND
  6
CONTINUOUS
 10
0.000000
 20
2.898720
  0
SEQEND
  8
0
  0
SOLID
  8
0
 62
     7
 10
5.441040
 20
1.719520
 11
6.183320
 21
1.717320
 12
5.459520
 22
1.690480
 13
6.201360
 23
1.688280
  0
POLYLINE
  8
0
  6
CONTINUOUS
 66
     1
 40
0.000000
 41
0.000000
  0
VERTEX
  8
0
  6
CONTINUOUS
 10
5.441040
 20
1.719520
  0
VERTEX
  8
0
  6
CONTINUOUS
 10
6.183320
 20
1.717320
  0
VERTEX
  8
0
  6
CONTINUOUS
 10
6.201360
 20
1.688280
  0
VERTEX
  8
0
  6
CONTINUOUS
 10
5.459520
 20
1.690480
  0
VERTEX
  8
0
  6
CONTINUOUS
 10
5.441040
 20
1.719520
  0
SEQEND
  8
0
  0
SOLID
  8
0
 62
    15
 10
4.697880
 20
2.029280
 11
5.440160
 21
2.027080
 12
4.774880
 22
2.024000
 13
5.517160
 23
2.022240
  0
POLYLINE
  8
0
  6
CONTINUOUS
 66
     1
 40
0.000000
 41
0.000000
  0
VERTEX
  8
0
  6
CONTINUOUS
 10
4.697880
 20
2.029280
  0
VERTEX
  8
0
  6
CONTINUOUS
 10
5.440160
 20
2.027080
  0
VERTEX
  8
0
  6
CONTINUOUS
 10
5.517160
 20
2.022240
  0
VERTEX
  8
0
  6
CONTINUOUS
 10
4.774880
 20
2.024000
  0
VERTEX
  8
0
  6
CONTINUOUS
 10
4.697880
 20
2.029280
  0
SEQEND
  8
0
  0
SOLID
  8
0
 62
    15
 10
4.774880
 20
2.024000
 11
5.517160
 21
2.022240
 12
4.848360
 22
2.015640
 13
5.590200
 23
2.013440
  0
POLYLINE
  8
0
  6
CONTINUOUS
 66
     1
 40
0.000000
 41
0.000000
  0
VERTEX
  8
0
  6
CONTINUOUS
 10
4.774880
 20
2.024000
  0
VERTEX
  8
0
  6
CONTINUOUS
 10
5.517160
 20
2.022240
  0
VERTEX
  8
0
  6
CONTINUOUS
 10
5.590200
 20
2.013440
  0
VERTEX
  8
0
  6
CONTINUOUS
 10
4.848360
 20
2.015640
  0
VERTEX
  8
0
  6
CONTINUOUS
 10
4.774880
 20
2.024000
  0
SEQEND
  8
0
  0
SOLID
  8
0
 62
    15
 10
4.848360
 20
2.015640
 11
5.590200
 21
2.013440
 12
4.917440
 22
2.004200
 13
5.659280
 23
2.002440
  0
POLYLINE
  8
0
  6
CONTINUOUS
 66
     1
 40
0.000000
 41
0.000000
  0
VERTEX
  8
0
  6
CONTINUOUS
 10
4.848360
 20
2.015640
  0
VERTEX
  8
0
  6
CONTINUOUS
 10
5.590200
 20
2.013440
  0
VERTEX
  8
0
  6
CONTINUOUS
 10
5.659280
 20
2.002440
  0
VERTEX
  8
0
  6
CONTINUOUS
 10
4.917440
 20
2.004200
  0
VERTEX
  8
0
  6
CONTINUOUS
 10
4.848360
 20
2.015640
  0
SEQEND
  8
0
  0
SOLID
  8
0
 62
    15
 10
4.917440
 20
2.004200
 11
5.659280
 21
2.002440
 12
4.982560
 22
1.990120
 13
5.724840
 23
1.988360
  0
POLYLINE
  8
0
  6
CONTINUOUS
 66
     1
 40
0.000000
 41
0.000000
  0
VERTEX
  8
0
  6
CONTINUOUS
 10
4.917440
 20
2.004200
  0
VERTEX
  8
0
  6
CONTINUOUS
 10
5.659280
 20
2.002440
  0
VERTEX
  8
0
  6
CONTINUOUS
 10
5.724840
 20
1.988360
  0
VERTEX
  8
0
  6
CONTINUOUS
 10
4.982560
 20
1.990120
  0
VERTEX
  8
0
  6
CONTINUOUS
 10
4.917440
 20
2.004200
  0
SEQEND
  8
0
  0
SOLID
  8
0
 62
    15
 10
4.982560
 20
1.990120
 11
5.724840
 21
1.988360
 12
5.044160
 22
1.973400
 13
5.786000
 23
1.971640
  0
POLYLINE
  8
0
  6
CONTINUOUS
 66
     1
 40
0.000000
 41
0.000000
  0
VERTEX
  8
0
  6
CONTINUOUS
 10
4.982560
 20
1.990120
  0
VERTEX
  8
0
  6
CONTINUOUS
 10
5.724840
 20
1.988360
  0
VERTEX
  8
0
  6
CONTINUOUS
 10
5.786000
 20
1.971640
  0
VERTEX
  8
0
  6
CONTINUOUS
 10
5.044160
 20
1.973400
  0
VERTEX
  8
0
  6
CONTINUOUS
 10
4.982560
 20
1.990120
  0
SEQEND
  8
0
  0
SOLID
  8
0
 62
    15
 10
5.044160
 20
1.973400
 11
5.786000
 21
1.971640
 12
5.101360
 22
1.954920
 13
5.843640
 23
1.952720
  0
POLYLINE
  8
0
  6
CONTINUOUS
 66
     1
 40
0.000000
 41
0.000000
  0
VERTEX
  8
0
  6
CONTINUOUS
 10
5.044160
 20
1.973400
  0
VERTEX
  8
0
  6
CONTINUOUS
 10
5.786000
 20
1.971640
  0
VERTEX
  8
0
  6
CONTINUOUS
 10
5.843640
 20
1.952720
  0
VERTEX
  8
0
  6
CONTINUOUS
 10
5.101360
 20
1.954920
  0
VERTEX
  8
0
  6
CONTINUOUS
 10
5.044160
 20
1.973400
  0
SEQEND
  8
0
  0
SOLID
  8
0
 62
    15
 10
5.101360
 20
1.954920
 11
5.843640
 21
1.952720
 12
5.155040
 22
1.933800
 13
5.896880
 23
1.931600
  0
POLYLINE
  8
0
  6
CONTINUOUS
 66
     1
 40
0.000000
 41
0.000000
  0
VERTEX
  8
0
  6
CONTINUOUS
 10
5.101360
 20
1.954920
  0
VERTEX
  8
0
  6
CONTINUOUS
 10
5.843640
 20
1.952720
  0
VERTEX
  8
0
  6
CONTINUOUS
 10
5.896880
 20
1.931600
  0
VERTEX
  8
0
  6
CONTINUOUS
 10
5.155040
 20
1.933800
  0
VERTEX
  8
0
  6
CONTINUOUS
 10
5.101360
 20
1.954920
  0
SEQEND
  8
0
  0
SOLID
  8
0
 62
    15
 10
5.155040
 20
1.933800
 11
5.896880
 21
1.931600
 12
5.204320
 22
1.910920
 13
5.946600
 23
1.908720
  0
POLYLINE
  8
0
  6
CONTINUOUS
 66
     1
 40
0.000000
 41
0.000000
  0
VERTEX
  8
0
  6
CONTINUOUS
 10
5.155040
 20
1.933800
  0
VERTEX
  8
0
  6
CONTINUOUS
 10
5.896880
 20
1.931600
  0
VERTEX
  8
0
  6
CONTINUOUS
 10
5.946600
 20
1.908720
  0
VERTEX
  8
0
  6
CONTINUOUS
 10
5.204320
 20
1.910920
  0
VERTEX
  8
0
  6
CONTINUOUS
 10
5.155040
 20
1.933800
  0
SEQEND
  8
0
  0
SOLID
  8
0
 62
    15
 10
5.204320
 20
1.910920
 11
5.946600
 21
1.908720
 12
5.250080
 22
1.886720
 13
5.992360
 23
1.884520
  0
POLYLINE
  8
0
  6
CONTINUOUS
 66
     1
 40
0.000000
 41
0.000000
  0
VERTEX
  8
0
  6
CONTINUOUS
 10
5.204320
 20
1.910920
  0
VERTEX
  8
0
  6
CONTINUOUS
 10
5.946600
 20
1.908720
  0
VERTEX
  8
0
  6
CONTINUOUS
 10
5.992360
 20
1.884520
  0
VERTEX
  8
0
  6
CONTINUOUS
 10
5.250080
 20
1.886720
  0
VERTEX
  8
0
  6
CONTINUOUS
 10
5.204320
 20
1.910920
  0
SEQEND
  8
0
  0
SOLID
  8
0
 62
    15
 10
5.250080
 20
1.886720
 11
5.992360
 21
1.884520
 12
5.291880
 22
1.860760
 13
6.033720
 23
1.858560
  0
POLYLINE
  8
0
  6
CONTINUOUS
 66
     1
 40
0.000000
 41
0.000000
  0
VERTEX
  8
0
  6
CONTINUOUS
 10
5.250080
 20
1.886720
  0
VERTEX
  8
0
  6
CONTINUOUS
 10
5.992360
 20
1.884520
  0
VERTEX
  8
0
  6
CONTINUOUS
 10
6.033720
 20
1.858560
  0
VERTEX
  8
0
  6
CONTINUOUS
 10
5.291880
 20
1.860760
  0
VERTEX
  8
0
  6
CONTINUOUS
 10
5.250080
 20
1.886720
  0
SEQEND
  8
0
  0
SOLID
  8
0
 62
    15
 10
5.291880
 20
1.860760
 11
6.033720
 21
1.858560
 12
5.329720
 22
1.833920
 13
6.071560
 23
1.831720
  0
POLYLINE
  8
0
  6
CONTINUOUS
 66
     1
 40
0.000000
 41
0.000000
  0
VERTEX
  8
0
  6
CONTINUOUS
 10
5.291880
 20
1.860760
  0
VERTEX
  8
0
  6
CONTINUOUS
 10
6.033720
 20
1.858560
  0
VERTEX
  8
0
  6
CONTINUOUS
 10
6.071560
 20
1.831720
  0
VERTEX
  8
0
  6
CONTINUOUS
 10
5.329720
 20
1.833920
  0
VERTEX
  8
0
  6
CONTINUOUS
 10
5.291880
 20
1.860760
  0
SEQEND
  8
0
  0
SOLID
  8
0
 62
    15
 10
5.329720
 20
1.833920
 11
6.071560
 21
1.831720
 12
5.363600
 22
1.806200
 13
6.105440
 23
1.804000
  0
POLYLINE
  8
0
  6
CONTINUOUS
 66
     1
 40
0.000000
 41
0.000000
  0
VERTEX
  8
0
  6
CONTINUOUS
 10
5.329720
 20
1.833920
  0
VERTEX
  8
0
  6
CONTINUOUS
 10
6.071560
 20
1.831720
  0
VERTEX
  8
0
  6
CONTINUOUS
 10
6.105440
 20
1.804000
  0
VERTEX
  8
0
  6
CONTINUOUS
 10
5.363600
 20
1.806200
  0
VERTEX
  8
0
  6
CONTINUOUS
 10
5.329720
 20
1.833920
  0
SEQEND
  8
0
  0
SOLID
  8
0
 62
    15
 10
5.363600
 20
1.806200
 11
6.105440
 21
1.804000
 12
5.393080
 22
1.777600
 13
6.135360
 23
1.775400
  0
POLYLINE
  8
0
  6
CONTINUOUS
 66
     1
 40
0.000000
 41
0.000000
  0
VERTEX
  8
0
  6
CONTINUOUS
 10
5.363600
 20
1.806200
  0
VERTEX
  8
0
  6
CONTINUOUS
 10
6.105440
 20
1.804000
  0
VERTEX
  8
0
  6
CONTINUOUS
 10
6.135360
 20
1.775400
  0
VERTEX
  8
0
  6
CONTINUOUS
 10
5.393080
 20
1.777600
  0
VERTEX
  8
0
  6
CONTINUOUS
 10
5.363600
 20
1.806200
  0
SEQEND
  8
0
  0
SOLID
  8
0
 62
    15
 10
5.393080
 20
1.777600
 11
6.135360
 21
1.775400
 12
5.419040
 22
1.748560
 13
6.161320
 23
1.746800
  0
POLYLINE
  8
0
  6
CONTINUOUS
 66
     1
 40
0.000000
 41
0.000000
  0
VERTEX
  8
0
  6
CONTINUOUS
 10
5.393080
 20
1.777600
  0
VERTEX
  8
0
  6
CONTINUOUS
 10
6.135360
 20
1.775400
  0
VERTEX
  8
0
  6
CONTINUOUS
 10
6.161320
 20
1.746800
  0
VERTEX
  8
0
  6
CONTINUOUS
 10
5.419040
 20
1.748560
  0
VERTEX
  8
0
  6
CONTINUOUS
 10
5.393080
 20
1.777600
  0
SEQEND
  8
0
  0
SOLID
  8
0
 62
     7
 10
5.419040
 20
1.748560
 11
6.161320
 21
1.746800
 12
5.441040
 22
1.719520
 13
6.183320
 23
1.717320
  0
POLYLINE
  8
0
  6
CONTINUOUS
 66
     1
 40
0.000000
 41
0.000000
  0
VERTEX
  8
0
  6
CONTINUOUS
 10
5.419040
 20
1.748560
  0
VERTEX
  8
0
  6
CONTINUOUS
 10
6.161320
 20
1.746800
  0
VERTEX
  8
0
  6
CONTINUOUS
 10
6.183320
 20
1.717320
  0
VERTEX
  8
0
  6
CONTINUOUS
 10
5.441040
 20
1.719520
  0
VERTEX
  8
0
  6
CONTINUOUS
 10
5.419040
 20
1.748560
  0
SEQEND
  8
0
  0
SOLID
  8
0
 62
    15
 10
4.616920
 20
2.031040
 11
5.359200
 21
2.028840
 12
4.697880
 22
2.029280
 13
5.440160
 23
2.027080
  0
POLYLINE
  8
0
  6
CONTINUOUS
 66
     1
 40
0.000000
 41
0.000000
  0
VERTEX
  8
0
  6
CONTINUOUS
 10
4.616920
 20
2.031040
  0
VERTEX
  8
0
  6
CONTINUOUS
 10
5.359200
 20
2.028840
  0
VERTEX
  8
0
  6
CONTINUOUS
 10
5.440160
 20
2.027080
  0
VERTEX
  8
0
  6
CONTINUOUS
 10
4.697880
 20
2.029280
  0
VERTEX
  8
0
  6
CONTINUOUS
 10
4.616920
 20
2.031040
  0
SEQEND
  8
0
  0
SOLID
  8
0
 62
     7
 10
5.459520
 20
1.690480
 11
6.201360
 21
1.688280
 12
5.473600
 22
1.661440
 13
6.215440
 23
1.659240
  0
POLYLINE
  8
0
  6
CONTINUOUS
 66
     1
 40
0.000000
 41
0.000000
  0
VERTEX
  8
0
  6
CONTINUOUS
 10
5.459520
 20
1.690480
  0
VERTEX
  8
0
  6
CONTINUOUS
 10
6.201360
 20
1.688280
  0
VERTEX
  8
0
  6
CONTINUOUS
 10
6.215440
 20
1.659240
  0
VERTEX
  8
0
  6
CONTINUOUS
 10
5.473600
 20
1.661440
  0
VERTEX
  8
0
  6
CONTINUOUS
 10
5.459520
 20
1.690480
  0
SEQEND
  8
0
  0
SOLID
  8
0
 62
     7
 10
5.473600
 20
1.661440
 11
6.215440
 21
1.659240
 12
5.483720
 22
1.632840
 13
6.226000
 23
1.631080
  0
POLYLINE
  8
0
  6
CONTINUOUS
 66
     1
 40
0.000000
 41
0.000000
  0
VERTEX
  8
0
  6
CONTINUOUS
 10
5.473600
 20
1.661440
  0
VERTEX
  8
0
  6
CONTINUOUS
 10
6.215440
 20
1.659240
  0
VERTEX
  8
0
  6
CONTINUOUS
 10
6.226000
 20
1.631080
  0
VERTEX
  8
0
  6
CONTINUOUS
 10
5.483720
 20
1.632840
  0
VERTEX
  8
0
  6
CONTINUOUS
 10
5.473600
 20
1.661440
  0
SEQEND
  8
0
  0
SOLID
  8
0
 62
     7
 10
5.483720
 20
1.632840
 11
6.226000
 21
1.631080
 12
5.489880
 22
1.605120
 13
6.232160
 23
1.602920
  0
POLYLINE
  8
0
  6
CONTINUOUS
 66
     1
 40
0.000000
 41
0.000000
  0
VERTEX
  8
0
  6
CONTINUOUS
 10
5.483720
 20
1.632840
  0
VERTEX
  8
0
  6
CONTINUOUS
 10
6.226000
 20
1.631080
  0
VERTEX
  8
0
  6
CONTINUOUS
 10
6.232160
 20
1.602920
  0
VERTEX
  8
0
  6
CONTINUOUS
 10
5.489880
 20
1.605120
  0
VERTEX
  8
0
  6
CONTINUOUS
 10
5.483720
 20
1.632840
  0
SEQEND
  8
0
  0
SOLID
  8
0
 62
     7
 10
5.489880
 20
1.605120
 11
6.232160
 21
1.602920
 12
5.492520
 22
1.578280
 13
6.234360
 23
1.576080
  0
POLYLINE
  8
0
  6
CONTINUOUS
 66
     1
 40
0.000000
 41
0.000000
  0
VERTEX
  8
0
  6
CONTINUOUS
 10
5.489880
 20
1.605120
  0
VERTEX
  8
0
  6
CONTINUOUS
 10
6.232160
 20
1.602920
  0
VERTEX
  8
0
  6
CONTINUOUS
 10
6.234360
 20
1.576080
  0
VERTEX
  8
0
  6
CONTINUOUS
 10
5.492520
 20
1.578280
  0
VERTEX
  8
0
  6
CONTINUOUS
 10
5.489880
 20
1.605120
  0
SEQEND
  8
0
  0
SOLID
  8
0
 62
     7
 10
5.492520
 20
1.578280
 11
6.234360
 21
1.576080
 12
5.490760
 22
1.552760
 13
6.233040
 23
1.550560
  0
POLYLINE
  8
0
  6
CONTINUOUS
 66
     1
 40
0.000000
 41
0.000000
  0
VERTEX
  8
0
  6
CONTINUOUS
 10
5.492520
 20
1.578280
  0
VERTEX
  8
0
  6
CONTINUOUS
 10
6.234360
 20
1.576080
  0
VERTEX
  8
0
  6
CONTINUOUS
 10
6.233040
 20
1.550560
  0
VERTEX
  8
0
  6
CONTINUOUS
 10
5.490760
 20
1.552760
  0
VERTEX
  8
0
  6
CONTINUOUS
 10
5.492520
 20
1.578280
  0
SEQEND
  8
0
  0
SOLID
  8
0
 62
     7
 10
5.490760
 20
1.552760
 11
6.233040
 21
1.550560
 12
5.485040
 22
1.528120
 13
6.227320
 23
1.525920
  0
POLYLINE
  8
0
  6
CONTINUOUS
 66
     1
 40
0.000000
 41
0.000000
  0
VERTEX
  8
0
  6
CONTINUOUS
 10
5.490760
 20
1.552760
  0
VERTEX
  8
0
  6
CONTINUOUS
 10
6.233040
 20
1.550560
  0
VERTEX
  8
0
  6
CONTINUOUS
 10
6.227320
 20
1.525920
  0
VERTEX
  8
0
  6
CONTINUOUS
 10
5.485040
 20
1.528120
  0
VERTEX
  8
0
  6
CONTINUOUS
 10
5.490760
 20
1.552760
  0
SEQEND
  8
0
  0
SOLID
  8
0
 62
     7
 10
5.485040
 20
1.528120
 11
6.227320
 21
1.525920
 12
5.475800
 22
1.505240
 13
6.217640
 23
1.503480
  0
POLYLINE
  8
0
  6
CONTINUOUS
 66
     1
 40
0.000000
 41
0.000000
  0
VERTEX
  8
0
  6
CONTINUOUS
 10
5.485040
 20
1.528120
  0
VERTEX
  8
0
  6
CONTINUOUS
 10
6.227320
 20
1.525920
  0
VERTEX
  8
0
  6
CONTINUOUS
 10
6.217640
 20
1.503480
  0
VERTEX
  8
0
  6
CONTINUOUS
 10
5.475800
 20
1.505240
  0
VERTEX
  8
0
  6
CONTINUOUS
 10
5.485040
 20
1.528120
  0
SEQEND
  8
0
  0
SOLID
  8
0
 62
    15
 10
5.475800
 20
1.505240
 11
6.217640
 21
1.503480
 12
5.462160
 22
1.484560
 13
6.204440
 23
1.482360
  0
POLYLINE
  8
0
  6
CONTINUOUS
 66
     1
 40
0.000000
 41
0.000000
  0
VERTEX
  8
0
  6
CONTINUOUS
 10
5.475800
 20
1.505240
  0
VERTEX
  8
0
  6
CONTINUOUS
 10
6.217640
 20
1.503480
  0
VERTEX
  8
0
  6
CONTINUOUS
 10
6.204440
 20
1.482360
  0
VERTEX
  8
0
  6
CONTINUOUS
 10
5.462160
 20
1.484560
  0
VERTEX
  8
0
  6
CONTINUOUS
 10
5.475800
 20
1.505240
  0
SEQEND
  8
0
  0
SOLID
  8
0
 62
    15
 10
5.462160
 20
1.484560
 11
6.204440
 21
1.482360
 12
5.445000
 22
1.465640
 13
6.186840
 23
1.463440
  0
POLYLINE
  8
0
  6
CONTINUOUS
 66
     1
 40
0.000000
 41
0.000000
  0
VERTEX
  8
0
  6
CONTINUOUS
 10
5.462160
 20
1.484560
  0
VERTEX
  8
0
  6
CONTINUOUS
 10
6.204440
 20
1.482360
  0
VERTEX
  8
0
  6
CONTINUOUS
 10
6.186840
 20
1.463440
  0
VERTEX
  8
0
  6
CONTINUOUS
 10
5.445000
 20
1.465640
  0
VERTEX
  8
0
  6
CONTINUOUS
 10
5.462160
 20
1.484560
  0
SEQEND
  8
0
  0
SOLID
  8
0
 62
    15
 10
5.445000
 20
1.465640
 11
6.186840
 21
1.463440
 12
5.423440
 22
1.448920
 13
6.165720
 23
1.446720
  0
POLYLINE
  8
0
  6
CONTINUOUS
 66
     1
 40
0.000000
 41
0.000000
  0
VERTEX
  8
0
  6
CONTINUOUS
 10
5.445000
 20
1.465640
  0
VERTEX
  8
0
  6
CONTINUOUS
 10
6.186840
 20
1.463440
  0
VERTEX
  8
0
  6
CONTINUOUS
 10
6.165720
 20
1.446720
  0
VERTEX
  8
0
  6
CONTINUOUS
 10
5.423440
 20
1.448920
  0
VERTEX
  8
0
  6
CONTINUOUS
 10
5.445000
 20
1.465640
  0
SEQEND
  8
0
  0
SOLID
  8
0
 62
    15
 10
5.423440
 20
1.448920
 11
6.165720
 21
1.446720
 12
5.398360
 22
1.434840
 13
6.140640
 23
1.432640
  0
POLYLINE
  8
0
  6
CONTINUOUS
 66
     1
 40
0.000000
 41
0.000000
  0
VERTEX
  8
0
  6
CONTINUOUS
 10
5.423440
 20
1.448920
  0
VERTEX
  8
0
  6
CONTINUOUS
 10
6.165720
 20
1.446720
  0
VERTEX
  8
0
  6
CONTINUOUS
 10
6.140640
 20
1.432640
  0
VERTEX
  8
0
  6
CONTINUOUS
 10
5.398360
 20
1.434840
  0
VERTEX
  8
0
  6
CONTINUOUS
 10
5.423440
 20
1.448920
  0
SEQEND
  8
0
  0
SOLID
  8
0
 62
    15
 10
5.398360
 20
1.434840
 11
6.140640
 21
1.432640
 12
5.368880
 22
1.423400
 13
6.111160
 23
1.421200
  0
POLYLINE
  8
0
  6
CONTINUOUS
 66
     1
 40
0.000000
 41
0.000000
  0
VERTEX
  8
0
  6
CONTINUOUS
 10
5.398360
 20
1.434840
  0
VERTEX
  8
0
  6
CONTINUOUS
 10
6.140640
 20
1.432640
  0
VERTEX
  8
0
  6
CONTINUOUS
 10
6.111160
 20
1.421200
  0
VERTEX
  8
0
  6
CONTINUOUS
 10
5.368880
 20
1.423400
  0
VERTEX
  8
0
  6
CONTINUOUS
 10
5.398360
 20
1.434840
  0
SEQEND
  8
0
  0
SOLID
  8
0
 62
    15
 10
5.368880
 20
1.423400
 11
6.111160
 21
1.421200
 12
5.335880
 22
1.415040
 13
6.078160
 23
1.412840
  0
POLYLINE
  8
0
  6
CONTINUOUS
 66
     1
 40
0.000000
 41
0.000000
  0
VERTEX
  8
0
  6
CONTINUOUS
 10
5.368880
 20
1.423400
  0
VERTEX
  8
0
  6
CONTINUOUS
 10
6.111160
 20
1.421200
  0
VERTEX
  8
0
  6
CONTINUOUS
 10
6.078160
 20
1.412840
  0
VERTEX
  8
0
  6
CONTINUOUS
 10
5.335880
 20
1.415040
  0
VERTEX
  8
0
  6
CONTINUOUS
 10
5.368880
 20
1.423400
  0
SEQEND
  8
0
  0
SOLID
  8
0
 62
    15
 10
5.335880
 20
1.415040
 11
6.078160
 21
1.412840
 12
5.298920
 22
1.409760
 13
6.041200
 23
1.407560
  0
POLYLINE
  8
0
  6
CONTINUOUS
 66
     1
 40
0.000000
 41
0.000000
  0
VERTEX
  8
0
  6
CONTINUOUS
 10
5.335880
 20
1.415040
  0
VERTEX
  8
0
  6
CONTINUOUS
 10
6.078160
 20
1.412840
  0
VERTEX
  8
0
  6
CONTINUOUS
 10
6.041200
 20
1.407560
  0
VERTEX
  8
0
  6
CONTINUOUS
 10
5.298920
 20
1.409760
  0
VERTEX
  8
0
  6
CONTINUOUS
 10
5.335880
 20
1.415040
  0
SEQEND
  8
0
  0
SOLID
  8
0
 62
    15
 10
5.258000
 20
1.408000
 11
5.999840
 21
1.405800
 12
4.616920
 22
1.408000
 13
5.359200
 23
1.405800
  0
POLYLINE
  8
0
  6
CONTINUOUS
 66
     1
 40
0.000000
 41
0.000000
  0
VERTEX
  8
0
  6
CONTINUOUS
 10
5.258000
 20
1.408000
  0
VERTEX
  8
0
  6
CONTINUOUS
 10
5.999840
 20
1.405800
  0
VERTEX
  8
0
  6
CONTINUOUS
 10
5.359200
 20
1.405800
  0
VERTEX
  8
0
  6
CONTINUOUS
 10
4.616920
 20
1.408000
  0
VERTEX
  8
0
  6
CONTINUOUS
 10
5.258000
 20
1.408000
  0
SEQEND
  8
0
  0
SOLID
  8
0
 62
    15
 10
5.298920
 20
1.409760
 11
6.041200
 21
1.407560
 12
5.258000
 22
1.408000
 13
5.999840
 23
1.405800
  0
POLYLINE
  8
0
  6
CONTINUOUS
 66
     1
 40
0.000000
 41
0.000000
  0
VERTEX
  8
0
  6
CONTINUOUS
 10
5.298920
 20
1.409760
  0
VERTEX
  8
0
  6
CONTINUOUS
 10
6.041200
 20
1.407560
  0
VERTEX
  8
0
  6
CONTINUOUS
 10
5.999840
 20
1.405800
  0
VERTEX
  8
0
  6
CONTINUOUS
 10
5.258000
 20
1.408000
  0
VERTEX
  8
0
  6
CONTINUOUS
 10
5.298920
 20
1.409760
  0
SEQEND
  8
0
  0
POLYLINE
  8
0
  6
CONTINUOUS
 66
     1
 40
0.000000
 41
0.000000
  0
VERTEX
  8
0
  6
CONTINUOUS
 10
4.616920
 20
2.031040
  0
VERTEX
  8
0
  6
CONTINUOUS
 10
4.697880
 20
2.029280
  0
VERTEX
  8
0
  6
CONTINUOUS
 10
4.774880
 20
2.024000
  0
VERTEX
  8
0
  6
CONTINUOUS
 10
4.848360
 20
2.015640
  0
VERTEX
  8
0
  6
CONTINUOUS
 10
4.917440
 20
2.004200
  0
VERTEX
  8
0
  6
CONTINUOUS
 10
4.982560
 20
1.990120
  0
VERTEX
  8
0
  6
CONTINUOUS
 10
5.044160
 20
1.973400
  0
VERTEX
  8
0
  6
CONTINUOUS
 10
5.101360
 20
1.954920
  0
VERTEX
  8
0
  6
CONTINUOUS
 10
5.155040
 20
1.933800
  0
VERTEX
  8
0
  6
CONTINUOUS
 10
5.204320
 20
1.910920
  0
VERTEX
  8
0
  6
CONTINUOUS
 10
5.250080
 20
1.886720
  0
VERTEX
  8
0
  6
CONTINUOUS
 10
5.291880
 20
1.860760
  0
VERTEX
  8
0
  6
CONTINUOUS
 10
5.329720
 20
1.833920
  0
VERTEX
  8
0
  6
CONTINUOUS
 10
5.363600
 20
1.806200
  0
VERTEX
  8
0
  6
CONTINUOUS
 10
5.393080
 20
1.777600
  0
VERTEX
  8
0
  6
CONTINUOUS
 10
5.419040
 20
1.748560
  0
VERTEX
  8
0
  6
CONTINUOUS
 10
5.441040
 20
1.719520
  0
VERTEX
  8
0
  6
CONTINUOUS
 10
5.459520
 20
1.690480
  0
VERTEX
  8
0
  6
CONTINUOUS
 10
5.473600
 20
1.661440
  0
VERTEX
  8
0
  6
CONTINUOUS
 10
5.483720
 20
1.632840
  0
VERTEX
  8
0
  6
CONTINUOUS
 10
5.489880
 20
1.605120
  0
VERTEX
  8
0
  6
CONTINUOUS
 10
5.492520
 20
1.578280
  0
VERTEX
  8
0
  6
CONTINUOUS
 10
5.490760
 20
1.552760
  0
VERTEX
  8
0
  6
CONTINUOUS
 10
5.485040
 20
1.528120
  0
VERTEX
  8
0
  6
CONTINUOUS
 10
5.475800
 20
1.505240
  0
VERTEX
  8
0
  6
CONTINUOUS
 10
5.462160
 20
1.484560
  0
VERTEX
  8
0
  6
CONTINUOUS
 10
5.445000
 20
1.465640
  0
VERTEX
  8
0
  6
CONTINUOUS
 10
5.423440
 20
1.448920
  0
VERTEX
  8
0
  6
CONTINUOUS
 10
5.398360
 20
1.434840
  0
VERTEX
  8
0
  6
CONTINUOUS
 10
5.368880
 20
1.423400
  0
VERTEX
  8
0
  6
CONTINUOUS
 10
5.335880
 20
1.415040
  0
VERTEX
  8
0
  6
CONTINUOUS
 10
5.298920
 20
1.409760
  0
VERTEX
  8
0
  6
CONTINUOUS
 10
5.258000
 20
1.408000
  0
VERTEX
  8
0
  6
CONTINUOUS
 10
4.616920
 20
1.408000
  0
VERTEX
  8
0
  6
CONTINUOUS
 10
4.616920
 20
2.031040
  0
SEQEND
  8
0
  0
TEXT
  8
0
 10
5.084640
 20
1.163800
 40
0.138119
  1
BA  1046
 41
1.000000
  7
SN0
 71
     0
 72
     5
 11
5.765975
 21
1.163800
  0
TEXT
  8
0
 10
5.049000
 20
0.972400
 40
0.138119
  1
5/8" x 7/8"
 41
1.000000
  7
SN0
 71
     0
 72
     5
 11
5.800763
 21
0.972400
  0
POLYLINE
  8
0
  6
CONTINUOUS
 66
     1
 40
0.014080
 41
0.014080
  0
VERTEX
  8
0
  6
CONTINUOUS
 10
6.620240
 20
1.944360
  0
VERTEX
  8
0
  6
CONTINUOUS
 10
6.701200
 20
1.942600
  0
VERTEX
  8
0
  6
CONTINUOUS
 10
6.778200
 20
1.937320
  0
VERTEX
  8
0
  6
CONTINUOUS
 10
6.851240
 20
1.928960
  0
VERTEX
  8
0
  6
CONTINUOUS
 10
6.920760
 20
1.917520
  0
VERTEX
  8
0
  6
CONTINUOUS
 10
6.985880
 20
1.903440
  0
VERTEX
  8
0
  6
CONTINUOUS
 10
7.047480
 20
1.886720
  0
VERTEX
  8
0
  6
CONTINUOUS
 10
7.131960
 20
1.857680
  0
VERTEX
  8
0
  6
CONTINUOUS
 10
7.183440
 20
1.835680
  0
VERTEX
  8
0
  6
CONTINUOUS
 10
7.230960
 20
1.811920
  0
VERTEX
  8
0
  6
CONTINUOUS
 10
7.295200
 20
1.774080
  0
VERTEX
  8
0
  6
CONTINUOUS
 10
7.333040
 20
1.747240
  0
VERTEX
  8
0
  6
CONTINUOUS
 10
7.382320
 20
1.705000
  0
VERTEX
  8
0
  6
CONTINUOUS
 10
7.410040
 20
1.676400
  0
VERTEX
  8
0
  6
CONTINUOUS
 10
7.434240
 20
1.647360
  0
VERTEX
  8
0
  6
CONTINUOUS
 10
7.462840
 20
1.603360
  0
VERTEX
  8
0
  6
CONTINUOUS
 10
7.482640
 20
1.560240
  0
VERTEX
  8
0
  6
CONTINUOUS
 10
7.491000
 20
1.532080
  0
VERTEX
  8
0
  6
CONTINUOUS
 10
7.494960
 20
1.504360
  0
VERTEX
  8
0
  6
CONTINUOUS
 10
7.495400
 20
1.478400
  0
VERTEX
  8
0
  6
CONTINUOUS
 10
7.491880
 20
1.453320
  0
VERTEX
  8
0
  6
CONTINUOUS
 10
7.484400
 20
1.429560
  0
VERTEX
  8
0
  6
CONTINUOUS
 10
7.472960
 20
1.407560
  0
VERTEX
  8
0
  6
CONTINUOUS
 10
7.457560
 20
1.387760
  0
VERTEX
  8
0
  6
CONTINUOUS
 10
7.438200
 20
1.369720
  0
VERTEX
  8
0
  6
CONTINUOUS
 10
7.414880
 20
1.354320
  0
VERTEX
  8
0
  6
CONTINUOUS
 10
7.387600
 20
1.341560
  0
VERTEX
  8
0
  6
CONTINUOUS
 10
7.356360
 20
1.331880
  0
VERTEX
  8
0
  6
CONTINUOUS
 10
7.321600
 20
1.324840
  0
VERTEX
  8
0
  6
CONTINUOUS
 10
7.282440
 20
1.321320
  0
VERTEX
  8
0
  6
CONTINUOUS
 10
6.620240
 20
1.320880
  0
VERTEX
  8
0
  6
CONTINUOUS
 10
6.620240
 20
1.944360
  0
SEQEND
  8
0
  0
TEXT
  8
0
 10
6.669520
 20
1.101320
 40
0.138119
  1
BA  1046
 41
1.000000
  7
SN0
 71
     0
 72
     5
 11
7.350855
 21
1.101320
  0
TEXT
  8
0
 10
6.633880
 20
0.909920
 40
0.138119
  1
5/8" x 7/8"
 41
1.000000
  7
SN0
 71
     0
 72
     5
 11
7.385643
 21
0.909920
  0
ENDSEC
  0
EOF
