  0
SECTION
  2
HEADER
  9
$ACADVER
  1
AC1006
  9
$EXTMIN
 10
1.904320
 20
0.472120
  9
$EXTMAX
 10
7.582080
 20
3.696880
  9
$LTSCALE
 40
0.044000
  9
$PDMODE
 70
    35
  9
$PDSIZE
 40
0.035200
  0
ENDSEC
  0
SECTION
  2
TABLES
  0
TABLE
  2
LTYPE
 70
     9
  0
LTYPE
  2
CONTINUOUS
 70
    64
  3
Solid line
 72
    65
 73
     0
 40
0.000000
  0
LTYPE
  2
DASHED
 70
    64
  3
__ __ __ __ __ __ __ __ __ __ __ __ __ __ __
 72
    65
 73
     2
 40
0.000330
 49
0.000220
 49
-0.000110
  0
LTYPE
  2
HIDDEN
 70
    64
  3
 _ _ _ _ _ _ _ _ _ _ _ _ _ _ _ _ _ _ _ _ _ _
 72
    65
 73
     2
 40
0.000165
 49
0.000110
 49
-0.000055
  0
LTYPE
  2
CENTER
 70
    64
  3
____ _ ____ _ ____ _ ____ _ ____ _ ____ _ ____
 72
    65
 73
     4
 40
0.000880
 49
0.000550
 49
-0.000110
 49
0.000110
 49
-0.000110
  0
LTYPE
  2
PHANTOM
 70
    64
  3
_____ _ _ _____ _ _ _____ _ _ _____ _ _ ____
 72
    65
 73
     6
 40
0.001100
 49
0.000550
 49
-0.000110
 49
0.000110
 49
-0.000110
 49
0.000110
 49
-0.000110
  0
LTYPE
  2
DOT
 70
    64
  3
...............................................
 72
    65
 73
     2
 40
0.000110
 49
0.000000
 49
-0.000110
  0
LTYPE
  2
DASHDOT
 70
    64
  3
__ . __ . __ . __ . __ . __ . __ . __ . __ . __
 72
    65
 73
     4
 40
0.000440
 49
0.000220
 49
-0.000110
 49
0.000000
 49
-0.000110
  0
LTYPE
  2
BORDER
 70
    64
  3
__ __ . __ __ . __ __ . __ __ . __ __ . __ __
 72
    65
 73
     6
 40
0.000770
 49
0.000220
 49
-0.000110
 49
0.000220
 49
-0.000110
 49
0.000000
 49
-0.000110
  0
LTYPE
  2
DIVIDE
 70
    64
  3
__ . . __ . . __ . . __ . . __ . . __ . . __
 72
    65
 73
     6
 40
0.000550
 49
0.000220
 49
-0.000110
 49
0.000000
 49
-0.000110
 49
0.000000
 49
-0.000110
  0
LTYPE
  2
DOTDOT
 70
    64
  3
 . .  . .  . .  . .  . .  . . 
 72
    65
 73
     5
 40
0.000242
 49
-0.000110
 49
0.000000
 49
-0.000110
 49
0.000000
 49
-0.000110
  0
ENDTAB
  0
TABLE
  2
STYLE
 70
     2
  0
STYLE
 70
     0
  2
SN0
 40
0.000000
 41
0.000440
 50
0.000000
 71
     0
 42
0.000000
  3
ROMAND
  0
STYLE
 70
    68
  2
SV0
 40
0.000000
 41
0.000440
 50
0.000000
 71
     0
 42
0.000000
  3
ROMAND
  0
ENDTAB
  0
TABLE
  2
LAYER
 70
     3
  0
LAYER
  2
FOREGROUND
 70
    64
 62
     7
  6
CONTINUOUS
  0
LAYER
  2
BACKGROUND
 70
    65
 62
    -7
  6
CONTINUOUS
  0
LAYER
  2
0
 70
    64
 62
     7
  6
CONTINUOUS
  0
ENDTAB
  0
ENDSEC
  0
SECTION
  2
ENTITIES
  0
POLYLINE
  8
FOREGROUND
  6
CONTINUOUS
 66
     1
 40
0.000000
 41
0.000000
  0
VERTEX
  8
FOREGROUND
  6
CONTINUOUS
 10
0.000000
 20
4.169000
  0
VERTEX
  8
FOREGROUND
  6
CONTINUOUS
 10
8.499920
 20
4.169000
  0
VERTEX
  8
FOREGROUND
  6
CONTINUOUS
 10
8.499920
 20
-6.831000
  0
VERTEX
  8
FOREGROUND
  6
CONTINUOUS
 10
0.000000
 20
-6.831000
  0
VERTEX
  8
FOREGROUND
  6
CONTINUOUS
 10
0.000000
 20
4.169000
  0
SEQEND
  8
0
  0
POLYLINE
  8
FOREGROUND
  6
CONTINUOUS
 66
     1
 40
0.000000
 41
0.000000
  0
VERTEX
  8
FOREGROUND
  6
CONTINUOUS
 10
0.000000
 20
4.169000
  0
VERTEX
  8
FOREGROUND
  6
CONTINUOUS
 10
8.499920
 20
4.169000
  0
VERTEX
  8
FOREGROUND
  6
CONTINUOUS
 10
8.499920
 20
-6.831000
  0
VERTEX
  8
FOREGROUND
  6
CONTINUOUS
 10
0.000000
 20
-6.831000
  0
VERTEX
  8
FOREGROUND
  6
CONTINUOUS
 10
0.000000
 20
4.169000
  0
SEQEND
  8
0
  0
SOLID
  8
0
 62
    15
 10
3.927880
 20
2.175800
 11
4.574680
 21
2.554200
 12
4.002680
 22
2.085160
 13
4.649480
 23
2.463120
  0
POLYLINE
  8
0
  6
CONTINUOUS
 66
     1
 40
0.000000
 41
0.000000
  0
VERTEX
  8
0
  6
CONTINUOUS
 10
3.927880
 20
2.175800
  0
VERTEX
  8
0
  6
CONTINUOUS
 10
4.574680
 20
2.554200
  0
VERTEX
  8
0
  6
CONTINUOUS
 10
4.649480
 20
2.463120
  0
VERTEX
  8
0
  6
CONTINUOUS
 10
4.002680
 20
2.085160
  0
VERTEX
  8
0
  6
CONTINUOUS
 10
3.927880
 20
2.175800
  0
SEQEND
  8
0
  0
SOLID
  8
0
 62
    15
 10
1.904760
 20
3.315840
 11
2.551560
 21
3.693800
 12
1.909600
 22
3.318040
 13
2.556400
 23
3.696440
  0
POLYLINE
  8
0
  6
CONTINUOUS
 66
     1
 40
0.000000
 41
0.000000
  0
VERTEX
  8
0
  6
CONTINUOUS
 10
1.904760
 20
3.315840
  0
VERTEX
  8
0
  6
CONTINUOUS
 10
2.551560
 20
3.693800
  0
VERTEX
  8
0
  6
CONTINUOUS
 10
2.556400
 20
3.696440
  0
VERTEX
  8
0
  6
CONTINUOUS
 10
1.909600
 20
3.318040
  0
VERTEX
  8
0
  6
CONTINUOUS
 10
1.904760
 20
3.315840
  0
SEQEND
  8
0
  0
SOLID
  8
0
 62
    15
 10
1.909600
 20
3.318040
 11
2.556400
 21
3.696440
 12
3.265240
 22
3.318040
 13
3.912040
 23
3.696440
  0
POLYLINE
  8
0
  6
CONTINUOUS
 66
     1
 40
0.000000
 41
0.000000
  0
VERTEX
  8
0
  6
CONTINUOUS
 10
1.909600
 20
3.318040
  0
VERTEX
  8
0
  6
CONTINUOUS
 10
2.556400
 20
3.696440
  0
VERTEX
  8
0
  6
CONTINUOUS
 10
3.912040
 20
3.696440
  0
VERTEX
  8
0
  6
CONTINUOUS
 10
3.265240
 20
3.318040
  0
VERTEX
  8
0
  6
CONTINUOUS
 10
1.909600
 20
3.318040
  0
SEQEND
  8
0
  0
SOLID
  8
0
 62
    15
 10
3.265240
 20
3.318040
 11
3.912040
 21
3.696440
 12
3.265240
 22
2.505360
 13
3.912040
 23
2.883760
  0
POLYLINE
  8
0
  6
CONTINUOUS
 66
     1
 40
0.000000
 41
0.000000
  0
VERTEX
  8
0
  6
CONTINUOUS
 10
3.265240
 20
3.318040
  0
VERTEX
  8
0
  6
CONTINUOUS
 10
3.912040
 20
3.696440
  0
VERTEX
  8
0
  6
CONTINUOUS
 10
3.912040
 20
2.883760
  0
VERTEX
  8
0
  6
CONTINUOUS
 10
3.265240
 20
2.505360
  0
VERTEX
  8
0
  6
CONTINUOUS
 10
3.265240
 20
3.318040
  0
SEQEND
  8
0
  0
SOLID
  8
0
 62
    15
 10
3.265240
 20
2.505360
 11
3.912040
 21
2.883760
 12
3.424080
 22
2.476760
 13
4.070880
 23
2.855160
  0
POLYLINE
  8
0
  6
CONTINUOUS
 66
     1
 40
0.000000
 41
0.000000
  0
VERTEX
  8
0
  6
CONTINUOUS
 10
3.265240
 20
2.505360
  0
VERTEX
  8
0
  6
CONTINUOUS
 10
3.912040
 20
2.883760
  0
VERTEX
  8
0
  6
CONTINUOUS
 10
4.070880
 20
2.855160
  0
VERTEX
  8
0
  6
CONTINUOUS
 10
3.424080
 20
2.476760
  0
VERTEX
  8
0
  6
CONTINUOUS
 10
3.265240
 20
2.505360
  0
SEQEND
  8
0
  0
SOLID
  8
0
 62
    15
 10
3.424080
 20
2.476760
 11
4.070880
 21
2.855160
 12
3.594360
 22
2.416920
 13
4.241160
 23
2.795320
  0
POLYLINE
  8
0
  6
CONTINUOUS
 66
     1
 40
0.000000
 41
0.000000
  0
VERTEX
  8
0
  6
CONTINUOUS
 10
3.424080
 20
2.476760
  0
VERTEX
  8
0
  6
CONTINUOUS
 10
4.070880
 20
2.855160
  0
VERTEX
  8
0
  6
CONTINUOUS
 10
4.241160
 20
2.795320
  0
VERTEX
  8
0
  6
CONTINUOUS
 10
3.594360
 20
2.416920
  0
VERTEX
  8
0
  6
CONTINUOUS
 10
3.424080
 20
2.476760
  0
SEQEND
  8
0
  0
SOLID
  8
0
 62
    15
 10
3.594360
 20
2.416920
 11
4.241160
 21
2.795320
 12
3.765520
 22
2.319240
 13
4.412320
 23
2.697200
  0
POLYLINE
  8
0
  6
CONTINUOUS
 66
     1
 40
0.000000
 41
0.000000
  0
VERTEX
  8
0
  6
CONTINUOUS
 10
3.594360
 20
2.416920
  0
VERTEX
  8
0
  6
CONTINUOUS
 10
4.241160
 20
2.795320
  0
VERTEX
  8
0
  6
CONTINUOUS
 10
4.412320
 20
2.697200
  0
VERTEX
  8
0
  6
CONTINUOUS
 10
3.765520
 20
2.319240
  0
VERTEX
  8
0
  6
CONTINUOUS
 10
3.594360
 20
2.416920
  0
SEQEND
  8
0
  0
SOLID
  8
0
 62
    15
 10
3.765520
 20
2.319240
 11
4.412320
 21
2.697200
 12
3.848240
 22
2.253680
 13
4.495040
 23
2.631640
  0
POLYLINE
  8
0
  6
CONTINUOUS
 66
     1
 40
0.000000
 41
0.000000
  0
VERTEX
  8
0
  6
CONTINUOUS
 10
3.765520
 20
2.319240
  0
VERTEX
  8
0
  6
CONTINUOUS
 10
4.412320
 20
2.697200
  0
VERTEX
  8
0
  6
CONTINUOUS
 10
4.495040
 20
2.631640
  0
VERTEX
  8
0
  6
CONTINUOUS
 10
3.848240
 20
2.253680
  0
VERTEX
  8
0
  6
CONTINUOUS
 10
3.765520
 20
2.319240
  0
SEQEND
  8
0
  0
SOLID
  8
0
 62
    15
 10
3.848240
 20
2.253680
 11
4.495040
 21
2.631640
 12
3.927880
 22
2.175800
 13
4.574680
 23
2.554200
  0
POLYLINE
  8
0
  6
CONTINUOUS
 66
     1
 40
0.000000
 41
0.000000
  0
VERTEX
  8
0
  6
CONTINUOUS
 10
3.848240
 20
2.253680
  0
VERTEX
  8
0
  6
CONTINUOUS
 10
4.495040
 20
2.631640
  0
VERTEX
  8
0
  6
CONTINUOUS
 10
4.574680
 20
2.554200
  0
VERTEX
  8
0
  6
CONTINUOUS
 10
3.927880
 20
2.175800
  0
VERTEX
  8
0
  6
CONTINUOUS
 10
3.848240
 20
2.253680
  0
SEQEND
  8
0
  0
SOLID
  8
0
 62
    15
 10
4.293080
 20
1.008480
 11
4.939880
 21
1.386880
 12
4.293080
 22
0.996600
 13
4.939880
 23
1.375000
  0
POLYLINE
  8
0
  6
CONTINUOUS
 66
     1
 40
0.000000
 41
0.000000
  0
VERTEX
  8
0
  6
CONTINUOUS
 10
4.293080
 20
1.008480
  0
VERTEX
  8
0
  6
CONTINUOUS
 10
4.939880
 20
1.386880
  0
VERTEX
  8
0
  6
CONTINUOUS
 10
4.939880
 20
1.375000
  0
VERTEX
  8
0
  6
CONTINUOUS
 10
4.293080
 20
0.996600
  0
VERTEX
  8
0
  6
CONTINUOUS
 10
4.293080
 20
1.008480
  0
SEQEND
  8
0
  0
SOLID
  8
0
 62
    15
 10
4.002680
 20
2.085160
 11
4.649480
 21
2.463120
 12
4.071760
 22
1.980440
 13
4.718560
 23
2.358400
  0
POLYLINE
  8
0
  6
CONTINUOUS
 66
     1
 40
0.000000
 41
0.000000
  0
VERTEX
  8
0
  6
CONTINUOUS
 10
4.002680
 20
2.085160
  0
VERTEX
  8
0
  6
CONTINUOUS
 10
4.649480
 20
2.463120
  0
VERTEX
  8
0
  6
CONTINUOUS
 10
4.718560
 20
2.358400
  0
VERTEX
  8
0
  6
CONTINUOUS
 10
4.071760
 20
1.980440
  0
VERTEX
  8
0
  6
CONTINUOUS
 10
4.002680
 20
2.085160
  0
SEQEND
  8
0
  0
SOLID
  8
0
 62
    15
 10
4.071760
 20
1.980440
 11
4.718560
 21
2.358400
 12
4.133800
 22
1.860760
 13
4.780160
 23
2.239160
  0
POLYLINE
  8
0
  6
CONTINUOUS
 66
     1
 40
0.000000
 41
0.000000
  0
VERTEX
  8
0
  6
CONTINUOUS
 10
4.071760
 20
1.980440
  0
VERTEX
  8
0
  6
CONTINUOUS
 10
4.718560
 20
2.358400
  0
VERTEX
  8
0
  6
CONTINUOUS
 10
4.780160
 20
2.239160
  0
VERTEX
  8
0
  6
CONTINUOUS
 10
4.133800
 20
1.860760
  0
VERTEX
  8
0
  6
CONTINUOUS
 10
4.071760
 20
1.980440
  0
SEQEND
  8
0
  0
SOLID
  8
0
 62
    15
 10
4.133800
 20
1.860760
 11
4.780160
 21
2.239160
 12
4.187040
 22
1.725240
 13
4.833840
 23
2.103640
  0
POLYLINE
  8
0
  6
CONTINUOUS
 66
     1
 40
0.000000
 41
0.000000
  0
VERTEX
  8
0
  6
CONTINUOUS
 10
4.133800
 20
1.860760
  0
VERTEX
  8
0
  6
CONTINUOUS
 10
4.780160
 20
2.239160
  0
VERTEX
  8
0
  6
CONTINUOUS
 10
4.833840
 20
2.103640
  0
VERTEX
  8
0
  6
CONTINUOUS
 10
4.187040
 20
1.725240
  0
VERTEX
  8
0
  6
CONTINUOUS
 10
4.133800
 20
1.860760
  0
SEQEND
  8
0
  0
SOLID
  8
0
 62
    15
 10
4.187040
 20
1.725240
 11
4.833840
 21
2.103640
 12
4.231040
 22
1.573440
 13
4.877840
 23
1.951400
  0
POLYLINE
  8
0
  6
CONTINUOUS
 66
     1
 40
0.000000
 41
0.000000
  0
VERTEX
  8
0
  6
CONTINUOUS
 10
4.187040
 20
1.725240
  0
VERTEX
  8
0
  6
CONTINUOUS
 10
4.833840
 20
2.103640
  0
VERTEX
  8
0
  6
CONTINUOUS
 10
4.877840
 20
1.951400
  0
VERTEX
  8
0
  6
CONTINUOUS
 10
4.231040
 20
1.573440
  0
VERTEX
  8
0
  6
CONTINUOUS
 10
4.187040
 20
1.725240
  0
SEQEND
  8
0
  0
SOLID
  8
0
 62
    15
 10
4.231040
 20
1.573440
 11
4.877840
 21
1.951400
 12
4.264040
 22
1.403600
 13
4.910840
 23
1.782000
  0
POLYLINE
  8
0
  6
CONTINUOUS
 66
     1
 40
0.000000
 41
0.000000
  0
VERTEX
  8
0
  6
CONTINUOUS
 10
4.231040
 20
1.573440
  0
VERTEX
  8
0
  6
CONTINUOUS
 10
4.877840
 20
1.951400
  0
VERTEX
  8
0
  6
CONTINUOUS
 10
4.910840
 20
1.782000
  0
VERTEX
  8
0
  6
CONTINUOUS
 10
4.264040
 20
1.403600
  0
VERTEX
  8
0
  6
CONTINUOUS
 10
4.231040
 20
1.573440
  0
SEQEND
  8
0
  0
SOLID
  8
0
 62
    15
 10
4.264040
 20
1.403600
 11
4.910840
 21
1.782000
 12
4.285160
 22
1.215720
 13
4.931960
 23
1.594120
  0
POLYLINE
  8
0
  6
CONTINUOUS
 66
     1
 40
0.000000
 41
0.000000
  0
VERTEX
  8
0
  6
CONTINUOUS
 10
4.264040
 20
1.403600
  0
VERTEX
  8
0
  6
CONTINUOUS
 10
4.910840
 20
1.782000
  0
VERTEX
  8
0
  6
CONTINUOUS
 10
4.931960
 20
1.594120
  0
VERTEX
  8
0
  6
CONTINUOUS
 10
4.285160
 20
1.215720
  0
VERTEX
  8
0
  6
CONTINUOUS
 10
4.264040
 20
1.403600
  0
SEQEND
  8
0
  0
SOLID
  8
0
 62
    15
 10
4.285160
 20
1.215720
 11
4.931960
 21
1.594120
 12
4.293080
 22
1.008480
 13
4.939880
 23
1.386880
  0
POLYLINE
  8
0
  6
CONTINUOUS
 66
     1
 40
0.000000
 41
0.000000
  0
VERTEX
  8
0
  6
CONTINUOUS
 10
4.285160
 20
1.215720
  0
VERTEX
  8
0
  6
CONTINUOUS
 10
4.931960
 20
1.594120
  0
VERTEX
  8
0
  6
CONTINUOUS
 10
4.939880
 20
1.386880
  0
VERTEX
  8
0
  6
CONTINUOUS
 10
4.293080
 20
1.008480
  0
VERTEX
  8
0
  6
CONTINUOUS
 10
4.285160
 20
1.215720
  0
SEQEND
  8
0
  0
SOLID
  8
0
 62
    15
 10
4.293520
 20
0.997040
 11
4.939880
 21
1.375440
 12
4.293520
 22
0.984720
 13
4.939880
 23
1.362680
  0
POLYLINE
  8
0
  6
CONTINUOUS
 66
     1
 40
0.000000
 41
0.000000
  0
VERTEX
  8
0
  6
CONTINUOUS
 10
4.293520
 20
0.997040
  0
VERTEX
  8
0
  6
CONTINUOUS
 10
4.939880
 20
1.375440
  0
VERTEX
  8
0
  6
CONTINUOUS
 10
4.939880
 20
1.362680
  0
VERTEX
  8
0
  6
CONTINUOUS
 10
4.293520
 20
0.984720
  0
VERTEX
  8
0
  6
CONTINUOUS
 10
4.293520
 20
0.997040
  0
SEQEND
  8
0
  0
POLYLINE
  8
0
  6
CONTINUOUS
 66
     1
 40
0.000000
 41
0.000000
  0
VERTEX
  8
0
  6
CONTINUOUS
 10
4.293520
 20
0.997040
  0
VERTEX
  8
0
  6
CONTINUOUS
 10
4.293520
 20
0.984720
  0
VERTEX
  8
0
  6
CONTINUOUS
 10
1.904760
 20
0.984720
  0
VERTEX
  8
0
  6
CONTINUOUS
 10
1.904760
 20
3.315840
  0
VERTEX
  8
0
  6
CONTINUOUS
 10
1.909600
 20
3.318040
  0
VERTEX
  8
0
  6
CONTINUOUS
 10
3.265240
 20
3.318040
  0
VERTEX
  8
0
  6
CONTINUOUS
 10
3.265240
 20
2.505360
  0
VERTEX
  8
0
  6
CONTINUOUS
 10
3.424080
 20
2.476760
  0
VERTEX
  8
0
  6
CONTINUOUS
 10
3.594360
 20
2.416920
  0
VERTEX
  8
0
  6
CONTINUOUS
 10
3.765520
 20
2.319240
  0
VERTEX
  8
0
  6
CONTINUOUS
 10
3.848240
 20
2.253680
  0
VERTEX
  8
0
  6
CONTINUOUS
 10
3.927880
 20
2.175800
  0
VERTEX
  8
0
  6
CONTINUOUS
 10
4.002680
 20
2.085160
  0
VERTEX
  8
0
  6
CONTINUOUS
 10
4.071760
 20
1.980440
  0
VERTEX
  8
0
  6
CONTINUOUS
 10
4.133800
 20
1.860760
  0
VERTEX
  8
0
  6
CONTINUOUS
 10
4.187040
 20
1.725240
  0
VERTEX
  8
0
  6
CONTINUOUS
 10
4.231040
 20
1.573440
  0
VERTEX
  8
0
  6
CONTINUOUS
 10
4.264040
 20
1.403600
  0
VERTEX
  8
0
  6
CONTINUOUS
 10
4.285160
 20
1.215720
  0
VERTEX
  8
0
  6
CONTINUOUS
 10
4.293080
 20
1.008480
  0
VERTEX
  8
0
  6
CONTINUOUS
 10
4.293080
 20
0.996600
  0
VERTEX
  8
0
  6
CONTINUOUS
 10
4.293520
 20
0.997040
  0
SEQEND
  8
0
  0
TEXT
  8
0
 10
3.080880
 20
0.707520
 40
0.137927
  1
BA  1045
 41
1.000000
  7
SN0
 71
     0
 72
     5
 11
3.763631
 21
0.707520
  0
TEXT
  8
0
 10
2.897400
 20
0.516120
 40
0.137927
  1
2-3/8" x 2-1/2"
 41
1.000000
  7
SN0
 71
     0
 72
     5
 11
3.945798
 21
0.516120
  0
POLYLINE
  8
0
  6
CONTINUOUS
 66
     1
 40
0.014080
 41
0.014080
  0
VERTEX
  8
0
  6
CONTINUOUS
 10
7.575040
 20
1.287000
  0
VERTEX
  8
0
  6
CONTINUOUS
 10
7.574600
 20
1.286560
  0
VERTEX
  8
0
  6
CONTINUOUS
 10
7.574160
 20
1.352120
  0
VERTEX
  8
0
  6
CONTINUOUS
 10
7.570200
 20
1.455520
  0
VERTEX
  8
0
  6
CONTINUOUS
 10
7.562720
 20
1.554520
  0
VERTEX
  8
0
  6
CONTINUOUS
 10
7.552160
 20
1.648240
  0
VERTEX
  8
0
  6
CONTINUOUS
 10
7.538520
 20
1.737560
  0
VERTEX
  8
0
  6
CONTINUOUS
 10
7.521800
 20
1.822480
  0
VERTEX
  8
0
  6
CONTINUOUS
 10
7.502440
 20
1.902560
  0
VERTEX
  8
0
  6
CONTINUOUS
 10
7.480440
 20
1.978680
  0
VERTEX
  8
0
  6
CONTINUOUS
 10
7.455800
 20
2.050400
  0
VERTEX
  8
0
  6
CONTINUOUS
 10
7.414880
 20
2.150280
  0
VERTEX
  8
0
  6
CONTINUOUS
 10
7.384960
 20
2.211880
  0
VERTEX
  8
0
  6
CONTINUOUS
 10
7.336560
 20
2.297680
  0
VERTEX
  8
0
  6
CONTINUOUS
 10
7.284200
 20
2.374680
  0
VERTEX
  8
0
  6
CONTINUOUS
 10
7.228320
 20
2.444200
  0
VERTEX
  8
0
  6
CONTINUOUS
 10
7.169800
 20
2.505800
  0
VERTEX
  8
0
  6
CONTINUOUS
 10
7.109080
 20
2.560800
  0
VERTEX
  8
0
  6
CONTINUOUS
 10
7.046600
 20
2.608760
  0
VERTEX
  8
0
  6
CONTINUOUS
 10
6.982800
 20
2.650120
  0
VERTEX
  8
0
  6
CONTINUOUS
 10
6.918560
 20
2.686200
  0
VERTEX
  8
0
  6
CONTINUOUS
 10
6.832320
 20
2.724920
  0
VERTEX
  8
0
  6
CONTINUOUS
 10
6.747400
 20
2.754840
  0
VERTEX
  8
0
  6
CONTINUOUS
 10
6.664240
 20
2.776400
  0
VERTEX
  8
0
  6
CONTINUOUS
 10
6.584600
 20
2.790480
  0
VERTEX
  8
0
  6
CONTINUOUS
 10
6.546320
 20
2.795320
  0
VERTEX
  8
0
  6
CONTINUOUS
 10
6.546320
 20
3.607560
  0
VERTEX
  8
0
  6
CONTINUOUS
 10
5.191120
 20
3.607560
  0
VERTEX
  8
0
  6
CONTINUOUS
 10
5.186280
 20
3.605360
  0
VERTEX
  8
0
  6
CONTINUOUS
 10
5.186280
 20
1.274240
  0
VERTEX
  8
0
  6
CONTINUOUS
 10
7.574600
 20
1.274240
  0
VERTEX
  8
0
  6
CONTINUOUS
 10
7.575040
 20
1.287000
  0
SEQEND
  8
0
  0
TEXT
  8
0
 10
5.971680
 20
1.587960
 40
0.137927
  1
BA  1045
 41
1.000000
  7
SN0
 71
     0
 72
     5
 11
6.654431
 21
1.587960
  0
TEXT
  8
0
 10
5.788200
 20
1.396120
 40
0.137927
  1
2-3/8" x 2-1/2"
 41
1.000000
  7
SN0
 71
     0
 72
     5
 11
6.836598
 21
1.396120
  0
ENDSEC
  0
EOF
