  0
SECTION
  2
HEADER
  9
$ACADVER
  1
AC1006
  9
$EXTMIN
 10
4.779720
 20
0.297880
  9
$EXTMAX
 10
8.027800
 20
2.664640
  9
$LTSCALE
 40
0.044000
  9
$PDMODE
 70
    35
  9
$PDSIZE
 40
0.035200
  0
ENDSEC
  0
SECTION
  2
TABLES
  0
TABLE
  2
LTYPE
 70
     9
  0
LTYPE
  2
CONTINUOUS
 70
    64
  3
Solid line
 72
    65
 73
     0
 40
0.000000
  0
LTYPE
  2
DASHED
 70
    64
  3
__ __ __ __ __ __ __ __ __ __ __ __ __ __ __
 72
    65
 73
     2
 40
0.000330
 49
0.000220
 49
-0.000110
  0
LTYPE
  2
HIDDEN
 70
    64
  3
 _ _ _ _ _ _ _ _ _ _ _ _ _ _ _ _ _ _ _ _ _ _
 72
    65
 73
     2
 40
0.000165
 49
0.000110
 49
-0.000055
  0
LTYPE
  2
CENTER
 70
    64
  3
____ _ ____ _ ____ _ ____ _ ____ _ ____ _ ____
 72
    65
 73
     4
 40
0.000880
 49
0.000550
 49
-0.000110
 49
0.000110
 49
-0.000110
  0
LTYPE
  2
PHANTOM
 70
    64
  3
_____ _ _ _____ _ _ _____ _ _ _____ _ _ ____
 72
    65
 73
     6
 40
0.001100
 49
0.000550
 49
-0.000110
 49
0.000110
 49
-0.000110
 49
0.000110
 49
-0.000110
  0
LTYPE
  2
DOT
 70
    64
  3
...............................................
 72
    65
 73
     2
 40
0.000110
 49
0.000000
 49
-0.000110
  0
LTYPE
  2
DASHDOT
 70
    64
  3
__ . __ . __ . __ . __ . __ . __ . __ . __ . __
 72
    65
 73
     4
 40
0.000440
 49
0.000220
 49
-0.000110
 49
0.000000
 49
-0.000110
  0
LTYPE
  2
BORDER
 70
    64
  3
__ __ . __ __ . __ __ . __ __ . __ __ . __ __
 72
    65
 73
     6
 40
0.000770
 49
0.000220
 49
-0.000110
 49
0.000220
 49
-0.000110
 49
0.000000
 49
-0.000110
  0
LTYPE
  2
DIVIDE
 70
    64
  3
__ . . __ . . __ . . __ . . __ . . __ . . __
 72
    65
 73
     6
 40
0.000550
 49
0.000220
 49
-0.000110
 49
0.000000
 49
-0.000110
 49
0.000000
 49
-0.000110
  0
LTYPE
  2
DOTDOT
 70
    64
  3
 . .  . .  . .  . .  . .  . . 
 72
    65
 73
     5
 40
0.000242
 49
-0.000110
 49
0.000000
 49
-0.000110
 49
0.000000
 49
-0.000110
  0
ENDTAB
  0
TABLE
  2
STYLE
 70
     2
  0
STYLE
 70
     0
  2
SN0
 40
0.000000
 41
0.000440
 50
0.000000
 71
     0
 42
0.000000
  3
ROMAND
  0
STYLE
 70
    68
  2
SV0
 40
0.000000
 41
0.000440
 50
0.000000
 71
     0
 42
0.000000
  3
ROMAND
  0
ENDTAB
  0
TABLE
  2
LAYER
 70
     3
  0
LAYER
  2
FOREGROUND
 70
    64
 62
     7
  6
CONTINUOUS
  0
LAYER
  2
BACKGROUND
 70
    65
 62
    -7
  6
CONTINUOUS
  0
LAYER
  2
0
 70
    64
 62
     7
  6
CONTINUOUS
  0
ENDTAB
  0
ENDSEC
  0
SECTION
  2
ENTITIES
  0
POLYLINE
  8
FOREGROUND
  6
CONTINUOUS
 66
     1
 40
0.000000
 41
0.000000
  0
VERTEX
  8
FOREGROUND
  6
CONTINUOUS
 10
0.000000
 20
2.962520
  0
VERTEX
  8
FOREGROUND
  6
CONTINUOUS
 10
8.499920
 20
2.962520
  0
VERTEX
  8
FOREGROUND
  6
CONTINUOUS
 10
8.499920
 20
-8.037480
  0
VERTEX
  8
FOREGROUND
  6
CONTINUOUS
 10
0.000000
 20
-8.037480
  0
VERTEX
  8
FOREGROUND
  6
CONTINUOUS
 10
0.000000
 20
2.962520
  0
SEQEND
  8
0
  0
POLYLINE
  8
FOREGROUND
  6
CONTINUOUS
 66
     1
 40
0.000000
 41
0.000000
  0
VERTEX
  8
FOREGROUND
  6
CONTINUOUS
 10
0.000000
 20
2.962520
  0
VERTEX
  8
FOREGROUND
  6
CONTINUOUS
 10
8.499920
 20
2.962520
  0
VERTEX
  8
FOREGROUND
  6
CONTINUOUS
 10
8.499920
 20
-8.037480
  0
VERTEX
  8
FOREGROUND
  6
CONTINUOUS
 10
0.000000
 20
-8.037480
  0
VERTEX
  8
FOREGROUND
  6
CONTINUOUS
 10
0.000000
 20
2.962520
  0
SEQEND
  8
0
  0
SOLID
  8
0
 62
    15
 10
5.369320
 20
1.415040
 11
6.007320
 21
1.789040
 12
5.397920
 22
1.393920
 13
6.035920
 23
1.768360
  0
POLYLINE
  8
0
  6
CONTINUOUS
 66
     1
 40
0.000000
 41
0.000000
  0
VERTEX
  8
0
  6
CONTINUOUS
 10
5.369320
 20
1.415040
  0
VERTEX
  8
0
  6
CONTINUOUS
 10
6.007320
 20
1.789040
  0
VERTEX
  8
0
  6
CONTINUOUS
 10
6.035920
 20
1.768360
  0
VERTEX
  8
0
  6
CONTINUOUS
 10
5.397920
 20
1.393920
  0
VERTEX
  8
0
  6
CONTINUOUS
 10
5.369320
 20
1.415040
  0
SEQEND
  8
0
  0
SOLID
  8
0
 62
    15
 10
4.887080
 20
2.289760
 11
5.525080
 21
2.663760
 12
5.085080
 22
1.971640
 13
5.723080
 23
2.346080
  0
POLYLINE
  8
0
  6
CONTINUOUS
 66
     1
 40
0.000000
 41
0.000000
  0
VERTEX
  8
0
  6
CONTINUOUS
 10
4.887080
 20
2.289760
  0
VERTEX
  8
0
  6
CONTINUOUS
 10
5.525080
 20
2.663760
  0
VERTEX
  8
0
  6
CONTINUOUS
 10
5.723080
 20
2.346080
  0
VERTEX
  8
0
  6
CONTINUOUS
 10
5.085080
 20
1.971640
  0
VERTEX
  8
0
  6
CONTINUOUS
 10
4.887080
 20
2.289760
  0
SEQEND
  8
0
  0
SOLID
  8
0
 62
    15
 10
5.085080
 20
1.971640
 11
5.723080
 21
2.346080
 12
5.061320
 22
1.950520
 13
5.699760
 23
2.324520
  0
POLYLINE
  8
0
  6
CONTINUOUS
 66
     1
 40
0.000000
 41
0.000000
  0
VERTEX
  8
0
  6
CONTINUOUS
 10
5.085080
 20
1.971640
  0
VERTEX
  8
0
  6
CONTINUOUS
 10
5.723080
 20
2.346080
  0
VERTEX
  8
0
  6
CONTINUOUS
 10
5.699760
 20
2.324520
  0
VERTEX
  8
0
  6
CONTINUOUS
 10
5.061320
 20
1.950520
  0
VERTEX
  8
0
  6
CONTINUOUS
 10
5.085080
 20
1.971640
  0
SEQEND
  8
0
  0
SOLID
  8
0
 62
    15
 10
5.061320
 20
1.950520
 11
5.699760
 21
2.324520
 12
5.041520
 22
1.928960
 13
5.679520
 23
2.302960
  0
POLYLINE
  8
0
  6
CONTINUOUS
 66
     1
 40
0.000000
 41
0.000000
  0
VERTEX
  8
0
  6
CONTINUOUS
 10
5.061320
 20
1.950520
  0
VERTEX
  8
0
  6
CONTINUOUS
 10
5.699760
 20
2.324520
  0
VERTEX
  8
0
  6
CONTINUOUS
 10
5.679520
 20
2.302960
  0
VERTEX
  8
0
  6
CONTINUOUS
 10
5.041520
 20
1.928960
  0
VERTEX
  8
0
  6
CONTINUOUS
 10
5.061320
 20
1.950520
  0
SEQEND
  8
0
  0
SOLID
  8
0
 62
    15
 10
5.041520
 20
1.928960
 11
5.679520
 21
2.302960
 12
5.010720
 22
1.887160
 13
5.648720
 23
2.261160
  0
POLYLINE
  8
0
  6
CONTINUOUS
 66
     1
 40
0.000000
 41
0.000000
  0
VERTEX
  8
0
  6
CONTINUOUS
 10
5.041520
 20
1.928960
  0
VERTEX
  8
0
  6
CONTINUOUS
 10
5.679520
 20
2.302960
  0
VERTEX
  8
0
  6
CONTINUOUS
 10
5.648720
 20
2.261160
  0
VERTEX
  8
0
  6
CONTINUOUS
 10
5.010720
 20
1.887160
  0
VERTEX
  8
0
  6
CONTINUOUS
 10
5.041520
 20
1.928960
  0
SEQEND
  8
0
  0
SOLID
  8
0
 62
    15
 10
5.010720
 20
1.887160
 11
5.648720
 21
2.261160
 12
4.991800
 22
1.845800
 13
5.629800
 23
2.219800
  0
POLYLINE
  8
0
  6
CONTINUOUS
 66
     1
 40
0.000000
 41
0.000000
  0
VERTEX
  8
0
  6
CONTINUOUS
 10
5.010720
 20
1.887160
  0
VERTEX
  8
0
  6
CONTINUOUS
 10
5.648720
 20
2.261160
  0
VERTEX
  8
0
  6
CONTINUOUS
 10
5.629800
 20
2.219800
  0
VERTEX
  8
0
  6
CONTINUOUS
 10
4.991800
 20
1.845800
  0
VERTEX
  8
0
  6
CONTINUOUS
 10
5.010720
 20
1.887160
  0
SEQEND
  8
0
  0
SOLID
  8
0
 62
    15
 10
4.991800
 20
1.845800
 11
5.629800
 21
2.219800
 12
4.983880
 22
1.805760
 13
5.621880
 23
2.179760
  0
POLYLINE
  8
0
  6
CONTINUOUS
 66
     1
 40
0.000000
 41
0.000000
  0
VERTEX
  8
0
  6
CONTINUOUS
 10
4.991800
 20
1.845800
  0
VERTEX
  8
0
  6
CONTINUOUS
 10
5.629800
 20
2.219800
  0
VERTEX
  8
0
  6
CONTINUOUS
 10
5.621880
 20
2.179760
  0
VERTEX
  8
0
  6
CONTINUOUS
 10
4.983880
 20
1.805760
  0
VERTEX
  8
0
  6
CONTINUOUS
 10
4.991800
 20
1.845800
  0
SEQEND
  8
0
  0
SOLID
  8
0
 62
    15
 10
4.983880
 20
1.805760
 11
5.621880
 21
2.179760
 12
4.985200
 22
1.766600
 13
5.623640
 23
2.140600
  0
POLYLINE
  8
0
  6
CONTINUOUS
 66
     1
 40
0.000000
 41
0.000000
  0
VERTEX
  8
0
  6
CONTINUOUS
 10
4.983880
 20
1.805760
  0
VERTEX
  8
0
  6
CONTINUOUS
 10
5.621880
 20
2.179760
  0
VERTEX
  8
0
  6
CONTINUOUS
 10
5.623640
 20
2.140600
  0
VERTEX
  8
0
  6
CONTINUOUS
 10
4.985200
 20
1.766600
  0
VERTEX
  8
0
  6
CONTINUOUS
 10
4.983880
 20
1.805760
  0
SEQEND
  8
0
  0
SOLID
  8
0
 62
    15
 10
4.985200
 20
1.766600
 11
5.623640
 21
2.140600
 12
4.995760
 22
1.728760
 13
5.633760
 23
2.102760
  0
POLYLINE
  8
0
  6
CONTINUOUS
 66
     1
 40
0.000000
 41
0.000000
  0
VERTEX
  8
0
  6
CONTINUOUS
 10
4.985200
 20
1.766600
  0
VERTEX
  8
0
  6
CONTINUOUS
 10
5.623640
 20
2.140600
  0
VERTEX
  8
0
  6
CONTINUOUS
 10
5.633760
 20
2.102760
  0
VERTEX
  8
0
  6
CONTINUOUS
 10
4.995760
 20
1.728760
  0
VERTEX
  8
0
  6
CONTINUOUS
 10
4.985200
 20
1.766600
  0
SEQEND
  8
0
  0
SOLID
  8
0
 62
     7
 10
4.995760
 20
1.728760
 11
5.633760
 21
2.102760
 12
5.013360
 22
1.692240
 13
5.651360
 23
2.066240
  0
POLYLINE
  8
0
  6
CONTINUOUS
 66
     1
 40
0.000000
 41
0.000000
  0
VERTEX
  8
0
  6
CONTINUOUS
 10
4.995760
 20
1.728760
  0
VERTEX
  8
0
  6
CONTINUOUS
 10
5.633760
 20
2.102760
  0
VERTEX
  8
0
  6
CONTINUOUS
 10
5.651360
 20
2.066240
  0
VERTEX
  8
0
  6
CONTINUOUS
 10
5.013360
 20
1.692240
  0
VERTEX
  8
0
  6
CONTINUOUS
 10
4.995760
 20
1.728760
  0
SEQEND
  8
0
  0
SOLID
  8
0
 62
     7
 10
5.013360
 20
1.692240
 11
5.651360
 21
2.066240
 12
5.038000
 22
1.657040
 13
5.676000
 23
2.031040
  0
POLYLINE
  8
0
  6
CONTINUOUS
 66
     1
 40
0.000000
 41
0.000000
  0
VERTEX
  8
0
  6
CONTINUOUS
 10
5.013360
 20
1.692240
  0
VERTEX
  8
0
  6
CONTINUOUS
 10
5.651360
 20
2.066240
  0
VERTEX
  8
0
  6
CONTINUOUS
 10
5.676000
 20
2.031040
  0
VERTEX
  8
0
  6
CONTINUOUS
 10
5.038000
 20
1.657040
  0
VERTEX
  8
0
  6
CONTINUOUS
 10
5.013360
 20
1.692240
  0
SEQEND
  8
0
  0
SOLID
  8
0
 62
    15
 10
5.038000
 20
1.657040
 11
5.676000
 21
2.031040
 12
5.067480
 22
1.623160
 13
5.705480
 23
1.997160
  0
POLYLINE
  8
0
  6
CONTINUOUS
 66
     1
 40
0.000000
 41
0.000000
  0
VERTEX
  8
0
  6
CONTINUOUS
 10
5.038000
 20
1.657040
  0
VERTEX
  8
0
  6
CONTINUOUS
 10
5.676000
 20
2.031040
  0
VERTEX
  8
0
  6
CONTINUOUS
 10
5.705480
 20
1.997160
  0
VERTEX
  8
0
  6
CONTINUOUS
 10
5.067480
 20
1.623160
  0
VERTEX
  8
0
  6
CONTINUOUS
 10
5.038000
 20
1.657040
  0
SEQEND
  8
0
  0
SOLID
  8
0
 62
    15
 10
5.067480
 20
1.623160
 11
5.705480
 21
1.997160
 12
5.101800
 22
1.591040
 13
5.739800
 23
1.965040
  0
POLYLINE
  8
0
  6
CONTINUOUS
 66
     1
 40
0.000000
 41
0.000000
  0
VERTEX
  8
0
  6
CONTINUOUS
 10
5.067480
 20
1.623160
  0
VERTEX
  8
0
  6
CONTINUOUS
 10
5.705480
 20
1.997160
  0
VERTEX
  8
0
  6
CONTINUOUS
 10
5.739800
 20
1.965040
  0
VERTEX
  8
0
  6
CONTINUOUS
 10
5.101800
 20
1.591040
  0
VERTEX
  8
0
  6
CONTINUOUS
 10
5.067480
 20
1.623160
  0
SEQEND
  8
0
  0
SOLID
  8
0
 62
    15
 10
5.101800
 20
1.591040
 11
5.739800
 21
1.965040
 12
5.178360
 22
1.531200
 13
5.816360
 23
1.905640
  0
POLYLINE
  8
0
  6
CONTINUOUS
 66
     1
 40
0.000000
 41
0.000000
  0
VERTEX
  8
0
  6
CONTINUOUS
 10
5.101800
 20
1.591040
  0
VERTEX
  8
0
  6
CONTINUOUS
 10
5.739800
 20
1.965040
  0
VERTEX
  8
0
  6
CONTINUOUS
 10
5.816360
 20
1.905640
  0
VERTEX
  8
0
  6
CONTINUOUS
 10
5.178360
 20
1.531200
  0
VERTEX
  8
0
  6
CONTINUOUS
 10
5.101800
 20
1.591040
  0
SEQEND
  8
0
  0
SOLID
  8
0
 62
    15
 10
5.178360
 20
1.531200
 11
5.816360
 21
1.905640
 12
5.259320
 22
1.479280
 13
5.897320
 23
1.853280
  0
POLYLINE
  8
0
  6
CONTINUOUS
 66
     1
 40
0.000000
 41
0.000000
  0
VERTEX
  8
0
  6
CONTINUOUS
 10
5.178360
 20
1.531200
  0
VERTEX
  8
0
  6
CONTINUOUS
 10
5.816360
 20
1.905640
  0
VERTEX
  8
0
  6
CONTINUOUS
 10
5.897320
 20
1.853280
  0
VERTEX
  8
0
  6
CONTINUOUS
 10
5.259320
 20
1.479280
  0
VERTEX
  8
0
  6
CONTINUOUS
 10
5.178360
 20
1.531200
  0
SEQEND
  8
0
  0
SOLID
  8
0
 62
    15
 10
5.259320
 20
1.479280
 11
5.897320
 21
1.853280
 12
5.336320
 22
1.435280
 13
5.974320
 23
1.809280
  0
POLYLINE
  8
0
  6
CONTINUOUS
 66
     1
 40
0.000000
 41
0.000000
  0
VERTEX
  8
0
  6
CONTINUOUS
 10
5.259320
 20
1.479280
  0
VERTEX
  8
0
  6
CONTINUOUS
 10
5.897320
 20
1.853280
  0
VERTEX
  8
0
  6
CONTINUOUS
 10
5.974320
 20
1.809280
  0
VERTEX
  8
0
  6
CONTINUOUS
 10
5.336320
 20
1.435280
  0
VERTEX
  8
0
  6
CONTINUOUS
 10
5.259320
 20
1.479280
  0
SEQEND
  8
0
  0
SOLID
  8
0
 62
    15
 10
5.336320
 20
1.435280
 11
5.974320
 21
1.809280
 12
5.369320
 22
1.415040
 13
6.007320
 23
1.789040
  0
POLYLINE
  8
0
  6
CONTINUOUS
 66
     1
 40
0.000000
 41
0.000000
  0
VERTEX
  8
0
  6
CONTINUOUS
 10
5.336320
 20
1.435280
  0
VERTEX
  8
0
  6
CONTINUOUS
 10
5.974320
 20
1.809280
  0
VERTEX
  8
0
  6
CONTINUOUS
 10
6.007320
 20
1.789040
  0
VERTEX
  8
0
  6
CONTINUOUS
 10
5.369320
 20
1.415040
  0
VERTEX
  8
0
  6
CONTINUOUS
 10
5.336320
 20
1.435280
  0
SEQEND
  8
0
  0
SOLID
  8
0
 62
    15
 10
4.825040
 20
2.289760
 11
5.463040
 21
2.663760
 12
4.887080
 22
2.289760
 13
5.525080
 23
2.663760
  0
POLYLINE
  8
0
  6
CONTINUOUS
 66
     1
 40
0.000000
 41
0.000000
  0
VERTEX
  8
0
  6
CONTINUOUS
 10
4.825040
 20
2.289760
  0
VERTEX
  8
0
  6
CONTINUOUS
 10
5.463040
 20
2.663760
  0
VERTEX
  8
0
  6
CONTINUOUS
 10
5.525080
 20
2.663760
  0
VERTEX
  8
0
  6
CONTINUOUS
 10
4.887080
 20
2.289760
  0
VERTEX
  8
0
  6
CONTINUOUS
 10
4.825040
 20
2.289760
  0
SEQEND
  8
0
  0
SOLID
  8
0
 62
    15
 10
5.397920
 20
1.393920
 11
6.035920
 21
1.768360
 12
5.421240
 22
1.372360
 13
6.059240
 23
1.746800
  0
POLYLINE
  8
0
  6
CONTINUOUS
 66
     1
 40
0.000000
 41
0.000000
  0
VERTEX
  8
0
  6
CONTINUOUS
 10
5.397920
 20
1.393920
  0
VERTEX
  8
0
  6
CONTINUOUS
 10
6.035920
 20
1.768360
  0
VERTEX
  8
0
  6
CONTINUOUS
 10
6.059240
 20
1.746800
  0
VERTEX
  8
0
  6
CONTINUOUS
 10
5.421240
 20
1.372360
  0
VERTEX
  8
0
  6
CONTINUOUS
 10
5.397920
 20
1.393920
  0
SEQEND
  8
0
  0
SOLID
  8
0
 62
    15
 10
5.421240
 20
1.372360
 11
6.059240
 21
1.746800
 12
5.440160
 22
1.350360
 13
6.078160
 23
1.724360
  0
POLYLINE
  8
0
  6
CONTINUOUS
 66
     1
 40
0.000000
 41
0.000000
  0
VERTEX
  8
0
  6
CONTINUOUS
 10
5.421240
 20
1.372360
  0
VERTEX
  8
0
  6
CONTINUOUS
 10
6.059240
 20
1.746800
  0
VERTEX
  8
0
  6
CONTINUOUS
 10
6.078160
 20
1.724360
  0
VERTEX
  8
0
  6
CONTINUOUS
 10
5.440160
 20
1.350360
  0
VERTEX
  8
0
  6
CONTINUOUS
 10
5.421240
 20
1.372360
  0
SEQEND
  8
0
  0
SOLID
  8
0
 62
    15
 10
5.440160
 20
1.350360
 11
6.078160
 21
1.724360
 12
5.453800
 22
1.327920
 13
6.091800
 23
1.701920
  0
POLYLINE
  8
0
  6
CONTINUOUS
 66
     1
 40
0.000000
 41
0.000000
  0
VERTEX
  8
0
  6
CONTINUOUS
 10
5.440160
 20
1.350360
  0
VERTEX
  8
0
  6
CONTINUOUS
 10
6.078160
 20
1.724360
  0
VERTEX
  8
0
  6
CONTINUOUS
 10
6.091800
 20
1.701920
  0
VERTEX
  8
0
  6
CONTINUOUS
 10
5.453800
 20
1.327920
  0
VERTEX
  8
0
  6
CONTINUOUS
 10
5.440160
 20
1.350360
  0
SEQEND
  8
0
  0
SOLID
  8
0
 62
    15
 10
5.453800
 20
1.327920
 11
6.091800
 21
1.701920
 12
5.463480
 22
1.305040
 13
6.101480
 23
1.679040
  0
POLYLINE
  8
0
  6
CONTINUOUS
 66
     1
 40
0.000000
 41
0.000000
  0
VERTEX
  8
0
  6
CONTINUOUS
 10
5.453800
 20
1.327920
  0
VERTEX
  8
0
  6
CONTINUOUS
 10
6.091800
 20
1.701920
  0
VERTEX
  8
0
  6
CONTINUOUS
 10
6.101480
 20
1.679040
  0
VERTEX
  8
0
  6
CONTINUOUS
 10
5.463480
 20
1.305040
  0
VERTEX
  8
0
  6
CONTINUOUS
 10
5.453800
 20
1.327920
  0
SEQEND
  8
0
  0
SOLID
  8
0
 62
    15
 10
5.463480
 20
1.305040
 11
6.101480
 21
1.679040
 12
5.468320
 22
1.281720
 13
6.106320
 23
1.655720
  0
POLYLINE
  8
0
  6
CONTINUOUS
 66
     1
 40
0.000000
 41
0.000000
  0
VERTEX
  8
0
  6
CONTINUOUS
 10
5.463480
 20
1.305040
  0
VERTEX
  8
0
  6
CONTINUOUS
 10
6.101480
 20
1.679040
  0
VERTEX
  8
0
  6
CONTINUOUS
 10
6.106320
 20
1.655720
  0
VERTEX
  8
0
  6
CONTINUOUS
 10
5.468320
 20
1.281720
  0
VERTEX
  8
0
  6
CONTINUOUS
 10
5.463480
 20
1.305040
  0
SEQEND
  8
0
  0
SOLID
  8
0
 62
    15
 10
5.468320
 20
1.281720
 11
6.106320
 21
1.655720
 12
5.469200
 22
1.257960
 13
6.107200
 23
1.632400
  0
POLYLINE
  8
0
  6
CONTINUOUS
 66
     1
 40
0.000000
 41
0.000000
  0
VERTEX
  8
0
  6
CONTINUOUS
 10
5.468320
 20
1.281720
  0
VERTEX
  8
0
  6
CONTINUOUS
 10
6.106320
 20
1.655720
  0
VERTEX
  8
0
  6
CONTINUOUS
 10
6.107200
 20
1.632400
  0
VERTEX
  8
0
  6
CONTINUOUS
 10
5.469200
 20
1.257960
  0
VERTEX
  8
0
  6
CONTINUOUS
 10
5.468320
 20
1.281720
  0
SEQEND
  8
0
  0
SOLID
  8
0
 62
    15
 10
5.469200
 20
1.257960
 11
6.107200
 21
1.632400
 12
5.465680
 22
1.234200
 13
6.103680
 23
1.608640
  0
POLYLINE
  8
0
  6
CONTINUOUS
 66
     1
 40
0.000000
 41
0.000000
  0
VERTEX
  8
0
  6
CONTINUOUS
 10
5.469200
 20
1.257960
  0
VERTEX
  8
0
  6
CONTINUOUS
 10
6.107200
 20
1.632400
  0
VERTEX
  8
0
  6
CONTINUOUS
 10
6.103680
 20
1.608640
  0
VERTEX
  8
0
  6
CONTINUOUS
 10
5.465680
 20
1.234200
  0
VERTEX
  8
0
  6
CONTINUOUS
 10
5.469200
 20
1.257960
  0
SEQEND
  8
0
  0
SOLID
  8
0
 62
    15
 10
5.465680
 20
1.234200
 11
6.103680
 21
1.608640
 12
5.457760
 22
1.210440
 13
6.095760
 23
1.584880
  0
POLYLINE
  8
0
  6
CONTINUOUS
 66
     1
 40
0.000000
 41
0.000000
  0
VERTEX
  8
0
  6
CONTINUOUS
 10
5.465680
 20
1.234200
  0
VERTEX
  8
0
  6
CONTINUOUS
 10
6.103680
 20
1.608640
  0
VERTEX
  8
0
  6
CONTINUOUS
 10
6.095760
 20
1.584880
  0
VERTEX
  8
0
  6
CONTINUOUS
 10
5.457760
 20
1.210440
  0
VERTEX
  8
0
  6
CONTINUOUS
 10
5.465680
 20
1.234200
  0
SEQEND
  8
0
  0
SOLID
  8
0
 62
    15
 10
5.457760
 20
1.210440
 11
6.095760
 21
1.584880
 12
5.445880
 22
1.186680
 13
6.083880
 23
1.560680
  0
POLYLINE
  8
0
  6
CONTINUOUS
 66
     1
 40
0.000000
 41
0.000000
  0
VERTEX
  8
0
  6
CONTINUOUS
 10
5.457760
 20
1.210440
  0
VERTEX
  8
0
  6
CONTINUOUS
 10
6.095760
 20
1.584880
  0
VERTEX
  8
0
  6
CONTINUOUS
 10
6.083880
 20
1.560680
  0
VERTEX
  8
0
  6
CONTINUOUS
 10
5.445880
 20
1.186680
  0
VERTEX
  8
0
  6
CONTINUOUS
 10
5.457760
 20
1.210440
  0
SEQEND
  8
0
  0
SOLID
  8
0
 62
    15
 10
5.445880
 20
1.186680
 11
6.083880
 21
1.560680
 12
5.430040
 22
1.162920
 13
6.068040
 23
1.536920
  0
POLYLINE
  8
0
  6
CONTINUOUS
 66
     1
 40
0.000000
 41
0.000000
  0
VERTEX
  8
0
  6
CONTINUOUS
 10
5.445880
 20
1.186680
  0
VERTEX
  8
0
  6
CONTINUOUS
 10
6.083880
 20
1.560680
  0
VERTEX
  8
0
  6
CONTINUOUS
 10
6.068040
 20
1.536920
  0
VERTEX
  8
0
  6
CONTINUOUS
 10
5.430040
 20
1.162920
  0
VERTEX
  8
0
  6
CONTINUOUS
 10
5.445880
 20
1.186680
  0
SEQEND
  8
0
  0
SOLID
  8
0
 62
    15
 10
5.430040
 20
1.162920
 11
6.068040
 21
1.536920
 12
5.410240
 22
1.139160
 13
6.048240
 23
1.513160
  0
POLYLINE
  8
0
  6
CONTINUOUS
 66
     1
 40
0.000000
 41
0.000000
  0
VERTEX
  8
0
  6
CONTINUOUS
 10
5.430040
 20
1.162920
  0
VERTEX
  8
0
  6
CONTINUOUS
 10
6.068040
 20
1.536920
  0
VERTEX
  8
0
  6
CONTINUOUS
 10
6.048240
 20
1.513160
  0
VERTEX
  8
0
  6
CONTINUOUS
 10
5.410240
 20
1.139160
  0
VERTEX
  8
0
  6
CONTINUOUS
 10
5.430040
 20
1.162920
  0
SEQEND
  8
0
  0
SOLID
  8
0
 62
    15
 10
5.410240
 20
1.139160
 11
6.048240
 21
1.513160
 12
5.386920
 22
1.115400
 13
6.024920
 23
1.489400
  0
POLYLINE
  8
0
  6
CONTINUOUS
 66
     1
 40
0.000000
 41
0.000000
  0
VERTEX
  8
0
  6
CONTINUOUS
 10
5.410240
 20
1.139160
  0
VERTEX
  8
0
  6
CONTINUOUS
 10
6.048240
 20
1.513160
  0
VERTEX
  8
0
  6
CONTINUOUS
 10
6.024920
 20
1.489400
  0
VERTEX
  8
0
  6
CONTINUOUS
 10
5.386920
 20
1.115400
  0
VERTEX
  8
0
  6
CONTINUOUS
 10
5.410240
 20
1.139160
  0
SEQEND
  8
0
  0
SOLID
  8
0
 62
    15
 10
5.386920
 20
1.115400
 11
6.024920
 21
1.489400
 12
5.359640
 22
1.092080
 13
5.998080
 23
1.466080
  0
POLYLINE
  8
0
  6
CONTINUOUS
 66
     1
 40
0.000000
 41
0.000000
  0
VERTEX
  8
0
  6
CONTINUOUS
 10
5.386920
 20
1.115400
  0
VERTEX
  8
0
  6
CONTINUOUS
 10
6.024920
 20
1.489400
  0
VERTEX
  8
0
  6
CONTINUOUS
 10
5.998080
 20
1.466080
  0
VERTEX
  8
0
  6
CONTINUOUS
 10
5.359640
 20
1.092080
  0
VERTEX
  8
0
  6
CONTINUOUS
 10
5.386920
 20
1.115400
  0
SEQEND
  8
0
  0
SOLID
  8
0
 62
    15
 10
5.359640
 20
1.092080
 11
5.998080
 21
1.466080
 12
5.329280
 22
1.069200
 13
5.967280
 23
1.443200
  0
POLYLINE
  8
0
  6
CONTINUOUS
 66
     1
 40
0.000000
 41
0.000000
  0
VERTEX
  8
0
  6
CONTINUOUS
 10
5.359640
 20
1.092080
  0
VERTEX
  8
0
  6
CONTINUOUS
 10
5.998080
 20
1.466080
  0
VERTEX
  8
0
  6
CONTINUOUS
 10
5.967280
 20
1.443200
  0
VERTEX
  8
0
  6
CONTINUOUS
 10
5.329280
 20
1.069200
  0
VERTEX
  8
0
  6
CONTINUOUS
 10
5.359640
 20
1.092080
  0
SEQEND
  8
0
  0
SOLID
  8
0
 62
    15
 10
5.329280
 20
1.069200
 11
5.967280
 21
1.443200
 12
5.327080
 22
1.041480
 13
5.965080
 23
1.415480
  0
POLYLINE
  8
0
  6
CONTINUOUS
 66
     1
 40
0.000000
 41
0.000000
  0
VERTEX
  8
0
  6
CONTINUOUS
 10
5.329280
 20
1.069200
  0
VERTEX
  8
0
  6
CONTINUOUS
 10
5.967280
 20
1.443200
  0
VERTEX
  8
0
  6
CONTINUOUS
 10
5.965080
 20
1.415480
  0
VERTEX
  8
0
  6
CONTINUOUS
 10
5.327080
 20
1.041480
  0
VERTEX
  8
0
  6
CONTINUOUS
 10
5.329280
 20
1.069200
  0
SEQEND
  8
0
  0
SOLID
  8
0
 62
    15
 10
5.327080
 20
1.041480
 11
5.965080
 21
1.415480
 12
5.513640
 22
1.006720
 13
6.151640
 23
1.381160
  0
POLYLINE
  8
0
  6
CONTINUOUS
 66
     1
 40
0.000000
 41
0.000000
  0
VERTEX
  8
0
  6
CONTINUOUS
 10
5.327080
 20
1.041480
  0
VERTEX
  8
0
  6
CONTINUOUS
 10
5.965080
 20
1.415480
  0
VERTEX
  8
0
  6
CONTINUOUS
 10
6.151640
 20
1.381160
  0
VERTEX
  8
0
  6
CONTINUOUS
 10
5.513640
 20
1.006720
  0
VERTEX
  8
0
  6
CONTINUOUS
 10
5.327080
 20
1.041480
  0
SEQEND
  8
0
  0
SOLID
  8
0
 62
    15
 10
5.513640
 20
1.006720
 11
6.151640
 21
1.381160
 12
5.514520
 22
0.784520
 13
6.152520
 23
1.158520
  0
POLYLINE
  8
0
  6
CONTINUOUS
 66
     1
 40
0.000000
 41
0.000000
  0
VERTEX
  8
0
  6
CONTINUOUS
 10
5.513640
 20
1.006720
  0
VERTEX
  8
0
  6
CONTINUOUS
 10
6.151640
 20
1.381160
  0
VERTEX
  8
0
  6
CONTINUOUS
 10
6.152520
 20
1.158520
  0
VERTEX
  8
0
  6
CONTINUOUS
 10
5.514520
 20
0.784520
  0
VERTEX
  8
0
  6
CONTINUOUS
 10
5.513640
 20
1.006720
  0
SEQEND
  8
0
  0
POLYLINE
  8
0
  6
CONTINUOUS
 66
     1
 40
0.000000
 41
0.000000
  0
VERTEX
  8
0
  6
CONTINUOUS
 10
5.514520
 20
0.784960
  0
VERTEX
  8
0
  6
CONTINUOUS
 10
4.825040
 20
0.784960
  0
VERTEX
  8
0
  6
CONTINUOUS
 10
4.825040
 20
2.289760
  0
VERTEX
  8
0
  6
CONTINUOUS
 10
4.887080
 20
2.289760
  0
VERTEX
  8
0
  6
CONTINUOUS
 10
5.085080
 20
1.971640
  0
VERTEX
  8
0
  6
CONTINUOUS
 10
5.061320
 20
1.950520
  0
VERTEX
  8
0
  6
CONTINUOUS
 10
5.041520
 20
1.928960
  0
VERTEX
  8
0
  6
CONTINUOUS
 10
5.010720
 20
1.887160
  0
VERTEX
  8
0
  6
CONTINUOUS
 10
4.991800
 20
1.845800
  0
VERTEX
  8
0
  6
CONTINUOUS
 10
4.983880
 20
1.805760
  0
VERTEX
  8
0
  6
CONTINUOUS
 10
4.985200
 20
1.766600
  0
VERTEX
  8
0
  6
CONTINUOUS
 10
4.995760
 20
1.728760
  0
VERTEX
  8
0
  6
CONTINUOUS
 10
5.013360
 20
1.692240
  0
VERTEX
  8
0
  6
CONTINUOUS
 10
5.038000
 20
1.657040
  0
VERTEX
  8
0
  6
CONTINUOUS
 10
5.067480
 20
1.623160
  0
VERTEX
  8
0
  6
CONTINUOUS
 10
5.101800
 20
1.591040
  0
VERTEX
  8
0
  6
CONTINUOUS
 10
5.178360
 20
1.531200
  0
VERTEX
  8
0
  6
CONTINUOUS
 10
5.259320
 20
1.479280
  0
VERTEX
  8
0
  6
CONTINUOUS
 10
5.336320
 20
1.435280
  0
VERTEX
  8
0
  6
CONTINUOUS
 10
5.369320
 20
1.415040
  0
VERTEX
  8
0
  6
CONTINUOUS
 10
5.397920
 20
1.393920
  0
VERTEX
  8
0
  6
CONTINUOUS
 10
5.421240
 20
1.372360
  0
VERTEX
  8
0
  6
CONTINUOUS
 10
5.440160
 20
1.350360
  0
VERTEX
  8
0
  6
CONTINUOUS
 10
5.453800
 20
1.327920
  0
VERTEX
  8
0
  6
CONTINUOUS
 10
5.463480
 20
1.305040
  0
VERTEX
  8
0
  6
CONTINUOUS
 10
5.468320
 20
1.281720
  0
VERTEX
  8
0
  6
CONTINUOUS
 10
5.469200
 20
1.257960
  0
VERTEX
  8
0
  6
CONTINUOUS
 10
5.465680
 20
1.234200
  0
VERTEX
  8
0
  6
CONTINUOUS
 10
5.457760
 20
1.210440
  0
VERTEX
  8
0
  6
CONTINUOUS
 10
5.445880
 20
1.186680
  0
VERTEX
  8
0
  6
CONTINUOUS
 10
5.430040
 20
1.162920
  0
VERTEX
  8
0
  6
CONTINUOUS
 10
5.410240
 20
1.139160
  0
VERTEX
  8
0
  6
CONTINUOUS
 10
5.386920
 20
1.115400
  0
VERTEX
  8
0
  6
CONTINUOUS
 10
5.359640
 20
1.092080
  0
VERTEX
  8
0
  6
CONTINUOUS
 10
5.329280
 20
1.069200
  0
VERTEX
  8
0
  6
CONTINUOUS
 10
5.327080
 20
1.041480
  0
VERTEX
  8
0
  6
CONTINUOUS
 10
5.513640
 20
1.006720
  0
VERTEX
  8
0
  6
CONTINUOUS
 10
5.514520
 20
0.784520
  0
VERTEX
  8
0
  6
CONTINUOUS
 10
5.514520
 20
0.784960
  0
SEQEND
  8
0
  0
TEXT
  8
0
 10
5.147120
 20
0.533280
 40
0.138157
  1
BA  1044
 41
1.000000
  7
SN0
 71
     0
 72
     5
 11
5.829866
 21
0.533280
  0
TEXT
  8
0
 10
4.898960
 20
0.341880
 40
0.138157
  1
11/16" x 1-9/16"
 41
1.000000
  7
SN0
 71
     0
 72
     5
 11
6.076714
 21
0.341880
  0
POLYLINE
  8
0
  6
CONTINUOUS
 66
     1
 40
0.014080
 41
0.014080
  0
VERTEX
  8
0
  6
CONTINUOUS
 10
6.515080
 20
2.481160
  0
VERTEX
  8
0
  6
CONTINUOUS
 10
6.737720
 20
2.480280
  0
VERTEX
  8
0
  6
CONTINUOUS
 10
6.772040
 20
2.293720
  0
VERTEX
  8
0
  6
CONTINUOUS
 10
6.799760
 20
2.295920
  0
VERTEX
  8
0
  6
CONTINUOUS
 10
6.834520
 20
2.340800
  0
VERTEX
  8
0
  6
CONTINUOUS
 10
6.869720
 20
2.377320
  0
VERTEX
  8
0
  6
CONTINUOUS
 10
6.905360
 20
2.405040
  0
VERTEX
  8
0
  6
CONTINUOUS
 10
6.929560
 20
2.419120
  0
VERTEX
  8
0
  6
CONTINUOUS
 10
6.965200
 20
2.432320
  0
VERTEX
  8
0
  6
CONTINUOUS
 10
6.988960
 20
2.435840
  0
VERTEX
  8
0
  6
CONTINUOUS
 10
7.000840
 20
2.436280
  0
VERTEX
  8
0
  6
CONTINUOUS
 10
7.024160
 20
2.433200
  0
VERTEX
  8
0
  6
CONTINUOUS
 10
7.047480
 20
2.426160
  0
VERTEX
  8
0
  6
CONTINUOUS
 10
7.081360
 20
2.406800
  0
VERTEX
  8
0
  6
CONTINUOUS
 10
7.103360
 20
2.387880
  0
VERTEX
  8
0
  6
CONTINUOUS
 10
7.124920
 20
2.364560
  0
VERTEX
  8
0
  6
CONTINUOUS
 10
7.145600
 20
2.336400
  0
VERTEX
  8
0
  6
CONTINUOUS
 10
7.209840
 20
2.225960
  0
VERTEX
  8
0
  6
CONTINUOUS
 10
7.234920
 20
2.185480
  0
VERTEX
  8
0
  6
CONTINUOUS
 10
7.290800
 20
2.105840
  0
VERTEX
  8
0
  6
CONTINUOUS
 10
7.337440
 20
2.050840
  0
VERTEX
  8
0
  6
CONTINUOUS
 10
7.370440
 20
2.018720
  0
VERTEX
  8
0
  6
CONTINUOUS
 10
7.405200
 20
1.991880
  0
VERTEX
  8
0
  6
CONTINUOUS
 10
7.440840
 20
1.970320
  0
VERTEX
  8
0
  6
CONTINUOUS
 10
7.459320
 20
1.962400
  0
VERTEX
  8
0
  6
CONTINUOUS
 10
7.478240
 20
1.956240
  0
VERTEX
  8
0
  6
CONTINUOUS
 10
7.497160
 20
1.952280
  0
VERTEX
  8
0
  6
CONTINUOUS
 10
7.516520
 20
1.950080
  0
VERTEX
  8
0
  6
CONTINUOUS
 10
7.536320
 20
1.950520
  0
VERTEX
  8
0
  6
CONTINUOUS
 10
7.566240
 20
1.955360
  0
VERTEX
  8
0
  6
CONTINUOUS
 10
7.597040
 20
1.966360
  0
VERTEX
  8
0
  6
CONTINUOUS
 10
7.628280
 20
1.983960
  0
VERTEX
  8
0
  6
CONTINUOUS
 10
7.659960
 20
2.008160
  0
VERTEX
  8
0
  6
CONTINUOUS
 10
7.702640
 20
2.051720
  0
VERTEX
  8
0
  6
CONTINUOUS
 10
8.020320
 20
1.853720
  0
VERTEX
  8
0
  6
CONTINUOUS
 10
8.020320
 20
1.791680
  0
VERTEX
  8
0
  6
CONTINUOUS
 10
6.515960
 20
1.791680
  0
VERTEX
  8
0
  6
CONTINUOUS
 10
6.515960
 20
2.481160
  0
VERTEX
  8
0
  6
CONTINUOUS
 10
6.515080
 20
2.481160
  0
SEQEND
  8
0
  0
TEXT
  8
0
 10
6.890840
 20
1.571240
 40
0.138157
  1
BA  1044
 41
1.000000
  7
SN0
 71
     0
 72
     5
 11
7.573586
 21
1.571240
  0
TEXT
  8
0
 10
6.642680
 20
1.379840
 40
0.138157
  1
11/16" x 1-9/16"
 41
1.000000
  7
SN0
 71
     0
 72
     5
 11
7.820434
 21
1.379840
  0
ENDSEC
  0
EOF
